  0
SECTION
  2
HEADER
  9
$ACADVER
  1
AC1009
  9
$INSBASE
 10
0.0
 20
0.0
 30
0.0
  9
$EXTMIN
 10
55.860490914737511
 20
-0.6922714636336877
 30
-0.0015258207003583
  9
$EXTMAX
 10
836.0209370109028
 20
589.02345725668533
 30
0.0000000349246037
  9
$LIMMIN
 10
0.0
 20
0.0
  9
$LIMMAX
 10
841.0
 20
594.0
  9
$ORTHOMODE
 70
     1
  9
$REGENMODE
 70
     1
  9
$FILLMODE
 70
     1
  9
$QTEXTMODE
 70
     0
  9
$MIRRTEXT
 70
     1
  9
$DRAGMODE
 70
     2
  9
$LTSCALE
 40
1.0
  9
$OSMODE
 70
   319
  9
$ATTMODE
 70
     1
  9
$TEXTSIZE
 40
0.0
  9
$TRACEWID
 40
0.05
  9
$TEXTSTYLE
  7
STANDARD
  9
$CLAYER
  8
LAY-2
  9
$CELTYPE
  6
CONTINUOUS
  9
$CECOLOR
 62
   256
  9
$DIMSCALE
 40
1.0
  9
$DIMASZ
 40
0.18
  9
$DIMEXO
 40
0.0625
  9
$DIMDLI
 40
0.38
  9
$DIMRND
 40
0.0
  9
$DIMDLE
 40
0.0
  9
$DIMEXE
 40
0.18
  9
$DIMTP
 40
0.0
  9
$DIMTM
 40
0.0
  9
$DIMTXT
 40
0.18
  9
$DIMCEN
 40
0.09
  9
$DIMTSZ
 40
0.0
  9
$DIMTOL
 70
     0
  9
$DIMLIM
 70
     0
  9
$DIMTIH
 70
     1
  9
$DIMTOH
 70
     1
  9
$DIMSE1
 70
     0
  9
$DIMSE2
 70
     0
  9
$DIMTAD
 70
     0
  9
$DIMZIN
 70
     0
  9
$DIMBLK
  1

  9
$DIMASO
 70
     1
  9
$DIMSHO
 70
     1
  9
$DIMPOST
  1

  9
$DIMAPOST
  1

  9
$DIMALT
 70
     0
  9
$DIMALTD
 70
     2
  9
$DIMALTF
 40
25.399999999999999
  9
$DIMLFAC
 40
1.0
  9
$DIMTOFL
 70
     0
  9
$DIMTVP
 40
0.0
  9
$DIMTIX
 70
     0
  9
$DIMSOXD
 70
     0
  9
$DIMSAH
 70
     0
  9
$DIMBLK1
  1

  9
$DIMBLK2
  1

  9
$DIMSTYLE
  2
STANDARD
  9
$DIMCLRD
 70
     0
  9
$DIMCLRE
 70
     0
  9
$DIMCLRT
 70
     0
  9
$DIMTFAC
 40
1.0
  9
$DIMGAP
 40
0.09
  9
$LUNITS
 70
     2
  9
$LUPREC
 70
     4
  9
$SKETCHINC
 40
0.1
  9
$FILLETRAD
 40
0.0
  9
$AUNITS
 70
     0
  9
$AUPREC
 70
     0
  9
$MENU
  1
acad
  9
$ELEVATION
 40
0.0
  9
$PELEVATION
 40
0.0
  9
$THICKNESS
 40
0.0
  9
$LIMCHECK
 70
     0
  9
$BLIPMODE
 70
     0
  9
$CHAMFERA
 40
0.0
  9
$CHAMFERB
 40
0.0
  9
$SKPOLY
 70
     0
  9
$TDCREATE
 40
2453499.0377410189
  9
$TDUPDATE
 40
2454683.7329645832
  9
$TDINDWG
 40
0.0004432407
  9
$TDUSRTIMER
 40
0.0004432407
  9
$USRTIMER
 70
     1
  9
$ANGBASE
 50
0.0
  9
$ANGDIR
 70
     0
  9
$PDMODE
 70
     0
  9
$PDSIZE
 40
0.0
  9
$PLINEWID
 40
0.0
  9
$COORDS
 70
     2
  9
$SPLFRAME
 70
     0
  9
$SPLINETYPE
 70
     6
  9
$SPLINESEGS
 70
     8
  9
$ATTDIA
 70
     0
  9
$ATTREQ
 70
     1
  9
$HANDLING
 70
     1
  9
$HANDSEED
  5
5BE
  9
$SURFTAB1
 70
     6
  9
$SURFTAB2
 70
     6
  9
$SURFTYPE
 70
     6
  9
$SURFU
 70
     6
  9
$SURFV
 70
     6
  9
$UCSNAME
  2

  9
$UCSORG
 10
0.0
 20
0.0
 30
0.0
  9
$UCSXDIR
 10
1.0
 20
0.0
 30
0.0
  9
$UCSYDIR
 10
0.0
 20
1.0
 30
0.0
  9
$PUCSNAME
  2

  9
$PUCSORG
 10
0.0
 20
0.0
 30
0.0
  9
$PUCSXDIR
 10
1.0
 20
0.0
 30
0.0
  9
$PUCSYDIR
 10
0.0
 20
1.0
 30
0.0
  9
$USERI1
 70
     0
  9
$USERI2
 70
     0
  9
$USERI3
 70
     0
  9
$USERI4
 70
     0
  9
$USERI5
 70
     0
  9
$USERR1
 40
0.0
  9
$USERR2
 40
0.0
  9
$USERR3
 40
0.0
  9
$USERR4
 40
0.0
  9
$USERR5
 40
0.0
  9
$WORLDVIEW
 70
     1
  9
$SHADEDGE
 70
     3
  9
$SHADEDIF
 70
    70
  9
$TILEMODE
 70
     1
  9
$MAXACTVP
 70
    16
  9
$PLIMCHECK
 70
     0
  9
$PEXTMIN
 10
1.0000000000000000E+020
 20
1.0000000000000000E+020
 30
1.0000000000000000E+020
  9
$PEXTMAX
 10
-1.0000000000000000E+020
 20
-1.0000000000000000E+020
 30
-1.0000000000000000E+020
  9
$PLIMMIN
 10
0.0
 20
0.0
  9
$PLIMMAX
 10
12.0
 20
9.0
  9
$UNITMODE
 70
     0
  9
$VISRETAIN
 70
     0
  9
$PLINEGEN
 70
     1
  9
$PSLTSCALE
 70
     0
  0
ENDSEC
  0
SECTION
  2
TABLES
  0
TABLE
  2
VPORT
 70
     2
  0
VPORT
  2
*ACTIVE
 70
     0
 10
0.0
 20
0.0
 11
1.0
 21
1.0
 12
445.94071396282021
 22
294.16559289652582
 13
0.0
 23
0.0
 14
1.0
 24
1.0
 15
0.0
 25
0.0
 16
0.0
 26
0.0
 36
1.0
 17
0.0
 27
0.0
 37
0.0
 40
596.37918328213038
 41
1.8415094339622631
 42
50.0
 43
0.0
 44
0.0
 50
0.0
 51
0.0
 71
     0
 72
   100
 73
     1
 74
     1
 75
     0
 76
     0
 77
     0
 78
     0
  0
ENDTAB
  0
TABLE
  2
LTYPE
 70
     7
  0
LTYPE
  2
CONTINUOUS
 70
     0
  3
実線
 72
    65
 73
     0
 40
0.0
  0
LTYPE
  2
EXLTYPE1
 70
     0
  3
破線
 72
    65
 73
     2
 40
4.0
 49
3.0
 49
-1.0
  0
LTYPE
  2
EXLTYPE2
 70
     0
  3
点線
 72
    65
 73
     2
 40
2.0
 49
1.0
 49
-1.0
  0
LTYPE
  2
EXLTYPE3
 70
     0
  3
一点鎖線
 72
    65
 73
     4
 40
33.0
 49
30.0
 49
-1.0
 49
1.0
 49
-1.0
  0
LTYPE
  2
EXLTYPE4
 70
     0
  3
二点鎖線
 72
    65
 73
     6
 40
35.0
 49
30.0
 49
-1.0
 49
1.0
 49
-1.0
 49
1.0
 49
-1.0
  0
LTYPE
  2
EXLTYPE5
 70
     0
  3
三点鎖線
 72
    65
 73
     8
 40
37.0
 49
30.0
 49
-1.0
 49
1.0
 49
-1.0
 49
1.0
 49
-1.0
 49
1.0
 49
-1.0
  0
LTYPE
  2
EXLTYPE6
 70
     0
  3
四点鎖線
 72
    65
 73
    10
 40
39.0
 49
30.0
 49
-1.0
 49
1.0
 49
-1.0
 49
1.0
 49
-1.0
 49
1.0
 49
-1.0
 49
1.0
 49
-1.0
  0
ENDTAB
  0
TABLE
  2
LAYER
 70
     3
  0
LAYER
  2
0
 70
     0
 62
     7
  6
CONTINUOUS
  0
LAYER
  2
LAY-1
 70
     0
 62
     7
  6
CONTINUOUS
  0
LAYER
  2
LAY-2
 70
     0
 62
     7
  6
CONTINUOUS
  0
ENDTAB
  0
TABLE
  2
STYLE
 70
     4
  0
STYLE
  2
STANDARD
 70
     0
 40
0.0
 41
1.0
 50
0.0
 71
     0
 42
0.0
  3
monotxt
  4
extfont
  0
STYLE
  2
EXCADSTD
 70
     0
 40
0.0
 41
1.0
 50
0.0
 71
     0
 42
0.2
  3
monotxt
  4
extfont
  0
STYLE
  2
EXCADVERT
 70
     4
 40
0.0
 41
1.0
 50
0.0
 71
     0
 42
0.286885
  3
monotxt
  4
extfont
  0
STYLE
  2
EXCADTTF1
 70
     0
 40
0.0
 41
1.0
 50
0.0
 71
     0
 42
0.2
  3
txt
  4

  0
ENDTAB
  0
TABLE
  2
VIEW
 70
     0
  0
ENDTAB
  0
TABLE
  2
UCS
 70
     0
  0
ENDTAB
  0
TABLE
  2
APPID
 70
     1
  0
APPID
  2
ACAD
 70
     0
  0
ENDTAB
  0
TABLE
  2
DIMSTYLE
 70
     1
  0
DIMSTYLE
  2
STANDARD
 70
     0
  3

  4

  5

  6

  7

 40
1.0
 41
0.18
 42
0.0625
 43
0.38
 44
0.18
 45
0.0
 46
0.0
 47
0.0
 48
0.0
140
0.18
141
0.09
142
0.0
143
25.399999999999999
144
1.0
145
0.0
146
1.0
147
0.09
 71
     0
 72
     0
 73
     1
 74
     1
 75
     0
 76
     0
 77
     0
 78
     0
170
     0
171
     2
172
     0
173
     0
174
     0
175
     0
176
     0
177
     0
178
     0
  0
ENDTAB
  0
ENDSEC
  0
SECTION
  2
BLOCKS
  0
BLOCK
  8
0
  2
$MODEL_SPACE
 70
     0
 10
0.0
 20
0.0
 30
0.0
  3
$MODEL_SPACE
  1

  0
ENDBLK
  5
E
  8
0
  0
BLOCK
 67
     1
  8
0
  2
$PAPER_SPACE
 70
     0
 10
0.0
 20
0.0
 30
0.0
  3
$PAPER_SPACE
  1

  0
ENDBLK
  5
10
 67
     1
  8
0
  0
BLOCK
  8
0
  2
_EX_NORM
 70
     0
 10
0.0
 20
0.0
 30
0.0
  3
_EX_NORM
  1

  0
LINE
  5
36
  8
0
  6
CONTINUOUS
 62
     0
 10
0.0
 20
0.0
 30
0.0
 11
-1.0
 21
0.0
 31
0.0
  0
LINE
  5
37
  8
0
  6
CONTINUOUS
 62
     0
 10
0.0
 20
0.0
 30
0.0
 11
-1.0
 21
0.166667
 31
0.0
  0
LINE
  5
38
  8
0
  6
CONTINUOUS
 62
     0
 10
0.0
 20
0.0
 30
0.0
 11
-1.0
 21
-0.166667
 31
0.0
  0
ENDBLK
  5
39
  8
0
  0
BLOCK
  8
0
  2
_EX_BNORM
 70
     0
 10
0.0
 20
0.0
 30
0.0
  3
_EX_BNORM
  1

  0
LINE
  5
3B
  8
0
  6
CONTINUOUS
 62
     0
 10
0.0
 20
0.0
 30
0.0
 11
-1.0
 21
0.0
 31
0.0
  0
LINE
  5
3C
  8
0
  6
CONTINUOUS
 62
     0
 10
0.0
 20
0.0
 30
0.0
 11
-1.0
 21
0.166667
 31
0.0
  0
LINE
  5
3D
  8
0
  6
CONTINUOUS
 62
     0
 10
0.0
 20
0.0
 30
0.0
 11
-1.0
 21
-0.166667
 31
0.0
  0
LINE
  5
3E
  8
0
  6
CONTINUOUS
 62
     0
 10
0.0
 20
0.0
 30
0.0
 11
-1.0
 21
0.083333
 31
0.0
  0
LINE
  5
3F
  8
0
  6
CONTINUOUS
 62
     0
 10
0.0
 20
0.0
 30
0.0
 11
-1.0
 21
-0.083333
 31
0.0
  0
LINE
  5
40
  8
0
  6
CONTINUOUS
 62
     0
 10
-1.0
 20
0.166667
 30
0.0
 11
-1.0
 21
-0.166667
 31
0.0
  0
ENDBLK
  5
41
  8
0
  0
BLOCK
  8
0
  2
_EX_BCIR
 70
     0
 10
0.0
 20
0.0
 30
0.0
  3
_EX_BCIR
  1

  0
LINE
  5
43
  8
0
  6
CONTINUOUS
 62
     0
 10
0.0
 20
0.0
 30
0.0
 11
-1.0
 21
0.0
 31
0.0
  0
CIRCLE
  5
44
  8
0
  6
CONTINUOUS
 62
     0
 10
0.0
 20
0.0
 30
0.0
 40
0.5
  0
CIRCLE
  5
45
  8
0
  6
CONTINUOUS
 62
     0
 10
0.0
 20
0.0
 30
0.0
 40
0.25
  0
ENDBLK
  5
46
  8
0
  0
BLOCK
  8
0
  2
_EX_RCIVIL
 70
     0
 10
0.0
 20
0.0
 30
0.0
  3
_EX_RCIVIL
  1

  0
LINE
  5
48
  8
0
  6
CONTINUOUS
 62
     0
 10
0.0
 20
0.0
 30
0.0
 11
-1.0
 21
0.0
 31
0.0
  0
LINE
  5
49
  8
0
  6
CONTINUOUS
 62
     0
 10
-1.0
 20
-0.25
 30
0.0
 11
0.0
 21
-0.25
 31
0.0
  0
LINE
  5
4A
  8
0
  6
CONTINUOUS
 62
     0
 10
-1.0
 20
-0.125
 30
0.0
 11
0.0
 21
-0.125
 31
0.0
  0
ENDBLK
  5
4B
  8
0
  0
BLOCK
  8
0
  2
_EX_SLANT
 70
     0
 10
0.0
 20
0.0
 30
0.0
  3
_EX_SLANT
  1

  0
LINE
  5
4D
  8
0
  6
CONTINUOUS
 62
     0
 10
0.0
 20
0.0
 30
0.0
 11
-1.0
 21
0.0
 31
0.0
  0
LINE
  5
4E
  8
0
  6
CONTINUOUS
 62
     0
 10
0.7071069999999999
 20
0.7071069999999999
 30
0.0
 11
-0.7071069999999999
 21
-0.7071069999999999
 31
0.0
  0
ENDBLK
  5
4F
  8
0
  0
BLOCK
  8
0
  2
_EX_NONE
 70
     0
 10
0.0
 20
0.0
 30
0.0
  3
_EX_NONE
  1

  0
LINE
  5
51
  8
0
  6
CONTINUOUS
 62
     0
 10
0.0
 20
0.0
 30
0.0
 11
-1.0
 21
0.0
 31
0.0
  0
ENDBLK
  5
52
  8
0
  0
BLOCK
  8
0
  2
_EX_CIVIL
 70
     0
 10
0.0
 20
0.0
 30
0.0
  3
_EX_CIVIL
  1

  0
LINE
  5
54
  8
0
  6
CONTINUOUS
 62
     0
 10
0.0
 20
0.0
 30
0.0
 11
-1.0
 21
0.0
 31
0.0
  0
LINE
  5
55
  8
0
  6
CONTINUOUS
 62
     0
 10
-1.0
 20
0.25
 30
0.0
 11
0.0
 21
0.25
 31
0.0
  0
LINE
  5
56
  8
0
  6
CONTINUOUS
 62
     0
 10
-1.0
 20
0.125
 30
0.0
 11
0.0
 21
0.125
 31
0.0
  0
ENDBLK
  5
57
  8
0
  0
BLOCK
  8
0
  2
_EX_WCIR
 70
     0
 10
0.0
 20
0.0
 30
0.0
  3
_EX_WCIR
  1

  0
LINE
  5
59
  8
0
  6
CONTINUOUS
 62
     0
 10
0.0
 20
0.0
 30
0.0
 11
-1.0
 21
0.0
 31
0.0
  0
CIRCLE
  5
5A
  8
0
  6
CONTINUOUS
 62
     0
 10
0.0
 20
0.0
 30
0.0
 40
0.5
  0
ENDBLK
  5
5B
  8
0
  0
BLOCK
  8
0
  2
_EX_WCIR2
 70
     0
 10
0.0
 20
0.0
 30
0.0
  3
_EX_WCIR2
  1

  0
LINE
  5
5D
  8
0
  6
CONTINUOUS
 62
     0
 10
-0.5
 20
0.0
 30
0.0
 11
-1.0
 21
0.0
 31
0.0
  0
CIRCLE
  5
5E
  8
0
  6
CONTINUOUS
 62
     0
 10
0.0
 20
0.0
 30
0.0
 40
0.5
  0
ENDBLK
  5
5F
  8
0
  0
BLOCK
  8
0
  2
_EX_WNORM
 70
     0
 10
0.0
 20
0.0
 30
0.0
  3
_EX_WNORM
  1

  0
LINE
  5
61
  8
0
  6
CONTINUOUS
 62
     0
 10
-1.0
 20
0.0
 30
0.0
 11
-1.0
 21
0.0
 31
0.0
  0
LINE
  5
62
  8
0
  6
CONTINUOUS
 62
     0
 10
0.0
 20
0.0
 30
0.0
 11
-1.0
 21
0.166667
 31
0.0
  0
LINE
  5
63
  8
0
  6
CONTINUOUS
 62
     0
 10
0.0
 20
0.0
 30
0.0
 11
-1.0
 21
-0.166667
 31
0.0
  0
LINE
  5
64
  8
0
  6
CONTINUOUS
 62
     0
 10
-1.0
 20
0.166667
 30
0.0
 11
-1.0
 21
-0.166667
 31
0.0
  0
ENDBLK
  5
65
  8
0
  0
BLOCK
  8
0
  2
_EX_NNORM
 70
     0
 10
0.0
 20
0.0
 30
0.0
  3
_EX_NNORM
  1

  0
LINE
  5
67
  8
0
  6
CONTINUOUS
 62
     0
 10
0.0
 20
0.0
 30
0.0
 11
-1.0
 21
0.0
 31
0.0
  0
LINE
  5
68
  8
0
  6
CONTINUOUS
 62
     0
 10
0.0
 20
0.0
 30
0.0
 11
-1.0
 21
0.166667
 31
0.0
  0
LINE
  5
69
  8
0
  6
CONTINUOUS
 62
     0
 10
0.0
 20
0.0
 30
0.0
 11
-1.0
 21
-0.166667
 31
0.0
  0
LINE
  5
6A
  8
0
  6
CONTINUOUS
 62
     0
 10
-1.0
 20
0.166667
 30
0.0
 11
-1.0
 21
-0.166667
 31
0.0
  0
ENDBLK
  5
6B
  8
0
  0
BLOCK
  8
0
  2
_EX_BBOX
 70
     0
 10
0.0
 20
0.0
 30
0.0
  3
_EX_BBOX
  1

  0
LINE
  5
6D
  8
0
  6
CONTINUOUS
 62
     0
 10
0.0
 20
0.0
 30
0.0
 11
-1.0
 21
0.0
 31
0.0
  0
LINE
  5
6E
  8
0
  6
CONTINUOUS
 62
     0
 10
-0.5
 20
0.5
 30
0.0
 11
0.5
 21
0.5
 31
0.0
  0
LINE
  5
6F
  8
0
  6
CONTINUOUS
 62
     0
 10
0.5
 20
0.5
 30
0.0
 11
0.5
 21
-0.5
 31
0.0
  0
LINE
  5
70
  8
0
  6
CONTINUOUS
 62
     0
 10
0.5
 20
-0.5
 30
0.0
 11
-0.5
 21
-0.5
 31
0.0
  0
LINE
  5
71
  8
0
  6
CONTINUOUS
 62
     0
 10
-0.5
 20
-0.5
 30
0.0
 11
-0.5
 21
0.5
 31
0.0
  0
LINE
  5
72
  8
0
  6
CONTINUOUS
 62
     0
 10
-0.25
 20
0.25
 30
0.0
 11
0.25
 21
0.25
 31
0.0
  0
LINE
  5
73
  8
0
  6
CONTINUOUS
 62
     0
 10
0.25
 20
0.25
 30
0.0
 11
0.25
 21
-0.25
 31
0.0
  0
LINE
  5
74
  8
0
  6
CONTINUOUS
 62
     0
 10
0.25
 20
-0.25
 30
0.0
 11
-0.25
 21
-0.25
 31
0.0
  0
LINE
  5
75
  8
0
  6
CONTINUOUS
 62
     0
 10
-0.25
 20
-0.25
 30
0.0
 11
-0.25
 21
0.25
 31
0.0
  0
ENDBLK
  5
76
  8
0
  0
BLOCK
  8
0
  2
_EX_WBOX
 70
     0
 10
0.0
 20
0.0
 30
0.0
  3
_EX_WBOX
  1

  0
LINE
  5
78
  8
0
  6
CONTINUOUS
 62
     0
 10
-0.5
 20
0.0
 30
0.0
 11
-1.0
 21
0.0
 31
0.0
  0
LINE
  5
79
  8
0
  6
CONTINUOUS
 62
     0
 10
-0.5
 20
0.5
 30
0.0
 11
0.5
 21
0.5
 31
0.0
  0
LINE
  5
7A
  8
0
  6
CONTINUOUS
 62
     0
 10
0.5
 20
0.5
 30
0.0
 11
0.5
 21
-0.5
 31
0.0
  0
LINE
  5
7B
  8
0
  6
CONTINUOUS
 62
     0
 10
0.5
 20
-0.5
 30
0.0
 11
-0.5
 21
-0.5
 31
0.0
  0
LINE
  5
7C
  8
0
  6
CONTINUOUS
 62
     0
 10
-0.5
 20
-0.5
 30
0.0
 11
-0.5
 21
0.5
 31
0.0
  0
ENDBLK
  5
7D
  8
0
  0
BLOCK
  8
0
  2
_EX_INTEGRAL
 70
     0
 10
0.0
 20
0.0
 30
0.0
  3
_EX_INTEGRAL
  1

  0
LINE
  5
7F
  8
0
  6
CONTINUOUS
 62
     0
 10
0.0
 20
0.0
 30
0.0
 11
-1.0
 21
0.0
 31
0.0
  0
ARC
  5
80
  8
0
  6
CONTINUOUS
 62
     0
 10
0.0
 20
0.0
 30
0.0
 40
0.7071069999999999
 50
90.0
 51
180.0
  0
ARC
  5
81
  8
0
  6
CONTINUOUS
 62
     0
 10
0.0
 20
0.0
 30
0.0
 40
0.7071069999999999
 50
270.0
 51
0.0
  0
ENDBLK
  5
82
  8
0
  0
ENDSEC
  0
SECTION
  2
ENTITIES
  0
LINE
  5
83
  8
LAY-1
  6
CONTINUOUS
 62
     3
 10
123.12142900000001
 20
518.20000000000005
 30
0.0
 11
121.721429
 21
518.20000000000005
 31
0.0
  0
LINE
  5
84
  8
LAY-1
  6
CONTINUOUS
 62
     3
 10
123.12142900000001
 20
508.19999999999987
 30
0.0
 11
121.721429
 21
508.19999999999987
 31
0.0
  0
LINE
  5
85
  8
LAY-1
  6
CONTINUOUS
 62
     3
 10
124.12142900000001
 20
515.95000000000005
 30
0.0
 11
123.12142900000001
 21
515.95000000000005
 31
0.0
  0
LINE
  5
86
  8
LAY-1
  6
CONTINUOUS
 62
     3
 10
124.12142900000001
 20
510.44999999999987
 30
0.0
 11
123.12142900000001
 21
510.44999999999987
 31
0.0
  0
LINE
  5
87
  8
LAY-1
  6
CONTINUOUS
 62
     3
 10
124.12142900000001
 20
515.95000000000005
 30
0.0
 11
124.12142900000001
 21
510.44999999999987
 31
0.0
  0
LINE
  5
88
  8
LAY-1
  6
CONTINUOUS
 62
     3
 10
123.12142900000001
 20
518.20000000000005
 30
0.0
 11
123.12142900000001
 21
508.19999999999987
 31
0.0
  0
LINE
  5
89
  8
LAY-1
  6
CONTINUOUS
 62
     3
 10
121.721429
 20
518.20000000000005
 30
0.0
 11
121.721429
 21
508.19999999999987
 31
0.0
  0
LINE
  5
8A
  8
LAY-1
  6
CONTINUOUS
 62
     3
 10
100.12142900000001
 20
518.20000000000005
 30
0.0
 11
101.521429
 21
518.20000000000005
 31
0.0
  0
LINE
  5
8B
  8
LAY-1
  6
CONTINUOUS
 62
     3
 10
100.12142900000001
 20
508.19999999999987
 30
0.0
 11
101.521429
 21
508.19999999999987
 31
0.0
  0
LINE
  5
8C
  8
LAY-1
  6
CONTINUOUS
 62
     3
 10
99.121429000000006
 20
515.95000000000005
 30
0.0
 11
100.12142900000001
 21
515.95000000000005
 31
0.0
  0
LINE
  5
8D
  8
LAY-1
  6
CONTINUOUS
 62
     3
 10
99.121429000000006
 20
510.44999999999987
 30
0.0
 11
100.12142900000001
 21
510.44999999999987
 31
0.0
  0
LINE
  5
8E
  8
LAY-1
  6
CONTINUOUS
 62
     3
 10
99.121429000000006
 20
515.95000000000005
 30
0.0
 11
99.121429000000006
 21
510.44999999999987
 31
0.0
  0
LINE
  5
8F
  8
LAY-1
  6
CONTINUOUS
 62
     3
 10
100.12142900000001
 20
518.20000000000005
 30
0.0
 11
100.12142900000001
 21
508.19999999999987
 31
0.0
  0
LINE
  5
90
  8
LAY-1
  6
CONTINUOUS
 62
     3
 10
101.521429
 20
518.20000000000005
 30
0.0
 11
101.521429
 21
508.19999999999987
 31
0.0
  0
ARC
  5
91
  8
LAY-1
  6
CONTINUOUS
 62
     3
 10
106.62142900000001
 20
514.59000000000003
 30
0.0
 40
2.2000000000000002
 50
27.645523000000001
 51
152.354477
  0
ARC
  5
92
  8
LAY-1
  6
CONTINUOUS
 62
     3
 10
108.836017
 20
515.74999999999989
 30
0.0
 40
0.3
 50
207.645523
 51
270.0
  0
ARC
  5
93
  8
LAY-1
  6
CONTINUOUS
 62
     3
 10
104.406841
 20
515.74999999999989
 30
0.0
 40
0.3
 50
270.0
 51
332.35447699999997
  0
ARC
  5
94
  8
LAY-1
  6
CONTINUOUS
 62
     3
 10
104.406841
 20
510.64999999999992
 30
0.0
 40
0.3
 50
27.645523000000001
 51
90.0
  0
ARC
  5
95
  8
LAY-1
  6
CONTINUOUS
 62
     3
 10
106.62142900000001
 20
511.81
 30
0.0
 40
2.2000000000000002
 50
207.645523
 51
332.35447699999997
  0
ARC
  5
96
  8
LAY-1
  6
CONTINUOUS
 62
     3
 10
108.836017
 20
510.64999999999992
 30
0.0
 40
0.3
 50
90.0
 51
152.354477
  0
LINE
  5
97
  8
LAY-1
  6
CONTINUOUS
 62
     3
 10
104.672591
 20
515.61080000000004
 30
0.0
 11
104.672591
 21
510.78919999999988
 31
0.0
  0
LINE
  5
98
  8
LAY-1
  6
CONTINUOUS
 62
     3
 10
108.570266
 20
510.78919999999988
 30
0.0
 11
108.570266
 21
515.61080000000004
 31
0.0
  0
LINE
  5
99
  8
LAY-1
  6
CONTINUOUS
 62
     3
 10
101.521429
 20
515.45000000000005
 30
0.0
 11
104.406841
 21
515.45000000000005
 31
0.0
  0
LINE
  5
9A
  8
LAY-1
  6
CONTINUOUS
 62
     3
 10
104.406841
 20
510.94999999999987
 30
0.0
 11
101.521429
 21
510.94999999999987
 31
0.0
  0
LINE
  5
9B
  8
LAY-1
  6
EXLTYPE3
 62
     1
 10
126.7
 20
513.20000000000005
 30
0.0
 11
95.900000000000006
 21
513.20000000000005
 31
0.0
  0
ARC
  5
9C
  8
LAY-1
  6
CONTINUOUS
 62
     3
 10
116.62142900000001
 20
514.59000000000003
 30
0.0
 40
2.2000000000000002
 50
27.645523000000001
 51
152.354477
  0
ARC
  5
9D
  8
LAY-1
  6
CONTINUOUS
 62
     3
 10
118.836017
 20
515.74999999999989
 30
0.0
 40
0.3
 50
207.645523
 51
270.0
  0
ARC
  5
9E
  8
LAY-1
  6
CONTINUOUS
 62
     3
 10
114.406841
 20
515.74999999999989
 30
0.0
 40
0.3
 50
270.0
 51
332.35447699999997
  0
ARC
  5
9F
  8
LAY-1
  6
CONTINUOUS
 62
     3
 10
114.406841
 20
510.64999999999992
 30
0.0
 40
0.3
 50
27.645523000000001
 51
90.0
  0
ARC
  5
A0
  8
LAY-1
  6
CONTINUOUS
 62
     3
 10
116.62142900000001
 20
511.81
 30
0.0
 40
2.2000000000000002
 50
207.645523
 51
332.35447699999997
  0
ARC
  5
A1
  8
LAY-1
  6
CONTINUOUS
 62
     3
 10
118.836017
 20
510.64999999999992
 30
0.0
 40
0.3
 50
90.0
 51
152.354477
  0
LINE
  5
A2
  8
LAY-1
  6
CONTINUOUS
 62
     3
 10
114.672591
 20
515.61080000000004
 30
0.0
 11
114.672591
 21
510.78919999999988
 31
0.0
  0
LINE
  5
A3
  8
LAY-1
  6
CONTINUOUS
 62
     3
 10
118.570266
 20
510.78919999999988
 30
0.0
 11
118.570266
 21
515.61080000000004
 31
0.0
  0
LINE
  5
A4
  8
LAY-1
  6
CONTINUOUS
 62
     3
 10
108.836017
 20
515.45000000000005
 30
0.0
 11
114.406841
 21
515.45000000000005
 31
0.0
  0
LINE
  5
A5
  8
LAY-1
  6
CONTINUOUS
 62
     3
 10
118.836017
 20
515.45000000000005
 30
0.0
 11
121.721429
 21
515.45000000000005
 31
0.0
  0
LINE
  5
A6
  8
LAY-1
  6
CONTINUOUS
 62
     3
 10
121.721429
 20
510.94999999999987
 30
0.0
 11
118.836017
 21
510.94999999999987
 31
0.0
  0
LINE
  5
A7
  8
LAY-1
  6
CONTINUOUS
 62
     3
 10
114.406841
 20
510.94999999999987
 30
0.0
 11
108.836017
 21
510.94999999999987
 31
0.0
  0
LINE
  5
A8
  8
LAY-1
  6
CONTINUOUS
 62
     3
 10
234.56428600000001
 20
519.45000000000005
 30
0.0
 11
234.56428600000001
 21
506.94999999999987
 31
0.0
  0
LINE
  5
A9
  8
LAY-1
  6
CONTINUOUS
 62
     3
 10
234.56428600000001
 20
519.45000000000005
 30
0.0
 11
233.164286
 21
519.45000000000005
 31
0.0
  0
LINE
  5
AA
  8
LAY-1
  6
CONTINUOUS
 62
     3
 10
234.56428600000001
 20
506.94999999999987
 30
0.0
 11
233.164286
 21
506.94999999999987
 31
0.0
  0
LINE
  5
AB
  8
LAY-1
  6
CONTINUOUS
 62
     3
 10
233.164286
 20
519.45000000000005
 30
0.0
 11
233.164286
 21
506.94999999999987
 31
0.0
  0
LINE
  5
AC
  8
LAY-1
  6
CONTINUOUS
 62
     3
 10
235.56428600000001
 20
510.19999999999999
 30
0.0
 11
234.56428600000001
 21
510.19999999999999
 31
0.0
  0
LINE
  5
AD
  8
LAY-1
  6
CONTINUOUS
 62
     3
 10
235.56428600000001
 20
516.20000000000005
 30
0.0
 11
234.56428600000001
 21
516.20000000000005
 31
0.0
  0
LINE
  5
AE
  8
LAY-1
  6
CONTINUOUS
 62
     3
 10
235.56428600000001
 20
510.19999999999999
 30
0.0
 11
235.56428600000001
 21
516.20000000000005
 31
0.0
  0
ARC
  5
AF
  8
LAY-1
  6
CONTINUOUS
 62
     3
 10
220.278874
 20
516.0
 30
0.0
 40
0.3
 50
207.645523
 51
270.0
  0
ARC
  5
B0
  8
LAY-1
  6
CONTINUOUS
 62
     3
 10
218.06428600000001
 20
514.84000000000003
 30
0.0
 40
2.2000000000000002
 50
27.645523000000001
 51
152.354477
  0
ARC
  5
B1
  8
LAY-1
  6
CONTINUOUS
 62
     3
 10
215.84969799999999
 20
516.0
 30
0.0
 40
0.3
 50
270.0
 51
332.35447699999997
  0
ARC
  5
B2
  8
LAY-1
  6
CONTINUOUS
 62
     3
 10
220.278874
 20
510.39999999999998
 30
0.0
 40
0.3
 50
90.0
 51
152.354477
  0
ARC
  5
B3
  8
LAY-1
  6
CONTINUOUS
 62
     3
 10
218.06428600000001
 20
511.55999999999989
 30
0.0
 40
2.2000000000000002
 50
207.645523
 51
332.35447699999997
  0
ARC
  5
B4
  8
LAY-1
  6
CONTINUOUS
 62
     3
 10
215.84969799999999
 20
510.39999999999998
 30
0.0
 40
0.3
 50
27.645523000000001
 51
90.0
  0
LINE
  5
B5
  8
LAY-1
  6
CONTINUOUS
 62
     3
 10
216.11544799999999
 20
515.86080000000004
 30
0.0
 11
216.11544799999999
 21
510.53919999999999
 31
0.0
  0
LINE
  5
B6
  8
LAY-1
  6
CONTINUOUS
 62
     3
 10
220.01312300000001
 20
510.53919999999999
 30
0.0
 11
220.01312300000001
 21
515.86080000000004
 31
0.0
  0
LINE
  5
B7
  8
LAY-1
  6
CONTINUOUS
 62
     3
 10
211.56428600000001
 20
519.45000000000005
 30
0.0
 11
212.96428599999999
 21
519.45000000000005
 31
0.0
  0
LINE
  5
B8
  8
LAY-1
  6
CONTINUOUS
 62
     3
 10
211.56428600000001
 20
506.94999999999987
 30
0.0
 11
212.96428599999999
 21
506.94999999999987
 31
0.0
  0
LINE
  5
B9
  8
LAY-1
  6
CONTINUOUS
 62
     3
 10
210.56428600000001
 20
516.20000000000005
 30
0.0
 11
211.56428600000001
 21
516.20000000000005
 31
0.0
  0
LINE
  5
BA
  8
LAY-1
  6
CONTINUOUS
 62
     3
 10
210.56428600000001
 20
510.19999999999999
 30
0.0
 11
211.56428600000001
 21
510.19999999999999
 31
0.0
  0
LINE
  5
BB
  8
LAY-1
  6
CONTINUOUS
 62
     3
 10
210.56428600000001
 20
516.20000000000005
 30
0.0
 11
210.56428600000001
 21
510.19999999999999
 31
0.0
  0
LINE
  5
BC
  8
LAY-1
  6
CONTINUOUS
 62
     3
 10
211.56428600000001
 20
519.45000000000005
 30
0.0
 11
211.56428600000001
 21
506.94999999999987
 31
0.0
  0
LINE
  5
BD
  8
LAY-1
  6
CONTINUOUS
 62
     3
 10
212.96428599999999
 20
519.45000000000005
 30
0.0
 11
212.96428599999999
 21
506.94999999999987
 31
0.0
  0
LINE
  5
BE
  8
LAY-1
  6
CONTINUOUS
 62
     3
 10
212.96428599999999
 20
515.70000000000005
 30
0.0
 11
215.84969799999999
 21
515.70000000000005
 31
0.0
  0
LINE
  5
BF
  8
LAY-1
  6
CONTINUOUS
 62
     3
 10
212.96428599999999
 20
510.69999999999999
 30
0.0
 11
215.84969799999999
 21
510.69999999999999
 31
0.0
  0
LINE
  5
C0
  8
LAY-1
  6
EXLTYPE3
 62
     1
 10
208.09999999999999
 20
513.20000000000005
 30
0.0
 11
238.19999999999999
 21
513.20000000000005
 31
0.0
  0
ARC
  5
C1
  8
LAY-1
  6
CONTINUOUS
 62
     3
 10
230.278874
 20
516.0
 30
0.0
 40
0.3
 50
207.645523
 51
270.0
  0
ARC
  5
C2
  8
LAY-1
  6
CONTINUOUS
 62
     3
 10
228.06428600000001
 20
514.84000000000003
 30
0.0
 40
2.2000000000000002
 50
27.645523000000001
 51
152.354477
  0
ARC
  5
C3
  8
LAY-1
  6
CONTINUOUS
 62
     3
 10
225.84969799999999
 20
516.0
 30
0.0
 40
0.3
 50
270.0
 51
332.35447699999997
  0
ARC
  5
C4
  8
LAY-1
  6
CONTINUOUS
 62
     3
 10
230.278874
 20
510.39999999999998
 30
0.0
 40
0.3
 50
90.0
 51
152.354477
  0
ARC
  5
C5
  8
LAY-1
  6
CONTINUOUS
 62
     3
 10
228.06428600000001
 20
511.55999999999989
 30
0.0
 40
2.2000000000000002
 50
207.645523
 51
332.35447699999997
  0
ARC
  5
C6
  8
LAY-1
  6
CONTINUOUS
 62
     3
 10
225.84969799999999
 20
510.39999999999998
 30
0.0
 40
0.3
 50
27.645523000000001
 51
90.0
  0
LINE
  5
C7
  8
LAY-1
  6
CONTINUOUS
 62
     3
 10
226.11544799999999
 20
515.86080000000004
 30
0.0
 11
226.11544799999999
 21
510.53919999999999
 31
0.0
  0
LINE
  5
C8
  8
LAY-1
  6
CONTINUOUS
 62
     3
 10
230.01312300000001
 20
510.53919999999999
 30
0.0
 11
230.01312300000001
 21
515.86080000000004
 31
0.0
  0
LINE
  5
C9
  8
LAY-1
  6
CONTINUOUS
 62
     3
 10
220.278874
 20
515.70000000000005
 30
0.0
 11
225.84969799999999
 21
515.70000000000005
 31
0.0
  0
LINE
  5
CA
  8
LAY-1
  6
CONTINUOUS
 62
     3
 10
230.278874
 20
515.70000000000005
 30
0.0
 11
233.164286
 21
515.70000000000005
 31
0.0
  0
LINE
  5
CB
  8
LAY-1
  6
CONTINUOUS
 62
     3
 10
220.278874
 20
510.69999999999999
 30
0.0
 11
225.84969799999999
 21
510.69999999999999
 31
0.0
  0
LINE
  5
CC
  8
LAY-1
  6
CONTINUOUS
 62
     3
 10
230.278874
 20
510.69999999999999
 30
0.0
 11
233.164286
 21
510.69999999999999
 31
0.0
  0
ARC
  5
CD
  8
LAY-1
  6
CONTINUOUS
 62
     3
 10
331.72173099999998
 20
516.60000000000002
 30
0.0
 40
0.3
 50
207.645523
 51
270.0
  0
ARC
  5
CE
  8
LAY-1
  6
CONTINUOUS
 62
     3
 10
329.5071430000001
 20
515.44000000000005
 30
0.0
 40
2.2000000000000002
 50
27.645523000000001
 51
152.354477
  0
ARC
  5
CF
  8
LAY-1
  6
CONTINUOUS
 62
     3
 10
327.29255499999999
 20
516.60000000000002
 30
0.0
 40
0.3
 50
270.0
 51
332.35447699999997
  0
ARC
  5
D0
  8
LAY-1
  6
CONTINUOUS
 62
     3
 10
327.29255499999999
 20
509.7999999999999
 30
0.0
 40
0.3
 50
27.645523000000001
 51
90.0
  0
ARC
  5
D1
  8
LAY-1
  6
CONTINUOUS
 62
     3
 10
329.5071430000001
 20
510.95999999999992
 30
0.0
 40
2.2000000000000002
 50
207.645523
 51
332.35447699999997
  0
ARC
  5
D2
  8
LAY-1
  6
CONTINUOUS
 62
     3
 10
331.72173099999998
 20
509.7999999999999
 30
0.0
 40
0.3
 50
90.0
 51
152.354477
  0
LINE
  5
D3
  8
LAY-1
  6
CONTINUOUS
 62
     3
 10
327.55830500000002
 20
516.46079999999995
 30
0.0
 11
327.55830500000002
 21
509.93920000000003
 31
0.0
  0
LINE
  5
D4
  8
LAY-1
  6
CONTINUOUS
 62
     3
 10
331.45598000000001
 20
509.93920000000003
 30
0.0
 11
331.45598000000001
 21
516.46079999999995
 31
0.0
  0
LINE
  5
D5
  8
LAY-1
  6
CONTINUOUS
 62
     3
 10
323.0071430000001
 20
519.95000000000005
 30
0.0
 11
324.60714300000001
 21
519.95000000000005
 31
0.0
  0
LINE
  5
D6
  8
LAY-1
  6
CONTINUOUS
 62
     3
 10
323.0071430000001
 20
506.44999999999987
 30
0.0
 11
324.60714300000001
 21
506.44999999999987
 31
0.0
  0
LINE
  5
D7
  8
LAY-1
  6
CONTINUOUS
 62
     3
 10
322.00714299999999
 20
517.04999999999995
 30
0.0
 11
323.0071430000001
 21
517.04999999999995
 31
0.0
  0
LINE
  5
D8
  8
LAY-1
  6
CONTINUOUS
 62
     3
 10
322.00714299999999
 20
509.35000000000002
 30
0.0
 11
323.0071430000001
 21
509.35000000000002
 31
0.0
  0
LINE
  5
D9
  8
LAY-1
  6
CONTINUOUS
 62
     3
 10
324.60714300000001
 20
519.95000000000005
 30
0.0
 11
324.60714300000001
 21
506.44999999999987
 31
0.0
  0
LINE
  5
DA
  8
LAY-1
  6
CONTINUOUS
 62
     3
 10
323.0071430000001
 20
519.95000000000005
 30
0.0
 11
323.0071430000001
 21
506.44999999999987
 31
0.0
  0
LINE
  5
DB
  8
LAY-1
  6
CONTINUOUS
 62
     3
 10
322.00714299999999
 20
517.04999999999995
 30
0.0
 11
322.00714299999999
 21
509.35000000000002
 31
0.0
  0
LINE
  5
DC
  8
LAY-1
  6
CONTINUOUS
 62
     3
 10
324.60714300000001
 20
516.29999999999995
 30
0.0
 11
327.29255499999999
 21
516.29999999999995
 31
0.0
  0
LINE
  5
DD
  8
LAY-1
  6
CONTINUOUS
 62
     3
 10
324.60714300000001
 20
510.09999999999991
 30
0.0
 11
327.29255499999999
 21
510.09999999999991
 31
0.0
  0
LINE
  5
DE
  8
LAY-1
  6
CONTINUOUS
 62
     3
 10
346.0071430000001
 20
519.95000000000005
 30
0.0
 11
344.40714300000002
 21
519.95000000000005
 31
0.0
  0
LINE
  5
DF
  8
LAY-1
  6
CONTINUOUS
 62
     3
 10
346.0071430000001
 20
506.44999999999987
 30
0.0
 11
344.40714300000002
 21
506.44999999999987
 31
0.0
  0
LINE
  5
E0
  8
LAY-1
  6
CONTINUOUS
 62
     3
 10
347.00714299999999
 20
517.04999999999995
 30
0.0
 11
346.0071430000001
 21
517.04999999999995
 31
0.0
  0
LINE
  5
E1
  8
LAY-1
  6
CONTINUOUS
 62
     3
 10
347.00714299999999
 20
509.35000000000002
 30
0.0
 11
346.0071430000001
 21
509.35000000000002
 31
0.0
  0
LINE
  5
E2
  8
LAY-1
  6
CONTINUOUS
 62
     3
 10
347.00714299999999
 20
517.04999999999995
 30
0.0
 11
347.00714299999999
 21
509.35000000000002
 31
0.0
  0
LINE
  5
E3
  8
LAY-1
  6
CONTINUOUS
 62
     3
 10
346.0071430000001
 20
519.95000000000005
 30
0.0
 11
346.0071430000001
 21
506.44999999999987
 31
0.0
  0
LINE
  5
E4
  8
LAY-1
  6
CONTINUOUS
 62
     3
 10
344.40714300000002
 20
519.95000000000005
 30
0.0
 11
344.40714300000002
 21
506.44999999999987
 31
0.0
  0
LINE
  5
E5
  8
LAY-1
  6
EXLTYPE3
 62
     1
 10
320.0
 20
513.20000000000005
 30
0.0
 11
348.60000000000002
 21
513.20000000000005
 31
0.0
  0
ARC
  5
E6
  8
LAY-1
  6
CONTINUOUS
 62
     3
 10
341.72173099999998
 20
516.60000000000002
 30
0.0
 40
0.3
 50
207.645523
 51
270.0
  0
ARC
  5
E7
  8
LAY-1
  6
CONTINUOUS
 62
     3
 10
339.5071430000001
 20
515.44000000000005
 30
0.0
 40
2.2000000000000002
 50
27.645523000000001
 51
152.354477
  0
ARC
  5
E8
  8
LAY-1
  6
CONTINUOUS
 62
     3
 10
337.29255499999999
 20
516.60000000000002
 30
0.0
 40
0.3
 50
270.0
 51
332.35447699999997
  0
ARC
  5
E9
  8
LAY-1
  6
CONTINUOUS
 62
     3
 10
337.29255499999999
 20
509.7999999999999
 30
0.0
 40
0.3
 50
27.645523000000001
 51
90.0
  0
ARC
  5
EA
  8
LAY-1
  6
CONTINUOUS
 62
     3
 10
339.5071430000001
 20
510.95999999999992
 30
0.0
 40
2.2000000000000002
 50
207.645523
 51
332.35447699999997
  0
ARC
  5
EB
  8
LAY-1
  6
CONTINUOUS
 62
     3
 10
341.72173099999998
 20
509.7999999999999
 30
0.0
 40
0.3
 50
90.0
 51
152.354477
  0
LINE
  5
EC
  8
LAY-1
  6
CONTINUOUS
 62
     3
 10
337.5583049999999
 20
516.46079999999995
 30
0.0
 11
337.5583049999999
 21
509.93920000000003
 31
0.0
  0
LINE
  5
ED
  8
LAY-1
  6
CONTINUOUS
 62
     3
 10
341.45598000000001
 20
509.93920000000003
 30
0.0
 11
341.45598000000001
 21
516.46079999999995
 31
0.0
  0
LINE
  5
EE
  8
LAY-1
  6
CONTINUOUS
 62
     3
 10
331.72173099999998
 20
516.29999999999995
 30
0.0
 11
337.29255499999999
 21
516.29999999999995
 31
0.0
  0
LINE
  5
EF
  8
LAY-1
  6
CONTINUOUS
 62
     3
 10
341.72173099999998
 20
516.29999999999995
 30
0.0
 11
344.40714300000002
 21
516.29999999999995
 31
0.0
  0
LINE
  5
F0
  8
LAY-1
  6
CONTINUOUS
 62
     3
 10
344.40714300000002
 20
510.09999999999991
 30
0.0
 11
341.72173099999998
 21
510.09999999999991
 31
0.0
  0
LINE
  5
F1
  8
LAY-1
  6
CONTINUOUS
 62
     3
 10
337.29255499999999
 20
510.09999999999991
 30
0.0
 11
331.72173099999998
 21
510.09999999999991
 31
0.0
  0
ARC
  5
F2
  8
LAY-1
  6
CONTINUOUS
 62
     3
 10
443.16458799999992
 20
516.5
 30
0.0
 40
0.3
 50
207.645523
 51
270.0
  0
ARC
  5
F3
  8
LAY-1
  6
CONTINUOUS
 62
     3
 10
440.94999999999999
 20
515.34000000000003
 30
0.0
 40
2.2000000000000002
 50
27.645523000000001
 51
152.354477
  0
ARC
  5
F4
  8
LAY-1
  6
CONTINUOUS
 62
     3
 10
438.735412
 20
516.5
 30
0.0
 40
0.3
 50
270.0
 51
332.35447699999997
  0
ARC
  5
F5
  8
LAY-1
  6
CONTINUOUS
 62
     3
 10
438.735412
 20
509.89999999999998
 30
0.0
 40
0.3
 50
27.645523000000001
 51
90.0
  0
ARC
  5
F6
  8
LAY-1
  6
CONTINUOUS
 62
     3
 10
440.94999999999999
 20
511.05999999999989
 30
0.0
 40
2.2000000000000002
 50
207.645523
 51
332.35447699999997
  0
ARC
  5
F7
  8
LAY-1
  6
CONTINUOUS
 62
     3
 10
443.16458799999992
 20
509.89999999999998
 30
0.0
 40
0.3
 50
90.0
 51
152.354477
  0
LINE
  5
F8
  8
LAY-1
  6
CONTINUOUS
 62
     3
 10
439.00116300000002
 20
516.36080000000004
 30
0.0
 11
439.00116300000002
 21
510.03919999999999
 31
0.0
  0
LINE
  5
F9
  8
LAY-1
  6
CONTINUOUS
 62
     3
 10
442.8988369999999
 20
510.03919999999999
 30
0.0
 11
442.8988369999999
 21
516.36080000000004
 31
0.0
  0
LINE
  5
FA
  8
LAY-1
  6
CONTINUOUS
 62
     3
 10
434.44999999999999
 20
520.20000000000005
 30
0.0
 11
436.05000000000001
 21
520.20000000000005
 31
0.0
  0
LINE
  5
FB
  8
LAY-1
  6
CONTINUOUS
 62
     3
 10
434.44999999999999
 20
506.19999999999999
 30
0.0
 11
436.05000000000001
 21
506.19999999999999
 31
0.0
  0
LINE
  5
FC
  8
LAY-1
  6
CONTINUOUS
 62
     3
 10
433.44999999999999
 20
517.20000000000005
 30
0.0
 11
434.44999999999999
 21
517.20000000000005
 31
0.0
  0
LINE
  5
FD
  8
LAY-1
  6
CONTINUOUS
 62
     3
 10
433.44999999999999
 20
509.19999999999987
 30
0.0
 11
434.44999999999999
 21
509.19999999999987
 31
0.0
  0
LINE
  5
FE
  8
LAY-1
  6
CONTINUOUS
 62
     3
 10
433.44999999999999
 20
517.20000000000005
 30
0.0
 11
433.44999999999999
 21
509.19999999999987
 31
0.0
  0
LINE
  5
FF
  8
LAY-1
  6
CONTINUOUS
 62
     3
 10
434.44999999999999
 20
520.20000000000005
 30
0.0
 11
434.44999999999999
 21
506.19999999999999
 31
0.0
  0
LINE
  5
100
  8
LAY-1
  6
CONTINUOUS
 62
     3
 10
436.05000000000001
 20
520.20000000000005
 30
0.0
 11
436.05000000000001
 21
506.19999999999999
 31
0.0
  0
LINE
  5
101
  8
LAY-1
  6
CONTINUOUS
 62
     3
 10
436.05000000000001
 20
516.20000000000005
 30
0.0
 11
439.00116300000002
 21
516.20000000000005
 31
0.0
  0
LINE
  5
102
  8
LAY-1
  6
CONTINUOUS
 62
     3
 10
436.05000000000001
 20
510.19999999999999
 30
0.0
 11
439.00116300000002
 21
510.19999999999999
 31
0.0
  0
LINE
  5
103
  8
LAY-1
  6
CONTINUOUS
 62
     3
 10
457.44999999999987
 20
520.20000000000005
 30
0.0
 11
455.85000000000002
 21
520.20000000000005
 31
0.0
  0
LINE
  5
104
  8
LAY-1
  6
CONTINUOUS
 62
     3
 10
457.44999999999987
 20
506.19999999999999
 30
0.0
 11
455.85000000000002
 21
506.19999999999999
 31
0.0
  0
LINE
  5
105
  8
LAY-1
  6
CONTINUOUS
 62
     3
 10
458.44999999999999
 20
517.20000000000005
 30
0.0
 11
457.44999999999987
 21
517.20000000000005
 31
0.0
  0
LINE
  5
106
  8
LAY-1
  6
CONTINUOUS
 62
     3
 10
458.44999999999999
 20
509.19999999999987
 30
0.0
 11
457.44999999999987
 21
509.19999999999987
 31
0.0
  0
LINE
  5
107
  8
LAY-1
  6
CONTINUOUS
 62
     3
 10
458.44999999999999
 20
517.20000000000005
 30
0.0
 11
458.44999999999999
 21
509.19999999999987
 31
0.0
  0
LINE
  5
108
  8
LAY-1
  6
CONTINUOUS
 62
     3
 10
457.44999999999987
 20
520.20000000000005
 30
0.0
 11
457.44999999999987
 21
506.19999999999999
 31
0.0
  0
LINE
  5
109
  8
LAY-1
  6
CONTINUOUS
 62
     3
 10
455.85000000000002
 20
520.20000000000005
 30
0.0
 11
455.85000000000002
 21
506.19999999999999
 31
0.0
  0
LINE
  5
10A
  8
LAY-1
  6
EXLTYPE3
 62
     1
 10
431.0
 20
513.20000000000005
 30
0.0
 11
460.30000000000001
 21
513.20000000000005
 31
0.0
  0
ARC
  5
10B
  8
LAY-1
  6
CONTINUOUS
 62
     3
 10
453.16458799999998
 20
516.5
 30
0.0
 40
0.3
 50
207.645523
 51
270.0
  0
ARC
  5
10C
  8
LAY-1
  6
CONTINUOUS
 62
     3
 10
450.94999999999999
 20
515.34000000000003
 30
0.0
 40
2.2000000000000002
 50
27.645523000000001
 51
152.354477
  0
ARC
  5
10D
  8
LAY-1
  6
CONTINUOUS
 62
     3
 10
448.735412
 20
516.5
 30
0.0
 40
0.3
 50
270.0
 51
332.35447699999997
  0
ARC
  5
10E
  8
LAY-1
  6
CONTINUOUS
 62
     3
 10
448.735412
 20
509.89999999999998
 30
0.0
 40
0.3
 50
27.645523000000001
 51
90.0
  0
ARC
  5
10F
  8
LAY-1
  6
CONTINUOUS
 62
     3
 10
450.94999999999999
 20
511.05999999999989
 30
0.0
 40
2.2000000000000002
 50
207.645523
 51
332.35447699999997
  0
ARC
  5
110
  8
LAY-1
  6
CONTINUOUS
 62
     3
 10
453.16458799999998
 20
509.89999999999998
 30
0.0
 40
0.3
 50
90.0
 51
152.354477
  0
LINE
  5
111
  8
LAY-1
  6
CONTINUOUS
 62
     3
 10
449.00116299999991
 20
516.36080000000004
 30
0.0
 11
449.00116299999991
 21
510.03919999999999
 31
0.0
  0
LINE
  5
112
  8
LAY-1
  6
CONTINUOUS
 62
     3
 10
452.89883700000001
 20
510.03919999999999
 30
0.0
 11
452.89883700000001
 21
516.36080000000004
 31
0.0
  0
LINE
  5
113
  8
LAY-1
  6
CONTINUOUS
 62
     3
 10
443.16458799999992
 20
516.20000000000005
 30
0.0
 11
448.735412
 21
516.20000000000005
 31
0.0
  0
LINE
  5
114
  8
LAY-1
  6
CONTINUOUS
 62
     3
 10
453.16458799999998
 20
516.20000000000005
 30
0.0
 11
455.85000000000002
 21
516.20000000000005
 31
0.0
  0
LINE
  5
115
  8
LAY-1
  6
CONTINUOUS
 62
     3
 10
455.85000000000002
 20
510.19999999999999
 30
0.0
 11
453.16458799999998
 21
510.19999999999999
 31
0.0
  0
LINE
  5
116
  8
LAY-1
  6
CONTINUOUS
 62
     3
 10
448.735412
 20
510.19999999999999
 30
0.0
 11
443.16458799999992
 21
510.19999999999999
 31
0.0
  0
ARC
  5
117
  8
LAY-1
  6
CONTINUOUS
 62
     3
 10
554.60744499999987
 20
517.25
 30
0.0
 40
0.3
 50
207.645523
 51
270.0
  0
ARC
  5
118
  8
LAY-1
  6
CONTINUOUS
 62
     3
 10
552.39285700000005
 20
516.09000000000003
 30
0.0
 40
2.2000000000000002
 50
27.645523000000001
 51
152.354477
  0
ARC
  5
119
  8
LAY-1
  6
CONTINUOUS
 62
     3
 10
550.17826899999989
 20
517.25
 30
0.0
 40
0.3
 50
270.0
 51
332.35447699999997
  0
ARC
  5
11A
  8
LAY-1
  6
CONTINUOUS
 62
     3
 10
550.17826899999989
 20
509.14999999999992
 30
0.0
 40
0.3
 50
27.645523000000001
 51
90.0
  0
ARC
  5
11B
  8
LAY-1
  6
CONTINUOUS
 62
     3
 10
552.39285700000005
 20
510.31
 30
0.0
 40
2.2000000000000002
 50
207.645523
 51
332.35447699999997
  0
ARC
  5
11C
  8
LAY-1
  6
CONTINUOUS
 62
     3
 10
554.60744499999987
 20
509.14999999999992
 30
0.0
 40
0.3
 50
90.0
 51
152.354477
  0
LINE
  5
11D
  8
LAY-1
  6
CONTINUOUS
 62
     3
 10
550.44402000000002
 20
517.11080000000004
 30
0.0
 11
550.44402000000002
 21
509.28919999999988
 31
0.0
  0
LINE
  5
11E
  8
LAY-1
  6
CONTINUOUS
 62
     3
 10
554.34169500000007
 20
509.28919999999988
 30
0.0
 11
554.34169500000007
 21
517.11080000000004
 31
0.0
  0
LINE
  5
11F
  8
LAY-1
  6
CONTINUOUS
 62
     3
 10
545.89285700000005
 20
520.95000000000005
 30
0.0
 11
547.49285700000007
 21
520.95000000000005
 31
0.0
  0
LINE
  5
120
  8
LAY-1
  6
CONTINUOUS
 62
     3
 10
545.89285700000005
 20
505.44999999999987
 30
0.0
 11
547.49285700000007
 21
505.44999999999987
 31
0.0
  0
LINE
  5
121
  8
LAY-1
  6
CONTINUOUS
 62
     3
 10
544.89285700000005
 20
517.95000000000005
 30
0.0
 11
545.89285700000005
 21
517.95000000000005
 31
0.0
  0
LINE
  5
122
  8
LAY-1
  6
CONTINUOUS
 62
     3
 10
544.89285700000005
 20
508.44999999999999
 30
0.0
 11
545.89285700000005
 21
508.44999999999999
 31
0.0
  0
LINE
  5
123
  8
LAY-1
  6
CONTINUOUS
 62
     3
 10
544.89285700000005
 20
517.95000000000005
 30
0.0
 11
544.89285700000005
 21
508.44999999999999
 31
0.0
  0
LINE
  5
124
  8
LAY-1
  6
CONTINUOUS
 62
     3
 10
545.89285700000005
 20
520.95000000000005
 30
0.0
 11
545.89285700000005
 21
505.44999999999987
 31
0.0
  0
LINE
  5
125
  8
LAY-1
  6
CONTINUOUS
 62
     3
 10
547.49285700000007
 20
520.95000000000005
 30
0.0
 11
547.49285700000007
 21
505.44999999999987
 31
0.0
  0
LINE
  5
126
  8
LAY-1
  6
CONTINUOUS
 62
     3
 10
547.49285700000007
 20
516.95000000000005
 30
0.0
 11
550.17826899999989
 21
516.95000000000005
 31
0.0
  0
LINE
  5
127
  8
LAY-1
  6
CONTINUOUS
 62
     3
 10
547.49285700000007
 20
509.44999999999999
 30
0.0
 11
550.17826899999989
 21
509.44999999999999
 31
0.0
  0
LINE
  5
128
  8
LAY-1
  6
CONTINUOUS
 62
     3
 10
568.89285700000005
 20
520.95000000000005
 30
0.0
 11
567.29285700000003
 21
520.95000000000005
 31
0.0
  0
LINE
  5
129
  8
LAY-1
  6
CONTINUOUS
 62
     3
 10
568.89285700000005
 20
505.44999999999987
 30
0.0
 11
567.29285700000003
 21
505.44999999999987
 31
0.0
  0
LINE
  5
12A
  8
LAY-1
  6
CONTINUOUS
 62
     3
 10
569.89285700000005
 20
517.95000000000005
 30
0.0
 11
568.89285700000005
 21
517.95000000000005
 31
0.0
  0
LINE
  5
12B
  8
LAY-1
  6
CONTINUOUS
 62
     3
 10
569.89285700000005
 20
508.44999999999999
 30
0.0
 11
568.89285700000005
 21
508.44999999999999
 31
0.0
  0
LINE
  5
12C
  8
LAY-1
  6
CONTINUOUS
 62
     3
 10
569.89285700000005
 20
517.95000000000005
 30
0.0
 11
569.89285700000005
 21
508.44999999999999
 31
0.0
  0
LINE
  5
12D
  8
LAY-1
  6
CONTINUOUS
 62
     3
 10
568.89285700000005
 20
520.95000000000005
 30
0.0
 11
568.89285700000005
 21
505.44999999999987
 31
0.0
  0
LINE
  5
12E
  8
LAY-1
  6
CONTINUOUS
 62
     3
 10
567.29285700000003
 20
520.95000000000005
 30
0.0
 11
567.29285700000003
 21
505.44999999999987
 31
0.0
  0
LINE
  5
12F
  8
LAY-1
  6
EXLTYPE3
 62
     1
 10
542.10000000000002
 20
513.20000000000005
 30
0.0
 11
572.70000000000005
 21
513.20000000000005
 31
0.0
  0
ARC
  5
130
  8
LAY-1
  6
CONTINUOUS
 62
     3
 10
564.60744499999987
 20
517.25
 30
0.0
 40
0.3
 50
207.645523
 51
270.0
  0
ARC
  5
131
  8
LAY-1
  6
CONTINUOUS
 62
     3
 10
562.39285700000005
 20
516.09000000000003
 30
0.0
 40
2.2000000000000002
 50
27.645523000000001
 51
152.354477
  0
ARC
  5
132
  8
LAY-1
  6
CONTINUOUS
 62
     3
 10
560.178269
 20
517.25
 30
0.0
 40
0.3
 50
270.0
 51
332.35447699999997
  0
ARC
  5
133
  8
LAY-1
  6
CONTINUOUS
 62
     3
 10
560.178269
 20
509.14999999999992
 30
0.0
 40
0.3
 50
27.645523000000001
 51
90.0
  0
ARC
  5
134
  8
LAY-1
  6
CONTINUOUS
 62
     3
 10
562.39285700000005
 20
510.31
 30
0.0
 40
2.2000000000000002
 50
207.645523
 51
332.35447699999997
  0
ARC
  5
135
  8
LAY-1
  6
CONTINUOUS
 62
     3
 10
564.60744499999987
 20
509.14999999999992
 30
0.0
 40
0.3
 50
90.0
 51
152.354477
  0
LINE
  5
136
  8
LAY-1
  6
CONTINUOUS
 62
     3
 10
560.44401999999991
 20
517.11080000000004
 30
0.0
 11
560.44401999999991
 21
509.28919999999988
 31
0.0
  0
LINE
  5
137
  8
LAY-1
  6
CONTINUOUS
 62
     3
 10
564.34169499999996
 20
509.28919999999988
 30
0.0
 11
564.34169499999996
 21
517.11080000000004
 31
0.0
  0
LINE
  5
138
  8
LAY-1
  6
CONTINUOUS
 62
     3
 10
554.60744499999987
 20
516.95000000000005
 30
0.0
 11
560.178269
 21
516.95000000000005
 31
0.0
  0
LINE
  5
139
  8
LAY-1
  6
CONTINUOUS
 62
     3
 10
564.60744499999987
 20
516.95000000000005
 30
0.0
 11
567.29285700000003
 21
516.95000000000005
 31
0.0
  0
LINE
  5
13A
  8
LAY-1
  6
CONTINUOUS
 62
     3
 10
567.29285700000003
 20
509.44999999999999
 30
0.0
 11
564.60744499999987
 21
509.44999999999999
 31
0.0
  0
LINE
  5
13B
  8
LAY-1
  6
CONTINUOUS
 62
     3
 10
560.178269
 20
509.44999999999999
 30
0.0
 11
554.60744499999987
 21
509.44999999999999
 31
0.0
  0
ARC
  5
13C
  8
LAY-1
  6
CONTINUOUS
 62
     3
 10
666.05030199999999
 20
518.25
 30
0.0
 40
0.3
 50
207.645523
 51
270.0
  0
ARC
  5
13D
  8
LAY-1
  6
CONTINUOUS
 62
     3
 10
663.83571399999994
 20
517.09000000000003
 30
0.0
 40
2.2000000000000002
 50
27.645523000000001
 51
152.354477
  0
ARC
  5
13E
  8
LAY-1
  6
CONTINUOUS
 62
     3
 10
661.621126
 20
518.25
 30
0.0
 40
0.3
 50
270.0
 51
332.35447699999997
  0
ARC
  5
13F
  8
LAY-1
  6
CONTINUOUS
 62
     3
 10
661.621126
 20
508.14999999999998
 30
0.0
 40
0.3
 50
27.645523000000001
 51
90.0
  0
ARC
  5
140
  8
LAY-1
  6
CONTINUOUS
 62
     3
 10
663.83571399999994
 20
509.30999999999989
 30
0.0
 40
2.2000000000000002
 50
207.645523
 51
332.35447699999997
  0
ARC
  5
141
  8
LAY-1
  6
CONTINUOUS
 62
     3
 10
666.05030199999999
 20
508.14999999999998
 30
0.0
 40
0.3
 50
90.0
 51
152.354477
  0
LINE
  5
142
  8
LAY-1
  6
CONTINUOUS
 62
     3
 10
661.8868769999998
 20
518.11080000000004
 30
0.0
 11
661.8868769999998
 21
508.28919999999999
 31
0.0
  0
LINE
  5
143
  8
LAY-1
  6
CONTINUOUS
 62
     3
 10
665.78455199999985
 20
508.28919999999999
 30
0.0
 11
665.78455199999985
 21
518.11080000000004
 31
0.0
  0
LINE
  5
144
  8
LAY-1
  6
CONTINUOUS
 62
     3
 10
657.33571399999994
 20
521.95000000000005
 30
0.0
 11
659.13571400000001
 21
521.95000000000005
 31
0.0
  0
LINE
  5
145
  8
LAY-1
  6
CONTINUOUS
 62
     3
 10
657.33571399999994
 20
504.44999999999999
 30
0.0
 11
659.13571400000001
 21
504.44999999999999
 31
0.0
  0
LINE
  5
146
  8
LAY-1
  6
CONTINUOUS
 62
     3
 10
656.33571399999994
 20
518.95000000000005
 30
0.0
 11
657.33571399999994
 21
518.95000000000005
 31
0.0
  0
LINE
  5
147
  8
LAY-1
  6
CONTINUOUS
 62
     3
 10
656.33571399999994
 20
507.44999999999987
 30
0.0
 11
657.33571399999994
 21
507.44999999999987
 31
0.0
  0
LINE
  5
148
  8
LAY-1
  6
CONTINUOUS
 62
     3
 10
656.33571399999994
 20
518.95000000000005
 30
0.0
 11
656.33571399999994
 21
507.44999999999987
 31
0.0
  0
LINE
  5
149
  8
LAY-1
  6
CONTINUOUS
 62
     3
 10
657.33571399999994
 20
521.95000000000005
 30
0.0
 11
657.33571399999994
 21
504.44999999999999
 31
0.0
  0
LINE
  5
14A
  8
LAY-1
  6
CONTINUOUS
 62
     3
 10
659.13571400000001
 20
521.95000000000005
 30
0.0
 11
659.13571400000001
 21
504.44999999999999
 31
0.0
  0
LINE
  5
14B
  8
LAY-1
  6
CONTINUOUS
 62
     3
 10
659.13571400000001
 20
517.95000000000005
 30
0.0
 11
661.8868769999998
 21
517.95000000000005
 31
0.0
  0
LINE
  5
14C
  8
LAY-1
  6
CONTINUOUS
 62
     3
 10
659.13571400000001
 20
508.44999999999999
 30
0.0
 11
661.8868769999998
 21
508.44999999999999
 31
0.0
  0
LINE
  5
14D
  8
LAY-1
  6
CONTINUOUS
 62
     3
 10
680.33571399999994
 20
521.95000000000005
 30
0.0
 11
678.53571399999998
 21
521.95000000000005
 31
0.0
  0
LINE
  5
14E
  8
LAY-1
  6
CONTINUOUS
 62
     3
 10
680.33571399999994
 20
504.44999999999999
 30
0.0
 11
678.53571399999998
 21
504.44999999999999
 31
0.0
  0
LINE
  5
14F
  8
LAY-1
  6
CONTINUOUS
 62
     3
 10
681.33571399999994
 20
518.95000000000005
 30
0.0
 11
680.33571399999994
 21
518.95000000000005
 31
0.0
  0
LINE
  5
150
  8
LAY-1
  6
CONTINUOUS
 62
     3
 10
681.33571399999994
 20
507.44999999999987
 30
0.0
 11
680.33571399999994
 21
507.44999999999987
 31
0.0
  0
LINE
  5
151
  8
LAY-1
  6
CONTINUOUS
 62
     3
 10
681.33571399999994
 20
518.95000000000005
 30
0.0
 11
681.33571399999994
 21
507.44999999999987
 31
0.0
  0
LINE
  5
152
  8
LAY-1
  6
CONTINUOUS
 62
     3
 10
680.33571399999994
 20
521.95000000000005
 30
0.0
 11
680.33571399999994
 21
504.44999999999999
 31
0.0
  0
LINE
  5
153
  8
LAY-1
  6
CONTINUOUS
 62
     3
 10
678.53571399999998
 20
521.95000000000005
 30
0.0
 11
678.53571399999998
 21
504.44999999999999
 31
0.0
  0
LINE
  5
154
  8
LAY-1
  6
EXLTYPE3
 62
     1
 10
652.89999999999986
 20
513.20000000000005
 30
0.0
 11
683.39999999999986
 21
513.20000000000005
 31
0.0
  0
ARC
  5
155
  8
LAY-1
  6
CONTINUOUS
 62
     3
 10
676.05030199999987
 20
518.25
 30
0.0
 40
0.3
 50
207.645523
 51
270.0
  0
ARC
  5
156
  8
LAY-1
  6
CONTINUOUS
 62
     3
 10
673.83571399999994
 20
517.09000000000003
 30
0.0
 40
2.2000000000000002
 50
27.645523000000001
 51
152.354477
  0
ARC
  5
157
  8
LAY-1
  6
CONTINUOUS
 62
     3
 10
671.621126
 20
518.25
 30
0.0
 40
0.3
 50
270.0
 51
332.35447699999997
  0
ARC
  5
158
  8
LAY-1
  6
CONTINUOUS
 62
     3
 10
671.621126
 20
508.14999999999998
 30
0.0
 40
0.3
 50
27.645523000000001
 51
90.0
  0
ARC
  5
159
  8
LAY-1
  6
CONTINUOUS
 62
     3
 10
673.83571399999994
 20
509.30999999999989
 30
0.0
 40
2.2000000000000002
 50
207.645523
 51
332.35447699999997
  0
ARC
  5
15A
  8
LAY-1
  6
CONTINUOUS
 62
     3
 10
676.05030199999987
 20
508.14999999999998
 30
0.0
 40
0.3
 50
90.0
 51
152.354477
  0
LINE
  5
15B
  8
LAY-1
  6
CONTINUOUS
 62
     3
 10
671.88687699999991
 20
518.11080000000004
 30
0.0
 11
671.88687699999991
 21
508.28919999999999
 31
0.0
  0
LINE
  5
15C
  8
LAY-1
  6
CONTINUOUS
 62
     3
 10
675.78455199999996
 20
508.28919999999999
 30
0.0
 11
675.78455199999996
 21
518.11080000000004
 31
0.0
  0
LINE
  5
15D
  8
LAY-1
  6
CONTINUOUS
 62
     3
 10
666.05030199999999
 20
517.95000000000005
 30
0.0
 11
671.621126
 21
517.95000000000005
 31
0.0
  0
LINE
  5
15E
  8
LAY-1
  6
CONTINUOUS
 62
     3
 10
676.05030199999987
 20
517.95000000000005
 30
0.0
 11
678.53571399999998
 21
517.95000000000005
 31
0.0
  0
LINE
  5
15F
  8
LAY-1
  6
CONTINUOUS
 62
     3
 10
678.53571399999998
 20
508.44999999999999
 30
0.0
 11
676.05030199999987
 21
508.44999999999999
 31
0.0
  0
LINE
  5
160
  8
LAY-1
  6
CONTINUOUS
 62
     3
 10
671.621126
 20
508.44999999999999
 30
0.0
 11
666.05030199999999
 21
508.44999999999999
 31
0.0
  0
LINE
  5
161
  8
LAY-1
  6
CONTINUOUS
 62
     3
 10
766.27857099999994
 20
522.45000000000005
 30
0.0
 11
768.07857100000001
 21
522.45000000000005
 31
0.0
  0
LINE
  5
162
  8
LAY-1
  6
CONTINUOUS
 62
     3
 10
766.27857099999994
 20
503.94999999999999
 30
0.0
 11
768.07857100000001
 21
503.94999999999999
 31
0.0
  0
LINE
  5
163
  8
LAY-1
  6
CONTINUOUS
 62
     3
 10
765.27857099999994
 20
519.45000000000005
 30
0.0
 11
766.27857099999994
 21
519.45000000000005
 31
0.0
  0
LINE
  5
164
  8
LAY-1
  6
CONTINUOUS
 62
     3
 10
765.27857099999994
 20
506.94999999999987
 30
0.0
 11
766.27857099999994
 21
506.94999999999987
 31
0.0
  0
LINE
  5
165
  8
LAY-1
  6
CONTINUOUS
 62
     3
 10
765.27857099999994
 20
519.45000000000005
 30
0.0
 11
765.27857099999994
 21
506.94999999999987
 31
0.0
  0
LINE
  5
166
  8
LAY-1
  6
CONTINUOUS
 62
     3
 10
766.27857099999994
 20
522.45000000000005
 30
0.0
 11
766.27857099999994
 21
503.94999999999999
 31
0.0
  0
LINE
  5
167
  8
LAY-1
  6
CONTINUOUS
 62
     3
 10
768.07857100000001
 20
522.45000000000005
 30
0.0
 11
768.07857100000001
 21
503.94999999999999
 31
0.0
  0
LINE
  5
168
  8
LAY-1
  6
CONTINUOUS
 62
     3
 10
794.27857099999994
 20
522.45000000000005
 30
0.0
 11
792.47857099999999
 21
522.45000000000005
 31
0.0
  0
LINE
  5
169
  8
LAY-1
  6
CONTINUOUS
 62
     3
 10
794.27857099999994
 20
503.94999999999999
 30
0.0
 11
792.47857099999999
 21
503.94999999999999
 31
0.0
  0
LINE
  5
16A
  8
LAY-1
  6
CONTINUOUS
 62
     3
 10
795.27857099999994
 20
519.45000000000005
 30
0.0
 11
794.27857099999994
 21
519.45000000000005
 31
0.0
  0
LINE
  5
16B
  8
LAY-1
  6
CONTINUOUS
 62
     3
 10
795.27857099999994
 20
506.94999999999987
 30
0.0
 11
794.27857099999994
 21
506.94999999999987
 31
0.0
  0
LINE
  5
16C
  8
LAY-1
  6
CONTINUOUS
 62
     3
 10
795.27857099999994
 20
519.45000000000005
 30
0.0
 11
795.27857099999994
 21
506.94999999999987
 31
0.0
  0
LINE
  5
16D
  8
LAY-1
  6
CONTINUOUS
 62
     3
 10
794.27857099999994
 20
522.45000000000005
 30
0.0
 11
794.27857099999994
 21
503.94999999999999
 31
0.0
  0
LINE
  5
16E
  8
LAY-1
  6
CONTINUOUS
 62
     3
 10
792.47857099999999
 20
522.45000000000005
 30
0.0
 11
792.47857099999999
 21
503.94999999999999
 31
0.0
  0
ARC
  5
16F
  8
LAY-1
  6
CONTINUOUS
 62
     3
 10
777.49315899999999
 20
518.75
 30
0.0
 40
0.3
 50
207.645523
 51
270.0
  0
ARC
  5
170
  8
LAY-1
  6
CONTINUOUS
 62
     3
 10
775.27857099999994
 20
517.59000000000003
 30
0.0
 40
2.2000000000000002
 50
27.645523000000001
 51
152.354477
  0
ARC
  5
171
  8
LAY-1
  6
CONTINUOUS
 62
     3
 10
773.06398300000001
 20
518.75
 30
0.0
 40
0.3
 50
270.0
 51
332.35447699999997
  0
ARC
  5
172
  8
LAY-1
  6
CONTINUOUS
 62
     3
 10
773.06398300000001
 20
507.64999999999998
 30
0.0
 40
0.3
 50
27.645523000000001
 51
90.0
  0
ARC
  5
173
  8
LAY-1
  6
CONTINUOUS
 62
     3
 10
775.27857099999994
 20
508.80999999999989
 30
0.0
 40
2.2000000000000002
 50
207.645523
 51
332.35447699999997
  0
ARC
  5
174
  8
LAY-1
  6
CONTINUOUS
 62
     3
 10
777.49315899999999
 20
507.64999999999998
 30
0.0
 40
0.3
 50
90.0
 51
152.354477
  0
LINE
  5
175
  8
LAY-1
  6
CONTINUOUS
 62
     3
 10
773.32973400000003
 20
518.61080000000004
 30
0.0
 11
773.32973400000003
 21
507.78919999999999
 31
0.0
  0
LINE
  5
176
  8
LAY-1
  6
CONTINUOUS
 62
     3
 10
777.22740899999985
 20
507.78919999999999
 30
0.0
 11
777.22740899999985
 21
518.61080000000004
 31
0.0
  0
LINE
  5
177
  8
LAY-1
  6
CONTINUOUS
 62
     3
 10
768.07857100000001
 20
518.45000000000005
 30
0.0
 11
773.32973400000003
 21
518.45000000000005
 31
0.0
  0
LINE
  5
178
  8
LAY-1
  6
CONTINUOUS
 62
     3
 10
768.07857100000001
 20
507.94999999999999
 30
0.0
 11
773.32973400000003
 21
507.94999999999999
 31
0.0
  0
ARC
  5
179
  8
LAY-1
  6
CONTINUOUS
 62
     3
 10
787.49315899999999
 20
518.75
 30
0.0
 40
0.3
 50
207.645523
 51
270.0
  0
ARC
  5
17A
  8
LAY-1
  6
CONTINUOUS
 62
     3
 10
785.27857100000006
 20
517.59000000000003
 30
0.0
 40
2.2000000000000002
 50
27.645523000000001
 51
152.354477
  0
ARC
  5
17B
  8
LAY-1
  6
CONTINUOUS
 62
     3
 10
783.06398299999989
 20
518.75
 30
0.0
 40
0.3
 50
270.0
 51
332.35447699999997
  0
ARC
  5
17C
  8
LAY-1
  6
CONTINUOUS
 62
     3
 10
783.06398299999989
 20
507.64999999999998
 30
0.0
 40
0.3
 50
27.645523000000001
 51
90.0
  0
ARC
  5
17D
  8
LAY-1
  6
CONTINUOUS
 62
     3
 10
785.27857100000006
 20
508.80999999999989
 30
0.0
 40
2.2000000000000002
 50
207.645523
 51
332.35447699999997
  0
ARC
  5
17E
  8
LAY-1
  6
CONTINUOUS
 62
     3
 10
787.49315899999999
 20
507.64999999999998
 30
0.0
 40
0.3
 50
90.0
 51
152.354477
  0
LINE
  5
17F
  8
LAY-1
  6
CONTINUOUS
 62
     3
 10
783.32973400000003
 20
518.61080000000004
 30
0.0
 11
783.32973400000003
 21
507.78919999999999
 31
0.0
  0
LINE
  5
180
  8
LAY-1
  6
CONTINUOUS
 62
     3
 10
787.22740899999985
 20
507.78919999999999
 30
0.0
 11
787.22740899999985
 21
518.61080000000004
 31
0.0
  0
LINE
  5
181
  8
LAY-1
  6
CONTINUOUS
 62
     3
 10
787.49315899999999
 20
518.45000000000005
 30
0.0
 11
792.47857099999999
 21
518.45000000000005
 31
0.0
  0
LINE
  5
182
  8
LAY-1
  6
CONTINUOUS
 62
     3
 10
792.47857099999999
 20
507.94999999999999
 30
0.0
 11
787.49315899999999
 21
507.94999999999999
 31
0.0
  0
LINE
  5
183
  8
LAY-1
  6
EXLTYPE3
 62
     1
 10
762.89999999999986
 20
513.20000000000005
 30
0.0
 11
798.10000000000002
 21
513.20000000000005
 31
0.0
  0
LINE
  5
184
  8
LAY-1
  6
CONTINUOUS
 62
     3
 10
777.49315899999999
 20
518.45000000000005
 30
0.0
 11
783.06398299999989
 21
518.45000000000005
 31
0.0
  0
LINE
  5
185
  8
LAY-1
  6
CONTINUOUS
 62
     3
 10
783.06398299999989
 20
507.94999999999999
 30
0.0
 11
777.49315899999999
 21
507.94999999999999
 31
0.0
  0
LINE
  5
186
  8
LAY-1
  6
CONTINUOUS
 62
     3
 10
97.621429000000006
 20
448.69999999999999
 30
0.0
 11
99.421429000000003
 21
448.69999999999999
 31
0.0
  0
LINE
  5
187
  8
LAY-1
  6
CONTINUOUS
 62
     3
 10
97.621429000000006
 20
427.69999999999999
 30
0.0
 11
99.421429000000003
 21
427.69999999999999
 31
0.0
  0
LINE
  5
188
  8
LAY-1
  6
CONTINUOUS
 62
     3
 10
96.621429000000006
 20
445.69999999999987
 30
0.0
 11
97.621429000000006
 21
445.69999999999987
 31
0.0
  0
LINE
  5
189
  8
LAY-1
  6
CONTINUOUS
 62
     3
 10
96.621429000000006
 20
430.69999999999999
 30
0.0
 11
97.621429000000006
 21
430.69999999999999
 31
0.0
  0
LINE
  5
18A
  8
LAY-1
  6
CONTINUOUS
 62
     3
 10
96.621429000000006
 20
445.69999999999987
 30
0.0
 11
96.621429000000006
 21
430.69999999999999
 31
0.0
  0
LINE
  5
18B
  8
LAY-1
  6
CONTINUOUS
 62
     3
 10
97.621429000000006
 20
448.69999999999999
 30
0.0
 11
97.621429000000006
 21
427.69999999999999
 31
0.0
  0
LINE
  5
18C
  8
LAY-1
  6
CONTINUOUS
 62
     3
 10
99.421429000000003
 20
448.69999999999999
 30
0.0
 11
99.421429000000003
 21
427.69999999999999
 31
0.0
  0
LINE
  5
18D
  8
LAY-1
  6
CONTINUOUS
 62
     3
 10
123.82142899999999
 20
448.69999999999999
 30
0.0
 11
123.82142899999999
 21
427.69999999999999
 31
0.0
  0
LINE
  5
18E
  8
LAY-1
  6
CONTINUOUS
 62
     3
 10
125.62142900000001
 20
448.69999999999999
 30
0.0
 11
125.62142900000001
 21
427.69999999999999
 31
0.0
  0
LINE
  5
18F
  8
LAY-1
  6
CONTINUOUS
 62
     3
 10
126.62142900000001
 20
445.69999999999987
 30
0.0
 11
126.62142900000001
 21
430.69999999999999
 31
0.0
  0
LINE
  5
190
  8
LAY-1
  6
CONTINUOUS
 62
     3
 10
126.62142900000001
 20
430.69999999999999
 30
0.0
 11
125.62142900000001
 21
430.69999999999999
 31
0.0
  0
LINE
  5
191
  8
LAY-1
  6
CONTINUOUS
 62
     3
 10
126.62142900000001
 20
445.69999999999987
 30
0.0
 11
125.62142900000001
 21
445.69999999999987
 31
0.0
  0
LINE
  5
192
  8
LAY-1
  6
CONTINUOUS
 62
     3
 10
125.62142900000001
 20
427.69999999999999
 30
0.0
 11
123.82142899999999
 21
427.69999999999999
 31
0.0
  0
LINE
  5
193
  8
LAY-1
  6
CONTINUOUS
 62
     3
 10
125.62142900000001
 20
448.69999999999999
 30
0.0
 11
123.82142899999999
 21
448.69999999999999
 31
0.0
  0
ARC
  5
194
  8
LAY-1
  6
CONTINUOUS
 62
     3
 10
118.836017
 20
445.0
 30
0.0
 40
0.3
 50
207.645523
 51
270.0
  0
ARC
  5
195
  8
LAY-1
  6
CONTINUOUS
 62
     3
 10
116.62142900000001
 20
443.83999999999992
 30
0.0
 40
2.2000000000000002
 50
27.645523000000001
 51
152.354477
  0
ARC
  5
196
  8
LAY-1
  6
CONTINUOUS
 62
     3
 10
114.406841
 20
445.0
 30
0.0
 40
0.3
 50
270.0
 51
332.35447699999997
  0
ARC
  5
197
  8
LAY-1
  6
CONTINUOUS
 62
     3
 10
114.406841
 20
431.39999999999998
 30
0.0
 40
0.3
 50
27.645523000000001
 51
90.0
  0
ARC
  5
198
  8
LAY-1
  6
CONTINUOUS
 62
     3
 10
116.62142900000001
 20
432.56
 30
0.0
 40
2.2000000000000002
 50
207.645523
 51
332.35447699999997
  0
ARC
  5
199
  8
LAY-1
  6
CONTINUOUS
 62
     3
 10
118.836017
 20
431.39999999999998
 30
0.0
 40
0.3
 50
90.0
 51
152.354477
  0
LINE
  5
19A
  8
LAY-1
  6
CONTINUOUS
 62
     3
 10
114.672591
 20
444.86079999999998
 30
0.0
 11
114.672591
 21
431.53919999999999
 31
0.0
  0
LINE
  5
19B
  8
LAY-1
  6
CONTINUOUS
 62
     3
 10
118.570266
 20
431.53919999999999
 30
0.0
 11
118.570266
 21
444.86079999999998
 31
0.0
  0
LINE
  5
19C
  8
LAY-1
  6
CONTINUOUS
 62
     3
 10
123.82142899999999
 20
431.69999999999999
 30
0.0
 11
118.836017
 21
431.69999999999999
 31
0.0
  0
LINE
  5
19D
  8
LAY-1
  6
CONTINUOUS
 62
     3
 10
118.836017
 20
444.69999999999999
 30
0.0
 11
123.82142899999999
 21
444.69999999999999
 31
0.0
  0
LINE
  5
19E
  8
LAY-1
  6
EXLTYPE3
 62
     1
 10
94.0
 20
438.19999999999987
 30
0.0
 11
129.80000000000001
 21
438.19999999999987
 31
0.0
  0
ARC
  5
19F
  8
LAY-1
  6
CONTINUOUS
 62
     3
 10
108.836017
 20
445.0
 30
0.0
 40
0.3
 50
207.645523
 51
270.0
  0
ARC
  5
1A0
  8
LAY-1
  6
CONTINUOUS
 62
     3
 10
106.62142900000001
 20
443.83999999999992
 30
0.0
 40
2.2000000000000002
 50
27.645523000000001
 51
152.354477
  0
ARC
  5
1A1
  8
LAY-1
  6
CONTINUOUS
 62
     3
 10
104.406841
 20
445.0
 30
0.0
 40
0.3
 50
270.0
 51
332.35447699999997
  0
ARC
  5
1A2
  8
LAY-1
  6
CONTINUOUS
 62
     3
 10
104.406841
 20
431.39999999999998
 30
0.0
 40
0.3
 50
27.645523000000001
 51
90.0
  0
ARC
  5
1A3
  8
LAY-1
  6
CONTINUOUS
 62
     3
 10
106.62142900000001
 20
432.56
 30
0.0
 40
2.2000000000000002
 50
207.645523
 51
332.35447699999997
  0
ARC
  5
1A4
  8
LAY-1
  6
CONTINUOUS
 62
     3
 10
108.836017
 20
431.39999999999998
 30
0.0
 40
0.3
 50
90.0
 51
152.354477
  0
LINE
  5
1A5
  8
LAY-1
  6
CONTINUOUS
 62
     3
 10
104.672591
 20
444.86079999999998
 30
0.0
 11
104.672591
 21
431.53919999999999
 31
0.0
  0
LINE
  5
1A6
  8
LAY-1
  6
CONTINUOUS
 62
     3
 10
108.570266
 20
431.53919999999999
 30
0.0
 11
108.570266
 21
444.86079999999998
 31
0.0
  0
LINE
  5
1A7
  8
LAY-1
  6
CONTINUOUS
 62
     3
 10
99.421429000000003
 20
444.69999999999999
 30
0.0
 11
104.406841
 21
444.69999999999999
 31
0.0
  0
LINE
  5
1A8
  8
LAY-1
  6
CONTINUOUS
 62
     3
 10
108.836017
 20
444.69999999999999
 30
0.0
 11
114.406841
 21
444.69999999999999
 31
0.0
  0
LINE
  5
1A9
  8
LAY-1
  6
CONTINUOUS
 62
     3
 10
99.421429000000003
 20
431.69999999999999
 30
0.0
 11
104.406841
 21
431.69999999999999
 31
0.0
  0
LINE
  5
1AA
  8
LAY-1
  6
CONTINUOUS
 62
     3
 10
108.836017
 20
431.69999999999999
 30
0.0
 11
114.406841
 21
431.69999999999999
 31
0.0
  0
ARC
  5
1AB
  8
LAY-1
  6
CONTINUOUS
 62
     3
 10
230.278874
 20
446.49999999999989
 30
0.0
 40
0.3
 50
207.645523
 51
270.0
  0
ARC
  5
1AC
  8
LAY-1
  6
CONTINUOUS
 62
     3
 10
228.06428600000001
 20
445.33999999999997
 30
0.0
 40
2.2000000000000002
 50
27.645523000000001
 51
152.354477
  0
ARC
  5
1AD
  8
LAY-1
  6
CONTINUOUS
 62
     3
 10
225.84969799999999
 20
446.49999999999989
 30
0.0
 40
0.3
 50
270.0
 51
332.35447699999997
  0
ARC
  5
1AE
  8
LAY-1
  6
CONTINUOUS
 62
     3
 10
225.84969799999999
 20
429.89999999999992
 30
0.0
 40
0.3
 50
27.645523000000001
 51
90.0
  0
ARC
  5
1AF
  8
LAY-1
  6
CONTINUOUS
 62
     3
 10
228.06428600000001
 20
431.05999999999989
 30
0.0
 40
2.2000000000000002
 50
207.645523
 51
332.35447699999997
  0
ARC
  5
1B0
  8
LAY-1
  6
CONTINUOUS
 62
     3
 10
230.278874
 20
429.89999999999992
 30
0.0
 40
0.3
 50
90.0
 51
152.354477
  0
LINE
  5
1B1
  8
LAY-1
  6
CONTINUOUS
 62
     3
 10
226.11544799999999
 20
446.36079999999993
 30
0.0
 11
226.11544799999999
 21
430.03919999999999
 31
0.0
  0
LINE
  5
1B2
  8
LAY-1
  6
CONTINUOUS
 62
     3
 10
230.01312300000001
 20
430.03919999999999
 30
0.0
 11
230.01312300000001
 21
446.36079999999993
 31
0.0
  0
LINE
  5
1B3
  8
LAY-1
  6
CONTINUOUS
 62
     3
 10
237.06428600000001
 20
450.69999999999987
 30
0.0
 11
235.264286
 21
450.69999999999987
 31
0.0
  0
LINE
  5
1B4
  8
LAY-1
  6
CONTINUOUS
 62
     3
 10
237.06428600000001
 20
425.69999999999987
 30
0.0
 11
235.264286
 21
425.69999999999987
 31
0.0
  0
LINE
  5
1B5
  8
LAY-1
  6
CONTINUOUS
 62
     3
 10
238.06428600000001
 20
447.19999999999999
 30
0.0
 11
237.06428600000001
 21
447.19999999999999
 31
0.0
  0
LINE
  5
1B6
  8
LAY-1
  6
CONTINUOUS
 62
     3
 10
238.06428600000001
 20
429.19999999999987
 30
0.0
 11
237.06428600000001
 21
429.19999999999987
 31
0.0
  0
LINE
  5
1B7
  8
LAY-1
  6
CONTINUOUS
 62
     3
 10
238.06428600000001
 20
447.19999999999999
 30
0.0
 11
238.06428600000001
 21
429.19999999999987
 31
0.0
  0
LINE
  5
1B8
  8
LAY-1
  6
CONTINUOUS
 62
     3
 10
237.06428600000001
 20
450.69999999999987
 30
0.0
 11
237.06428600000001
 21
425.69999999999987
 31
0.0
  0
LINE
  5
1B9
  8
LAY-1
  6
CONTINUOUS
 62
     3
 10
235.264286
 20
450.69999999999987
 30
0.0
 11
235.264286
 21
425.69999999999987
 31
0.0
  0
LINE
  5
1BA
  8
LAY-1
  6
CONTINUOUS
 62
     3
 10
230.278874
 20
446.19999999999987
 30
0.0
 11
235.264286
 21
446.19999999999987
 31
0.0
  0
LINE
  5
1BB
  8
LAY-1
  6
CONTINUOUS
 62
     3
 10
235.264286
 20
430.19999999999987
 30
0.0
 11
230.278874
 21
430.19999999999987
 31
0.0
  0
ARC
  5
1BC
  8
LAY-1
  6
CONTINUOUS
 62
     3
 10
220.278874
 20
446.49999999999989
 30
0.0
 40
0.3
 50
207.645523
 51
270.0
  0
ARC
  5
1BD
  8
LAY-1
  6
CONTINUOUS
 62
     3
 10
218.06428600000001
 20
445.33999999999997
 30
0.0
 40
2.2000000000000002
 50
27.645523000000001
 51
152.354477
  0
ARC
  5
1BE
  8
LAY-1
  6
CONTINUOUS
 62
     3
 10
215.84969799999999
 20
446.49999999999989
 30
0.0
 40
0.3
 50
270.0
 51
332.35447699999997
  0
ARC
  5
1BF
  8
LAY-1
  6
CONTINUOUS
 62
     3
 10
215.84969799999999
 20
429.89999999999992
 30
0.0
 40
0.3
 50
27.645523000000001
 51
90.0
  0
ARC
  5
1C0
  8
LAY-1
  6
CONTINUOUS
 62
     3
 10
218.06428600000001
 20
431.05999999999989
 30
0.0
 40
2.2000000000000002
 50
207.645523
 51
332.35447699999997
  0
ARC
  5
1C1
  8
LAY-1
  6
CONTINUOUS
 62
     3
 10
220.278874
 20
429.89999999999992
 30
0.0
 40
0.3
 50
90.0
 51
152.354477
  0
LINE
  5
1C2
  8
LAY-1
  6
CONTINUOUS
 62
     3
 10
216.11544799999999
 20
446.36079999999993
 30
0.0
 11
216.11544799999999
 21
430.03919999999999
 31
0.0
  0
LINE
  5
1C3
  8
LAY-1
  6
CONTINUOUS
 62
     3
 10
220.01312300000001
 20
430.03919999999999
 30
0.0
 11
220.01312300000001
 21
446.36079999999993
 31
0.0
  0
LINE
  5
1C4
  8
LAY-1
  6
CONTINUOUS
 62
     3
 10
209.06428600000001
 20
450.69999999999987
 30
0.0
 11
210.86428599999999
 21
450.69999999999987
 31
0.0
  0
LINE
  5
1C5
  8
LAY-1
  6
CONTINUOUS
 62
     3
 10
209.06428600000001
 20
425.69999999999987
 30
0.0
 11
210.86428599999999
 21
425.69999999999987
 31
0.0
  0
LINE
  5
1C6
  8
LAY-1
  6
CONTINUOUS
 62
     3
 10
208.06428600000001
 20
447.19999999999999
 30
0.0
 11
209.06428600000001
 21
447.19999999999999
 31
0.0
  0
LINE
  5
1C7
  8
LAY-1
  6
CONTINUOUS
 62
     3
 10
208.06428600000001
 20
429.19999999999987
 30
0.0
 11
209.06428600000001
 21
429.19999999999987
 31
0.0
  0
LINE
  5
1C8
  8
LAY-1
  6
CONTINUOUS
 62
     3
 10
208.06428600000001
 20
447.19999999999999
 30
0.0
 11
208.06428600000001
 21
429.19999999999987
 31
0.0
  0
LINE
  5
1C9
  8
LAY-1
  6
CONTINUOUS
 62
     3
 10
209.06428600000001
 20
450.69999999999987
 30
0.0
 11
209.06428600000001
 21
425.69999999999987
 31
0.0
  0
LINE
  5
1CA
  8
LAY-1
  6
CONTINUOUS
 62
     3
 10
210.86428599999999
 20
450.69999999999987
 30
0.0
 11
210.86428599999999
 21
425.69999999999987
 31
0.0
  0
LINE
  5
1CB
  8
LAY-1
  6
EXLTYPE3
 62
     1
 10
205.59999999999999
 20
438.19999999999987
 30
0.0
 11
241.09999999999999
 21
438.19999999999987
 31
0.0
  0
LINE
  5
1CC
  8
LAY-1
  6
CONTINUOUS
 62
     3
 10
210.86428599999999
 20
446.19999999999987
 30
0.0
 11
215.84969799999999
 21
446.19999999999987
 31
0.0
  0
LINE
  5
1CD
  8
LAY-1
  6
CONTINUOUS
 62
     3
 10
220.278874
 20
446.19999999999987
 30
0.0
 11
225.84969799999999
 21
446.19999999999987
 31
0.0
  0
LINE
  5
1CE
  8
LAY-1
  6
CONTINUOUS
 62
     3
 10
210.86428599999999
 20
430.19999999999987
 30
0.0
 11
215.84969799999999
 21
430.19999999999987
 31
0.0
  0
LINE
  5
1CF
  8
LAY-1
  6
CONTINUOUS
 62
     3
 10
220.278874
 20
430.19999999999987
 30
0.0
 11
225.84969799999999
 21
430.19999999999987
 31
0.0
  0
LINE
  5
1D0
  8
LAY-1
  6
CONTINUOUS
 62
     3
 10
348.50714299999999
 20
452.19999999999999
 30
0.0
 11
346.70714299999997
 21
452.19999999999999
 31
0.0
  0
LINE
  5
1D1
  8
LAY-1
  6
CONTINUOUS
 62
     3
 10
348.50714299999999
 20
424.19999999999987
 30
0.0
 11
346.70714299999997
 21
424.19999999999987
 31
0.0
  0
LINE
  5
1D2
  8
LAY-1
  6
CONTINUOUS
 62
     3
 10
349.50714299999999
 20
448.69999999999999
 30
0.0
 11
348.50714299999999
 21
448.69999999999999
 31
0.0
  0
LINE
  5
1D3
  8
LAY-1
  6
CONTINUOUS
 62
     3
 10
349.50714299999999
 20
427.69999999999999
 30
0.0
 11
348.50714299999999
 21
427.69999999999999
 31
0.0
  0
LINE
  5
1D4
  8
LAY-1
  6
CONTINUOUS
 62
     3
 10
346.70714299999997
 20
428.69999999999987
 30
0.0
 11
346.70714299999997
 21
424.19999999999987
 31
0.0
  0
LINE
  5
1D5
  8
LAY-1
  6
CONTINUOUS
 62
     3
 10
349.50714299999999
 20
448.69999999999999
 30
0.0
 11
349.50714299999999
 21
427.69999999999999
 31
0.0
  0
LINE
  5
1D6
  8
LAY-1
  6
CONTINUOUS
 62
     3
 10
348.50714299999999
 20
452.19999999999999
 30
0.0
 11
348.50714299999999
 21
424.19999999999987
 31
0.0
  0
LINE
  5
1D7
  8
LAY-1
  6
CONTINUOUS
 62
     3
 10
346.70714299999997
 20
452.19999999999999
 30
0.0
 11
346.70714299999997
 21
428.69999999999987
 31
0.0
  0
LINE
  5
1D8
  8
LAY-1
  6
CONTINUOUS
 62
     3
 10
320.50714299999999
 20
452.19999999999999
 30
0.0
 11
322.307143
 21
452.19999999999999
 31
0.0
  0
LINE
  5
1D9
  8
LAY-1
  6
CONTINUOUS
 62
     3
 10
320.50714299999999
 20
424.19999999999987
 30
0.0
 11
322.307143
 21
424.19999999999987
 31
0.0
  0
LINE
  5
1DA
  8
LAY-1
  6
CONTINUOUS
 62
     3
 10
319.50714299999999
 20
448.69999999999999
 30
0.0
 11
320.50714299999999
 21
448.69999999999999
 31
0.0
  0
LINE
  5
1DB
  8
LAY-1
  6
CONTINUOUS
 62
     3
 10
319.50714299999999
 20
427.69999999999999
 30
0.0
 11
320.50714299999999
 21
427.69999999999999
 31
0.0
  0
LINE
  5
1DC
  8
LAY-1
  6
CONTINUOUS
 62
     3
 10
322.307143
 20
428.69999999999987
 30
0.0
 11
322.307143
 21
424.19999999999987
 31
0.0
  0
LINE
  5
1DD
  8
LAY-1
  6
CONTINUOUS
 62
     3
 10
319.50714299999999
 20
448.69999999999999
 30
0.0
 11
319.50714299999999
 21
427.69999999999999
 31
0.0
  0
LINE
  5
1DE
  8
LAY-1
  6
CONTINUOUS
 62
     3
 10
320.50714299999999
 20
452.19999999999999
 30
0.0
 11
320.50714299999999
 21
424.19999999999987
 31
0.0
  0
LINE
  5
1DF
  8
LAY-1
  6
CONTINUOUS
 62
     3
 10
322.307143
 20
452.19999999999999
 30
0.0
 11
322.307143
 21
428.69999999999987
 31
0.0
  0
LINE
  5
1E0
  8
LAY-1
  6
EXLTYPE3
 62
     1
 10
316.39999999999998
 20
438.19999999999987
 30
0.0
 11
353.39999999999998
 21
438.19999999999987
 31
0.0
  0
LINE
  5
1E1
  8
LAY-1
  6
CONTINUOUS
 62
     3
 10
326.48112200000003
 20
428.69999999999987
 30
0.0
 11
322.307143
 21
428.69999999999987
 31
0.0
  0
LINE
  5
1E2
  8
LAY-1
  6
CONTINUOUS
 62
     3
 10
326.48112200000003
 20
447.69999999999999
 30
0.0
 11
322.307143
 21
447.69999999999999
 31
0.0
  0
LINE
  5
1E3
  8
LAY-1
  6
CONTINUOUS
 62
     3
 10
332.17716100000001
 20
428.48237899999992
 30
0.0
 11
332.17716100000001
 21
447.917621
 31
0.0
  0
LINE
  5
1E4
  8
LAY-1
  6
CONTINUOUS
 62
     3
 10
326.83712400000002
 20
447.917621
 30
0.0
 11
326.83712400000002
 21
428.48237899999992
 31
0.0
  0
ARC
  5
1E5
  8
LAY-1
  6
CONTINUOUS
 62
     3
 10
326.48112200000003
 20
428.30000000000001
 30
0.0
 40
0.4
 50
27.125983999999999
 51
90.0
  0
ARC
  5
1E6
  8
LAY-1
  6
CONTINUOUS
 62
     3
 10
329.5071430000001
 20
429.85022500000002
 30
0.0
 40
3.0
 50
207.12598399999999
 51
332.8740160000001
  0
ARC
  5
1E7
  8
LAY-1
  6
CONTINUOUS
 62
     3
 10
332.533164
 20
428.30000000000001
 30
0.0
 40
0.4
 50
90.0
 51
152.87401600000001
  0
ARC
  5
1E8
  8
LAY-1
  6
CONTINUOUS
 62
     3
 10
332.533164
 20
448.10000000000002
 30
0.0
 40
0.4
 50
207.12598399999999
 51
270.0
  0
ARC
  5
1E9
  8
LAY-1
  6
CONTINUOUS
 62
     3
 10
326.48112200000003
 20
448.10000000000002
 30
0.0
 40
0.4
 50
270.0
 51
332.8740160000001
  0
ARC
  5
1EA
  8
LAY-1
  6
CONTINUOUS
 62
     3
 10
329.5071430000001
 20
446.5497749999999
 30
0.0
 40
3.0
 50
27.125983999999999
 51
152.87401600000001
  0
LINE
  5
1EB
  8
LAY-1
  6
CONTINUOUS
 62
     3
 10
342.17716100000001
 20
428.48237899999992
 30
0.0
 11
342.17716100000001
 21
447.917621
 31
0.0
  0
LINE
  5
1EC
  8
LAY-1
  6
CONTINUOUS
 62
     3
 10
336.83712400000002
 20
447.917621
 30
0.0
 11
336.83712400000002
 21
428.48237899999992
 31
0.0
  0
ARC
  5
1ED
  8
LAY-1
  6
CONTINUOUS
 62
     3
 10
336.48112200000003
 20
428.30000000000001
 30
0.0
 40
0.4
 50
27.125983999999999
 51
90.0
  0
ARC
  5
1EE
  8
LAY-1
  6
CONTINUOUS
 62
     3
 10
339.5071430000001
 20
429.85022500000002
 30
0.0
 40
3.0
 50
207.12598399999999
 51
332.8740160000001
  0
ARC
  5
1EF
  8
LAY-1
  6
CONTINUOUS
 62
     3
 10
342.533164
 20
428.30000000000001
 30
0.0
 40
0.4
 50
90.0
 51
152.87401600000001
  0
ARC
  5
1F0
  8
LAY-1
  6
CONTINUOUS
 62
     3
 10
342.533164
 20
448.10000000000002
 30
0.0
 40
0.4
 50
207.12598399999999
 51
270.0
  0
ARC
  5
1F1
  8
LAY-1
  6
CONTINUOUS
 62
     3
 10
336.48112200000003
 20
448.10000000000002
 30
0.0
 40
0.4
 50
270.0
 51
332.8740160000001
  0
ARC
  5
1F2
  8
LAY-1
  6
CONTINUOUS
 62
     3
 10
339.5071430000001
 20
446.5497749999999
 30
0.0
 40
3.0
 50
27.125983999999999
 51
152.87401600000001
  0
LINE
  5
1F3
  8
LAY-1
  6
CONTINUOUS
 62
     3
 10
332.533164
 20
447.69999999999999
 30
0.0
 11
336.48112200000003
 21
447.69999999999999
 31
0.0
  0
LINE
  5
1F4
  8
LAY-1
  6
CONTINUOUS
 62
     3
 10
342.533164
 20
447.69999999999999
 30
0.0
 11
346.70714299999997
 21
447.69999999999999
 31
0.0
  0
LINE
  5
1F5
  8
LAY-1
  6
CONTINUOUS
 62
     3
 10
346.70714299999997
 20
428.69999999999987
 30
0.0
 11
342.533164
 21
428.69999999999987
 31
0.0
  0
LINE
  5
1F6
  8
LAY-1
  6
CONTINUOUS
 62
     3
 10
336.48112200000003
 20
428.69999999999987
 30
0.0
 11
332.533164
 21
428.69999999999987
 31
0.0
  0
LINE
  5
1F7
  8
LAY-1
  6
CONTINUOUS
 62
     3
 10
432.44999999999987
 20
454.69999999999987
 30
0.0
 11
434.25
 21
454.69999999999987
 31
0.0
  0
LINE
  5
1F8
  8
LAY-1
  6
CONTINUOUS
 62
     3
 10
432.44999999999987
 20
421.69999999999987
 30
0.0
 11
434.25
 21
421.69999999999987
 31
0.0
  0
LINE
  5
1F9
  8
LAY-1
  6
CONTINUOUS
 62
     3
 10
430.94999999999987
 20
451.05000000000001
 30
0.0
 11
432.44999999999987
 21
451.05000000000001
 31
0.0
  0
LINE
  5
1FA
  8
LAY-1
  6
CONTINUOUS
 62
     3
 10
430.94999999999987
 20
425.35000000000002
 30
0.0
 11
432.44999999999987
 21
425.35000000000002
 31
0.0
  0
LINE
  5
1FB
  8
LAY-1
  6
CONTINUOUS
 62
     3
 10
430.94999999999987
 20
451.05000000000001
 30
0.0
 11
430.94999999999987
 21
425.35000000000002
 31
0.0
  0
LINE
  5
1FC
  8
LAY-1
  6
CONTINUOUS
 62
     3
 10
432.44999999999987
 20
454.69999999999987
 30
0.0
 11
432.44999999999987
 21
421.69999999999987
 31
0.0
  0
LINE
  5
1FD
  8
LAY-1
  6
CONTINUOUS
 62
     3
 10
434.25
 20
454.69999999999987
 30
0.0
 11
434.25
 21
421.69999999999987
 31
0.0
  0
LINE
  5
1FE
  8
LAY-1
  6
CONTINUOUS
 62
     3
 10
457.64999999999998
 20
426.35000000000002
 30
0.0
 11
458.05177900000001
 21
426.35000000000002
 31
0.0
  0
LINE
  5
1FF
  8
LAY-1
  6
CONTINUOUS
 62
     3
 10
457.64999999999998
 20
454.69999999999987
 30
0.0
 11
457.64999999999998
 21
421.69999999999987
 31
0.0
  0
LINE
  5
200
  8
LAY-1
  6
CONTINUOUS
 62
     3
 10
459.44999999999999
 20
454.69999999999987
 30
0.0
 11
459.44999999999999
 21
421.69999999999987
 31
0.0
  0
LINE
  5
201
  8
LAY-1
  6
CONTINUOUS
 62
     3
 10
460.94999999999987
 20
451.05000000000001
 30
0.0
 11
460.94999999999987
 21
425.35000000000002
 31
0.0
  0
LINE
  5
202
  8
LAY-1
  6
CONTINUOUS
 62
     3
 10
460.94999999999987
 20
425.35000000000002
 30
0.0
 11
459.44999999999999
 21
425.35000000000002
 31
0.0
  0
LINE
  5
203
  8
LAY-1
  6
CONTINUOUS
 62
     3
 10
460.94999999999987
 20
451.05000000000001
 30
0.0
 11
459.44999999999999
 21
451.05000000000001
 31
0.0
  0
LINE
  5
204
  8
LAY-1
  6
CONTINUOUS
 62
     3
 10
459.44999999999999
 20
421.69999999999987
 30
0.0
 11
457.64999999999998
 21
421.69999999999987
 31
0.0
  0
LINE
  5
205
  8
LAY-1
  6
CONTINUOUS
 62
     3
 10
459.44999999999999
 20
454.69999999999987
 30
0.0
 11
457.64999999999998
 21
454.69999999999987
 31
0.0
  0
LINE
  5
206
  8
LAY-1
  6
CONTINUOUS
 62
     3
 10
443.6200179999999
 20
426.13237900000001
 30
0.0
 11
443.6200179999999
 21
450.26762100000002
 31
0.0
  0
LINE
  5
207
  8
LAY-1
  6
CONTINUOUS
 62
     3
 10
438.27998200000002
 20
450.26762100000002
 30
0.0
 11
438.27998200000002
 21
426.13237900000001
 31
0.0
  0
ARC
  5
208
  8
LAY-1
  6
CONTINUOUS
 62
     3
 10
437.92397899999997
 20
425.94999999999999
 30
0.0
 40
0.4
 50
27.125983999999999
 51
90.0
  0
ARC
  5
209
  8
LAY-1
  6
CONTINUOUS
 62
     3
 10
440.94999999999999
 20
427.500225
 30
0.0
 40
3.0
 50
207.12598399999999
 51
332.8740160000001
  0
ARC
  5
20A
  8
LAY-1
  6
CONTINUOUS
 62
     3
 10
443.976021
 20
425.94999999999999
 30
0.0
 40
0.4
 50
90.0
 51
152.87401600000001
  0
ARC
  5
20B
  8
LAY-1
  6
CONTINUOUS
 62
     3
 10
443.976021
 20
450.44999999999999
 30
0.0
 40
0.4
 50
207.12598399999999
 51
270.0
  0
ARC
  5
20C
  8
LAY-1
  6
CONTINUOUS
 62
     3
 10
440.94999999999999
 20
448.89977499999998
 30
0.0
 40
3.0
 50
27.125983999999999
 51
152.87401600000001
  0
ARC
  5
20D
  8
LAY-1
  6
CONTINUOUS
 62
     3
 10
437.92397899999997
 20
450.44999999999999
 30
0.0
 40
0.4
 50
270.0
 51
332.8740160000001
  0
LINE
  5
20E
  8
LAY-1
  6
CONTINUOUS
 62
     3
 10
437.92397899999997
 20
426.35000000000002
 30
0.0
 11
434.25
 21
426.35000000000002
 31
0.0
  0
LINE
  5
20F
  8
LAY-1
  6
CONTINUOUS
 62
     3
 10
434.25
 20
450.05000000000001
 30
0.0
 11
437.92397899999997
 21
450.05000000000001
 31
0.0
  0
LINE
  5
210
  8
LAY-1
  6
EXLTYPE3
 62
     1
 10
427.60000000000002
 20
438.19999999999987
 30
0.0
 11
464.69999999999999
 21
438.19999999999987
 31
0.0
  0
LINE
  5
211
  8
LAY-1
  6
CONTINUOUS
 62
     3
 10
453.6200179999999
 20
426.13237900000001
 30
0.0
 11
453.6200179999999
 21
450.26762100000002
 31
0.0
  0
LINE
  5
212
  8
LAY-1
  6
CONTINUOUS
 62
     3
 10
448.27998200000002
 20
450.26762100000002
 30
0.0
 11
448.27998200000002
 21
426.13237900000001
 31
0.0
  0
ARC
  5
213
  8
LAY-1
  6
CONTINUOUS
 62
     3
 10
447.92397899999997
 20
425.94999999999999
 30
0.0
 40
0.4
 50
27.125983999999999
 51
90.0
  0
ARC
  5
214
  8
LAY-1
  6
CONTINUOUS
 62
     3
 10
450.94999999999999
 20
427.500225
 30
0.0
 40
3.0
 50
207.12598399999999
 51
332.8740160000001
  0
ARC
  5
215
  8
LAY-1
  6
CONTINUOUS
 62
     3
 10
453.97602099999989
 20
425.94999999999999
 30
0.0
 40
0.4
 50
90.0
 51
152.87401600000001
  0
ARC
  5
216
  8
LAY-1
  6
CONTINUOUS
 62
     3
 10
453.97602099999989
 20
450.44999999999999
 30
0.0
 40
0.4
 50
207.12598399999999
 51
270.0
  0
ARC
  5
217
  8
LAY-1
  6
CONTINUOUS
 62
     3
 10
450.94999999999999
 20
448.89977499999998
 30
0.0
 40
3.0
 50
27.125983999999999
 51
152.87401600000001
  0
ARC
  5
218
  8
LAY-1
  6
CONTINUOUS
 62
     3
 10
447.92397899999997
 20
450.44999999999999
 30
0.0
 40
0.4
 50
270.0
 51
332.8740160000001
  0
LINE
  5
219
  8
LAY-1
  6
CONTINUOUS
 62
     3
 10
443.976021
 20
450.05000000000001
 30
0.0
 11
447.92397899999997
 21
450.05000000000001
 31
0.0
  0
LINE
  5
21A
  8
LAY-1
  6
CONTINUOUS
 62
     3
 10
453.97602099999989
 20
450.05000000000001
 30
0.0
 11
457.64999999999998
 21
450.05000000000001
 31
0.0
  0
LINE
  5
21B
  8
LAY-1
  6
CONTINUOUS
 62
     3
 10
457.64999999999998
 20
426.35000000000002
 30
0.0
 11
453.97602099999989
 21
426.35000000000002
 31
0.0
  0
LINE
  5
21C
  8
LAY-1
  6
CONTINUOUS
 62
     3
 10
447.92397899999997
 20
426.35000000000002
 30
0.0
 11
443.976021
 21
426.35000000000002
 31
0.0
  0
LINE
  5
21D
  8
LAY-1
  6
CONTINUOUS
 62
     3
 10
570.89285700000005
 20
458.19999999999987
 30
0.0
 11
569.09285699999987
 21
458.19999999999987
 31
0.0
  0
LINE
  5
21E
  8
LAY-1
  6
CONTINUOUS
 62
     3
 10
570.89285700000005
 20
418.19999999999999
 30
0.0
 11
569.09285699999987
 21
418.19999999999999
 31
0.0
  0
LINE
  5
21F
  8
LAY-1
  6
CONTINUOUS
 62
     3
 10
572.39285700000005
 20
454.39999999999992
 30
0.0
 11
570.89285700000005
 21
454.39999999999992
 31
0.0
  0
LINE
  5
220
  8
LAY-1
  6
CONTINUOUS
 62
     3
 10
572.39285700000005
 20
422.0
 30
0.0
 11
570.89285700000005
 21
422.0
 31
0.0
  0
LINE
  5
221
  8
LAY-1
  6
CONTINUOUS
 62
     3
 10
572.39285700000005
 20
454.39999999999992
 30
0.0
 11
572.39285700000005
 21
422.0
 31
0.0
  0
LINE
  5
222
  8
LAY-1
  6
CONTINUOUS
 62
     3
 10
570.89285700000005
 20
458.19999999999987
 30
0.0
 11
570.89285700000005
 21
418.19999999999999
 31
0.0
  0
LINE
  5
223
  8
LAY-1
  6
CONTINUOUS
 62
     3
 10
569.09285699999987
 20
458.19999999999987
 30
0.0
 11
569.09285699999987
 21
418.19999999999999
 31
0.0
  0
LINE
  5
224
  8
LAY-1
  6
CONTINUOUS
 62
     3
 10
543.89285700000005
 20
458.19999999999987
 30
0.0
 11
545.692857
 21
458.19999999999987
 31
0.0
  0
LINE
  5
225
  8
LAY-1
  6
CONTINUOUS
 62
     3
 10
543.89285700000005
 20
418.19999999999999
 30
0.0
 11
545.692857
 21
418.19999999999999
 31
0.0
  0
LINE
  5
226
  8
LAY-1
  6
CONTINUOUS
 62
     3
 10
542.39285700000005
 20
454.39999999999992
 30
0.0
 11
543.89285700000005
 21
454.39999999999992
 31
0.0
  0
LINE
  5
227
  8
LAY-1
  6
CONTINUOUS
 62
     3
 10
542.39285700000005
 20
422.0
 30
0.0
 11
543.89285700000005
 21
422.0
 31
0.0
  0
LINE
  5
228
  8
LAY-1
  6
CONTINUOUS
 62
     3
 10
542.39285700000005
 20
454.39999999999992
 30
0.0
 11
542.39285700000005
 21
422.0
 31
0.0
  0
LINE
  5
229
  8
LAY-1
  6
CONTINUOUS
 62
     3
 10
543.89285700000005
 20
458.19999999999987
 30
0.0
 11
543.89285700000005
 21
418.19999999999999
 31
0.0
  0
LINE
  5
22A
  8
LAY-1
  6
CONTINUOUS
 62
     3
 10
545.692857
 20
458.19999999999987
 30
0.0
 11
545.692857
 21
418.19999999999999
 31
0.0
  0
ARC
  5
22B
  8
LAY-1
  6
CONTINUOUS
 62
     3
 10
549.36683600000003
 20
453.80000000000001
 30
0.0
 40
0.4
 50
270.0
 51
332.8740160000001
  0
ARC
  5
22C
  8
LAY-1
  6
CONTINUOUS
 62
     3
 10
552.39285700000005
 20
452.249775
 30
0.0
 40
3.0
 50
27.125983999999999
 51
152.87401600000001
  0
ARC
  5
22D
  8
LAY-1
  6
CONTINUOUS
 62
     3
 10
555.41887799999995
 20
453.80000000000001
 30
0.0
 40
0.4
 50
207.12598399999999
 51
270.0
  0
ARC
  5
22E
  8
LAY-1
  6
CONTINUOUS
 62
     3
 10
555.41887799999995
 20
422.59999999999991
 30
0.0
 40
0.4
 50
90.0
 51
152.87401600000001
  0
ARC
  5
22F
  8
LAY-1
  6
CONTINUOUS
 62
     3
 10
552.39285700000005
 20
424.15022499999992
 30
0.0
 40
3.0
 50
207.12598399999999
 51
332.8740160000001
  0
ARC
  5
230
  8
LAY-1
  6
CONTINUOUS
 62
     3
 10
549.36683600000003
 20
422.59999999999991
 30
0.0
 40
0.4
 50
27.125983999999999
 51
90.0
  0
LINE
  5
231
  8
LAY-1
  6
CONTINUOUS
 62
     3
 10
549.72283900000002
 20
453.61762099999987
 30
0.0
 11
549.72283900000002
 21
422.78237899999999
 31
0.0
  0
LINE
  5
232
  8
LAY-1
  6
CONTINUOUS
 62
     3
 10
555.06287599999985
 20
422.78237899999999
 30
0.0
 11
555.06287599999985
 21
453.61762099999987
 31
0.0
  0
LINE
  5
233
  8
LAY-1
  6
CONTINUOUS
 62
     3
 10
545.692857
 20
453.39999999999992
 30
0.0
 11
549.36683600000003
 21
453.39999999999992
 31
0.0
  0
LINE
  5
234
  8
LAY-1
  6
CONTINUOUS
 62
     3
 10
549.36683600000003
 20
423.0
 30
0.0
 11
545.692857
 21
423.0
 31
0.0
  0
LINE
  5
235
  8
LAY-1
  6
EXLTYPE3
 62
     1
 10
538.10000000000002
 20
438.19999999999987
 30
0.0
 11
576.89999999999998
 21
438.19999999999987
 31
0.0
  0
ARC
  5
236
  8
LAY-1
  6
CONTINUOUS
 62
     3
 10
559.36683600000003
 20
453.80000000000001
 30
0.0
 40
0.4
 50
270.0
 51
332.8740160000001
  0
ARC
  5
237
  8
LAY-1
  6
CONTINUOUS
 62
     3
 10
562.39285700000005
 20
452.249775
 30
0.0
 40
3.0
 50
27.125983999999999
 51
152.87401600000001
  0
ARC
  5
238
  8
LAY-1
  6
CONTINUOUS
 62
     3
 10
565.41887800000006
 20
453.80000000000001
 30
0.0
 40
0.4
 50
207.12598399999999
 51
270.0
  0
ARC
  5
239
  8
LAY-1
  6
CONTINUOUS
 62
     3
 10
565.41887800000006
 20
422.59999999999991
 30
0.0
 40
0.4
 50
90.0
 51
152.87401600000001
  0
ARC
  5
23A
  8
LAY-1
  6
CONTINUOUS
 62
     3
 10
562.39285700000005
 20
424.15022499999992
 30
0.0
 40
3.0
 50
207.12598399999999
 51
332.8740160000001
  0
ARC
  5
23B
  8
LAY-1
  6
CONTINUOUS
 62
     3
 10
559.36683600000003
 20
422.59999999999991
 30
0.0
 40
0.4
 50
27.125983999999999
 51
90.0
  0
LINE
  5
23C
  8
LAY-1
  6
CONTINUOUS
 62
     3
 10
559.72283900000002
 20
453.61762099999987
 30
0.0
 11
559.72283900000002
 21
422.78237899999999
 31
0.0
  0
LINE
  5
23D
  8
LAY-1
  6
CONTINUOUS
 62
     3
 10
565.06287599999996
 20
422.78237899999999
 30
0.0
 11
565.06287599999996
 21
453.61762099999987
 31
0.0
  0
LINE
  5
23E
  8
LAY-1
  6
CONTINUOUS
 62
     3
 10
555.41887799999995
 20
453.39999999999992
 30
0.0
 11
559.36683600000003
 21
453.39999999999992
 31
0.0
  0
LINE
  5
23F
  8
LAY-1
  6
CONTINUOUS
 62
     3
 10
565.41887800000006
 20
453.39999999999992
 30
0.0
 11
569.09285699999987
 21
453.39999999999992
 31
0.0
  0
LINE
  5
240
  8
LAY-1
  6
CONTINUOUS
 62
     3
 10
569.09285699999987
 20
423.0
 30
0.0
 11
565.41887800000006
 21
423.0
 31
0.0
  0
LINE
  5
241
  8
LAY-1
  6
CONTINUOUS
 62
     3
 10
559.36683600000003
 20
423.0
 30
0.0
 11
555.41887799999995
 21
423.0
 31
0.0
  0
LINE
  5
242
  8
LAY-1
  6
CONTINUOUS
 62
     3
 10
652.83571399999994
 20
460.44999999999987
 30
0.0
 11
654.83571399999994
 21
460.44999999999987
 31
0.0
  0
LINE
  5
243
  8
LAY-1
  6
CONTINUOUS
 62
     3
 10
652.83571399999994
 20
415.94999999999987
 30
0.0
 11
654.83571399999994
 21
415.94999999999987
 31
0.0
  0
LINE
  5
244
  8
LAY-1
  6
CONTINUOUS
 62
     3
 10
651.33571399999994
 20
456.5
 30
0.0
 11
652.83571399999994
 21
456.5
 31
0.0
  0
LINE
  5
245
  8
LAY-1
  6
CONTINUOUS
 62
     3
 10
651.33571399999994
 20
419.89999999999992
 30
0.0
 11
652.83571399999994
 21
419.89999999999992
 31
0.0
  0
LINE
  5
246
  8
LAY-1
  6
CONTINUOUS
 62
     3
 10
651.33571399999994
 20
456.5
 30
0.0
 11
651.33571399999994
 21
419.89999999999992
 31
0.0
  0
LINE
  5
247
  8
LAY-1
  6
CONTINUOUS
 62
     3
 10
652.83571399999994
 20
460.44999999999987
 30
0.0
 11
652.83571399999994
 21
415.94999999999987
 31
0.0
  0
LINE
  5
248
  8
LAY-1
  6
CONTINUOUS
 62
     3
 10
654.83571399999994
 20
460.44999999999987
 30
0.0
 11
654.83571399999994
 21
415.94999999999987
 31
0.0
  0
LINE
  5
249
  8
LAY-1
  6
CONTINUOUS
 62
     3
 10
684.83571399999994
 20
415.94999999999987
 30
0.0
 11
682.83571399999994
 21
415.94999999999987
 31
0.0
  0
LINE
  5
24A
  8
LAY-1
  6
CONTINUOUS
 62
     3
 10
684.83571399999994
 20
460.44999999999987
 30
0.0
 11
682.83571399999994
 21
460.44999999999987
 31
0.0
  0
LINE
  5
24B
  8
LAY-1
  6
CONTINUOUS
 62
     3
 10
686.33571399999994
 20
456.5
 30
0.0
 11
684.83571399999994
 21
456.5
 31
0.0
  0
LINE
  5
24C
  8
LAY-1
  6
CONTINUOUS
 62
     3
 10
686.33571399999994
 20
419.89999999999992
 30
0.0
 11
684.83571399999994
 21
419.89999999999992
 31
0.0
  0
LINE
  5
24D
  8
LAY-1
  6
CONTINUOUS
 62
     3
 10
686.33571399999994
 20
456.5
 30
0.0
 11
686.33571399999994
 21
419.89999999999992
 31
0.0
  0
LINE
  5
24E
  8
LAY-1
  6
CONTINUOUS
 62
     3
 10
682.83571399999994
 20
460.44999999999987
 30
0.0
 11
682.83571399999994
 21
415.94999999999987
 31
0.0
  0
LINE
  5
24F
  8
LAY-1
  6
CONTINUOUS
 62
     3
 10
684.83571399999994
 20
460.44999999999987
 30
0.0
 11
684.83571399999994
 21
415.94999999999987
 31
0.0
  0
ARC
  5
250
  8
LAY-1
  6
CONTINUOUS
 62
     3
 10
663.83571399999994
 20
453.84977500000002
 30
0.0
 40
3.25
 50
30.446041999999998
 51
149.55395799999999
  0
ARC
  5
251
  8
LAY-1
  6
CONTINUOUS
 62
     3
 10
660.60281399999985
 20
455.75
 30
0.0
 40
0.5
 50
270.0
 51
329.55395800000002
  0
ARC
  5
252
  8
LAY-1
  6
CONTINUOUS
 62
     3
 10
667.06861500000002
 20
455.75
 30
0.0
 40
0.5
 50
210.44604200000001
 51
270.0
  0
ARC
  5
253
  8
LAY-1
  6
CONTINUOUS
 62
     3
 10
667.06861500000002
 20
420.64999999999998
 30
0.0
 40
0.5
 50
90.0
 51
149.55395799999999
  0
ARC
  5
254
  8
LAY-1
  6
CONTINUOUS
 62
     3
 10
663.83571399999994
 20
422.5502249999999
 30
0.0
 40
3.25
 50
210.44604200000001
 51
329.55395800000002
  0
ARC
  5
255
  8
LAY-1
  6
CONTINUOUS
 62
     3
 10
660.60281399999985
 20
420.64999999999998
 30
0.0
 40
0.5
 50
30.446041999999998
 51
90.0
  0
LINE
  5
256
  8
LAY-1
  6
CONTINUOUS
 62
     3
 10
661.03386699999987
 20
420.90336300000001
 30
0.0
 11
661.03386699999987
 21
455.49663700000002
 31
0.0
  0
LINE
  5
257
  8
LAY-1
  6
CONTINUOUS
 62
     3
 10
666.70692199999996
 20
455.40477800000002
 30
0.0
 11
666.70692199999996
 21
420.90336300000001
 31
0.0
  0
LINE
  5
258
  8
LAY-1
  6
CONTINUOUS
 62
     3
 10
654.83571399999994
 20
455.25
 30
0.0
 11
660.60281399999985
 21
455.25
 31
0.0
  0
LINE
  5
259
  8
LAY-1
  6
CONTINUOUS
 62
     3
 10
660.60281399999985
 20
421.14999999999998
 30
0.0
 11
654.83571399999994
 21
421.14999999999998
 31
0.0
  0
LINE
  5
25A
  8
LAY-1
  6
EXLTYPE3
 62
     1
 10
647.59999999999991
 20
438.19999999999987
 30
0.0
 11
690.70000000000005
 21
438.19999999999987
 31
0.0
  0
ARC
  5
25B
  8
LAY-1
  6
CONTINUOUS
 62
     3
 10
673.83571399999994
 20
453.84977500000002
 30
0.0
 40
3.25
 50
30.446041999999998
 51
149.55395799999999
  0
ARC
  5
25C
  8
LAY-1
  6
CONTINUOUS
 62
     3
 10
670.60281399999985
 20
455.75
 30
0.0
 40
0.5
 50
270.0
 51
329.55395800000002
  0
ARC
  5
25D
  8
LAY-1
  6
CONTINUOUS
 62
     3
 10
677.06861500000002
 20
455.75
 30
0.0
 40
0.5
 50
210.44604200000001
 51
270.0
  0
ARC
  5
25E
  8
LAY-1
  6
CONTINUOUS
 62
     3
 10
677.06861500000002
 20
420.64999999999998
 30
0.0
 40
0.5
 50
90.0
 51
149.55395799999999
  0
ARC
  5
25F
  8
LAY-1
  6
CONTINUOUS
 62
     3
 10
673.83571399999994
 20
422.5502249999999
 30
0.0
 40
3.25
 50
210.44604200000001
 51
329.55395800000002
  0
ARC
  5
260
  8
LAY-1
  6
CONTINUOUS
 62
     3
 10
670.60281399999985
 20
420.64999999999998
 30
0.0
 40
0.5
 50
30.446041999999998
 51
90.0
  0
LINE
  5
261
  8
LAY-1
  6
CONTINUOUS
 62
     3
 10
671.03386699999987
 20
420.90336300000001
 30
0.0
 11
671.03386699999987
 21
455.49663700000002
 31
0.0
  0
LINE
  5
262
  8
LAY-1
  6
CONTINUOUS
 62
     3
 10
676.70692199999985
 20
455.40477800000002
 30
0.0
 11
676.70692199999985
 21
420.90336300000001
 31
0.0
  0
ARC
  5
263
  8
LAY-1
  6
CONTINUOUS
 62
     3
 10
673.83571399999994
 20
453.84977500000002
 30
0.0
 40
3.25
 50
30.446041999999998
 51
149.55395799999999
  0
ARC
  5
264
  8
LAY-1
  6
CONTINUOUS
 62
     3
 10
670.60281399999985
 20
455.75
 30
0.0
 40
0.5
 50
270.0
 51
329.55395800000002
  0
ARC
  5
265
  8
LAY-1
  6
CONTINUOUS
 62
     3
 10
677.06861500000002
 20
455.75
 30
0.0
 40
0.5
 50
210.44604200000001
 51
270.0
  0
ARC
  5
266
  8
LAY-1
  6
CONTINUOUS
 62
     3
 10
677.06861500000002
 20
420.64999999999998
 30
0.0
 40
0.5
 50
90.0
 51
149.55395799999999
  0
ARC
  5
267
  8
LAY-1
  6
CONTINUOUS
 62
     3
 10
673.83571399999994
 20
422.5502249999999
 30
0.0
 40
3.25
 50
210.44604200000001
 51
329.55395800000002
  0
ARC
  5
268
  8
LAY-1
  6
CONTINUOUS
 62
     3
 10
670.60281399999985
 20
420.64999999999998
 30
0.0
 40
0.5
 50
30.446041999999998
 51
90.0
  0
LINE
  5
269
  8
LAY-1
  6
CONTINUOUS
 62
     3
 10
671.03386699999987
 20
420.90336300000001
 30
0.0
 11
671.03386699999987
 21
455.49663700000002
 31
0.0
  0
LINE
  5
26A
  8
LAY-1
  6
CONTINUOUS
 62
     3
 10
676.70692199999985
 20
455.40477800000002
 30
0.0
 11
676.70692199999985
 21
420.90336300000001
 31
0.0
  0
LINE
  5
26B
  8
LAY-1
  6
CONTINUOUS
 62
     3
 10
667.06861500000002
 20
455.25
 30
0.0
 11
670.60281399999985
 21
455.25
 31
0.0
  0
LINE
  5
26C
  8
LAY-1
  6
CONTINUOUS
 62
     3
 10
677.06861500000002
 20
455.25
 30
0.0
 11
682.83571399999994
 21
455.25
 31
0.0
  0
LINE
  5
26D
  8
LAY-1
  6
CONTINUOUS
 62
     3
 10
682.83571399999994
 20
421.14999999999998
 30
0.0
 11
677.06861500000002
 21
421.14999999999998
 31
0.0
  0
LINE
  5
26E
  8
LAY-1
  6
CONTINUOUS
 62
     3
 10
670.60281399999985
 20
421.14999999999998
 30
0.0
 11
667.06861500000002
 21
421.14999999999998
 31
0.0
  0
ARC
  5
26F
  8
LAY-1
  6
CONTINUOUS
 62
     3
 10
769.54567099999997
 20
458.0
 30
0.0
 40
0.5
 50
270.0
 51
329.55395800000002
  0
ARC
  5
270
  8
LAY-1
  6
CONTINUOUS
 62
     3
 10
772.77857100000006
 20
456.09977500000002
 30
0.0
 40
3.25
 50
30.446041999999998
 51
149.55395799999999
  0
ARC
  5
271
  8
LAY-1
  6
CONTINUOUS
 62
     3
 10
776.01147200000003
 20
458.0
 30
0.0
 40
0.5
 50
210.44604200000001
 51
270.0
  0
ARC
  5
272
  8
LAY-1
  6
CONTINUOUS
 62
     3
 10
776.01147200000003
 20
418.39999999999998
 30
0.0
 40
0.5
 50
90.0
 51
149.55395799999999
  0
ARC
  5
273
  8
LAY-1
  6
CONTINUOUS
 62
     3
 10
772.77857100000006
 20
420.3002249999999
 30
0.0
 40
3.25
 50
210.44604200000001
 51
329.55395800000002
  0
ARC
  5
274
  8
LAY-1
  6
CONTINUOUS
 62
     3
 10
769.54567099999997
 20
418.39999999999998
 30
0.0
 40
0.5
 50
30.446041999999998
 51
90.0
  0
LINE
  5
275
  8
LAY-1
  6
CONTINUOUS
 62
     3
 10
769.97672499999987
 20
418.65336300000001
 30
0.0
 11
769.97672499999987
 21
457.74663700000002
 31
0.0
  0
LINE
  5
276
  8
LAY-1
  6
CONTINUOUS
 62
     3
 10
775.64977899999997
 20
457.65477800000002
 30
0.0
 11
775.64977899999997
 21
418.65336300000001
 31
0.0
  0
LINE
  5
277
  8
LAY-1
  6
CONTINUOUS
 62
     3
 10
764.27857099999994
 20
462.69999999999987
 30
0.0
 11
766.27857099999994
 21
462.69999999999987
 31
0.0
  0
LINE
  5
278
  8
LAY-1
  6
CONTINUOUS
 62
     3
 10
764.27857099999994
 20
413.69999999999987
 30
0.0
 11
766.27857099999994
 21
413.69999999999987
 31
0.0
  0
LINE
  5
279
  8
LAY-1
  6
CONTINUOUS
 62
     3
 10
762.77857099999994
 20
459.0
 30
0.0
 11
764.27857099999994
 21
459.0
 31
0.0
  0
LINE
  5
27A
  8
LAY-1
  6
CONTINUOUS
 62
     3
 10
762.77857099999994
 20
417.39999999999992
 30
0.0
 11
764.27857099999994
 21
417.39999999999992
 31
0.0
  0
LINE
  5
27B
  8
LAY-1
  6
CONTINUOUS
 62
     3
 10
762.77857099999994
 20
459.0
 30
0.0
 11
762.77857099999994
 21
417.39999999999992
 31
0.0
  0
LINE
  5
27C
  8
LAY-1
  6
CONTINUOUS
 62
     3
 10
764.27857099999994
 20
462.69999999999987
 30
0.0
 11
764.27857099999994
 21
413.69999999999987
 31
0.0
  0
LINE
  5
27D
  8
LAY-1
  6
CONTINUOUS
 62
     3
 10
766.27857099999994
 20
462.69999999999987
 30
0.0
 11
766.27857099999994
 21
413.69999999999987
 31
0.0
  0
LINE
  5
27E
  8
LAY-1
  6
CONTINUOUS
 62
     3
 10
769.54567099999997
 20
418.89999999999998
 30
0.0
 11
766.27857099999994
 21
418.89999999999998
 31
0.0
  0
LINE
  5
27F
  8
LAY-1
  6
CONTINUOUS
 62
     3
 10
766.27857099999994
 20
457.5
 30
0.0
 11
769.54567099999997
 21
457.5
 31
0.0
  0
LINE
  5
280
  8
LAY-1
  6
CONTINUOUS
 62
     3
 10
796.27857099999994
 20
462.69999999999987
 30
0.0
 11
794.27857099999994
 21
462.69999999999987
 31
0.0
  0
LINE
  5
281
  8
LAY-1
  6
CONTINUOUS
 62
     3
 10
796.27857099999994
 20
413.69999999999987
 30
0.0
 11
794.27857099999994
 21
413.69999999999987
 31
0.0
  0
LINE
  5
282
  8
LAY-1
  6
CONTINUOUS
 62
     3
 10
797.77857100000006
 20
459.0
 30
0.0
 11
796.27857099999994
 21
459.0
 31
0.0
  0
LINE
  5
283
  8
LAY-1
  6
CONTINUOUS
 62
     3
 10
797.77857100000006
 20
417.39999999999992
 30
0.0
 11
796.27857099999994
 21
417.39999999999992
 31
0.0
  0
LINE
  5
284
  8
LAY-1
  6
CONTINUOUS
 62
     3
 10
797.77857100000006
 20
459.0
 30
0.0
 11
797.77857100000006
 21
417.39999999999992
 31
0.0
  0
LINE
  5
285
  8
LAY-1
  6
CONTINUOUS
 62
     3
 10
796.27857099999994
 20
462.69999999999987
 30
0.0
 11
796.27857099999994
 21
413.69999999999987
 31
0.0
  0
LINE
  5
286
  8
LAY-1
  6
CONTINUOUS
 62
     3
 10
794.27857099999994
 20
462.69999999999987
 30
0.0
 11
794.27857099999994
 21
413.69999999999987
 31
0.0
  0
LINE
  5
287
  8
LAY-1
  6
EXLTYPE3
 62
     1
 10
757.89999999999986
 20
438.19999999999987
 30
0.0
 11
802.89999999999986
 21
438.19999999999987
 31
0.0
  0
ARC
  5
288
  8
LAY-1
  6
CONTINUOUS
 62
     3
 10
784.54567099999986
 20
458.0
 30
0.0
 40
0.5
 50
270.0
 51
329.55395800000002
  0
ARC
  5
289
  8
LAY-1
  6
CONTINUOUS
 62
     3
 10
787.77857099999994
 20
456.09977500000002
 30
0.0
 40
3.25
 50
30.446041999999998
 51
149.55395799999999
  0
ARC
  5
28A
  8
LAY-1
  6
CONTINUOUS
 62
     3
 10
791.01147200000003
 20
458.0
 30
0.0
 40
0.5
 50
210.44604200000001
 51
270.0
  0
ARC
  5
28B
  8
LAY-1
  6
CONTINUOUS
 62
     3
 10
791.01147200000003
 20
418.39999999999998
 30
0.0
 40
0.5
 50
90.0
 51
149.55395799999999
  0
ARC
  5
28C
  8
LAY-1
  6
CONTINUOUS
 62
     3
 10
787.77857099999994
 20
420.3002249999999
 30
0.0
 40
3.25
 50
210.44604200000001
 51
329.55395800000002
  0
ARC
  5
28D
  8
LAY-1
  6
CONTINUOUS
 62
     3
 10
784.54567099999986
 20
418.39999999999998
 30
0.0
 40
0.5
 50
30.446041999999998
 51
90.0
  0
LINE
  5
28E
  8
LAY-1
  6
CONTINUOUS
 62
     3
 10
784.97672499999999
 20
418.65336300000001
 30
0.0
 11
784.97672499999999
 21
457.74663700000002
 31
0.0
  0
LINE
  5
28F
  8
LAY-1
  6
CONTINUOUS
 62
     3
 10
790.64977899999985
 20
457.65477800000002
 30
0.0
 11
790.64977899999985
 21
418.65336300000001
 31
0.0
  0
LINE
  5
290
  8
LAY-1
  6
CONTINUOUS
 62
     3
 10
776.01147200000003
 20
457.5
 30
0.0
 11
784.54567099999986
 21
457.5
 31
0.0
  0
LINE
  5
291
  8
LAY-1
  6
CONTINUOUS
 62
     3
 10
791.01147200000003
 20
457.5
 30
0.0
 11
794.27857099999994
 21
457.5
 31
0.0
  0
LINE
  5
292
  8
LAY-1
  6
CONTINUOUS
 62
     3
 10
794.27857099999994
 20
418.89999999999998
 30
0.0
 11
791.01147200000003
 21
418.89999999999998
 31
0.0
  0
LINE
  5
293
  8
LAY-1
  6
CONTINUOUS
 62
     3
 10
784.54567099999986
 20
418.89999999999998
 30
0.0
 11
776.01147200000003
 21
418.89999999999998
 31
0.0
  0
ARC
  5
294
  8
LAY-1
  6
CONTINUOUS
 62
     3
 10
115.88852799999999
 20
356.94999999999999
 30
0.0
 40
0.5
 50
270.0
 51
329.55395800000002
  0
ARC
  5
295
  8
LAY-1
  6
CONTINUOUS
 62
     3
 10
119.12142900000001
 20
355.04977500000001
 30
0.0
 40
3.25
 50
30.446041999999998
 51
149.55395799999999
  0
ARC
  5
296
  8
LAY-1
  6
CONTINUOUS
 62
     3
 10
122.35432900000001
 20
356.94999999999999
 30
0.0
 40
0.5
 50
210.44604200000001
 51
270.0
  0
ARC
  5
297
  8
LAY-1
  6
CONTINUOUS
 62
     3
 10
122.35432900000001
 20
309.44999999999999
 30
0.0
 40
0.5
 50
90.0
 51
149.55395799999999
  0
ARC
  5
298
  8
LAY-1
  6
CONTINUOUS
 62
     3
 10
119.12142900000001
 20
311.35022500000002
 30
0.0
 40
3.25
 50
210.44604200000001
 51
329.55395800000002
  0
ARC
  5
299
  8
LAY-1
  6
CONTINUOUS
 62
     3
 10
115.88852799999999
 20
309.44999999999999
 30
0.0
 40
0.5
 50
30.446041999999998
 51
90.0
  0
LINE
  5
29A
  8
LAY-1
  6
CONTINUOUS
 62
     3
 10
116.319582
 20
309.70336300000002
 30
0.0
 11
116.319582
 21
356.69663700000001
 31
0.0
  0
LINE
  5
29B
  8
LAY-1
  6
CONTINUOUS
 62
     3
 10
121.992636
 20
356.6047779999999
 30
0.0
 11
121.992636
 21
309.70336300000002
 31
0.0
  0
LINE
  5
29C
  8
LAY-1
  6
CONTINUOUS
 62
     3
 10
127.62142900000001
 20
361.19999999999999
 30
0.0
 11
125.62142900000001
 21
361.19999999999999
 31
0.0
  0
LINE
  5
29D
  8
LAY-1
  6
CONTINUOUS
 62
     3
 10
127.62142900000001
 20
305.19999999999999
 30
0.0
 11
125.62142900000001
 21
305.19999999999999
 31
0.0
  0
LINE
  5
29E
  8
LAY-1
  6
CONTINUOUS
 62
     3
 10
129.12142900000001
 20
357.44999999999999
 30
0.0
 11
127.62142900000001
 21
357.44999999999999
 31
0.0
  0
LINE
  5
29F
  8
LAY-1
  6
CONTINUOUS
 62
     3
 10
129.12142900000001
 20
308.94999999999999
 30
0.0
 11
127.62142900000001
 21
308.94999999999999
 31
0.0
  0
LINE
  5
2A0
  8
LAY-1
  6
CONTINUOUS
 62
     3
 10
129.12142900000001
 20
357.44999999999999
 30
0.0
 11
129.12142900000001
 21
308.94999999999999
 31
0.0
  0
LINE
  5
2A1
  8
LAY-1
  6
CONTINUOUS
 62
     3
 10
127.62142900000001
 20
361.19999999999999
 30
0.0
 11
127.62142900000001
 21
305.19999999999999
 31
0.0
  0
LINE
  5
2A2
  8
LAY-1
  6
CONTINUOUS
 62
     3
 10
125.62142900000001
 20
361.19999999999999
 30
0.0
 11
125.62142900000001
 21
305.19999999999999
 31
0.0
  0
LINE
  5
2A3
  8
LAY-1
  6
CONTINUOUS
 62
     3
 10
122.35432900000001
 20
356.44999999999999
 30
0.0
 11
125.62142900000001
 21
356.44999999999999
 31
0.0
  0
LINE
  5
2A4
  8
LAY-1
  6
CONTINUOUS
 62
     3
 10
125.62142900000001
 20
309.94999999999999
 30
0.0
 11
122.35432900000001
 21
309.94999999999999
 31
0.0
  0
LINE
  5
2A5
  8
LAY-1
  6
CONTINUOUS
 62
     3
 10
95.621429000000006
 20
361.19999999999999
 30
0.0
 11
97.621429000000006
 21
361.19999999999999
 31
0.0
  0
LINE
  5
2A6
  8
LAY-1
  6
CONTINUOUS
 62
     3
 10
95.621429000000006
 20
305.19999999999999
 30
0.0
 11
97.621429000000006
 21
305.19999999999999
 31
0.0
  0
LINE
  5
2A7
  8
LAY-1
  6
CONTINUOUS
 62
     3
 10
94.121429000000006
 20
357.44999999999999
 30
0.0
 11
95.621429000000006
 21
357.44999999999999
 31
0.0
  0
LINE
  5
2A8
  8
LAY-1
  6
CONTINUOUS
 62
     3
 10
94.121429000000006
 20
308.94999999999999
 30
0.0
 11
95.621429000000006
 21
308.94999999999999
 31
0.0
  0
LINE
  5
2A9
  8
LAY-1
  6
CONTINUOUS
 62
     3
 10
94.121429000000006
 20
357.44999999999999
 30
0.0
 11
94.121429000000006
 21
308.94999999999999
 31
0.0
  0
LINE
  5
2AA
  8
LAY-1
  6
CONTINUOUS
 62
     3
 10
95.621429000000006
 20
361.19999999999999
 30
0.0
 11
95.621429000000006
 21
305.19999999999999
 31
0.0
  0
LINE
  5
2AB
  8
LAY-1
  6
CONTINUOUS
 62
     3
 10
97.621429000000006
 20
361.19999999999999
 30
0.0
 11
97.621429000000006
 21
305.19999999999999
 31
0.0
  0
LINE
  5
2AC
  8
LAY-1
  6
EXLTYPE3
 62
     1
 10
133.40000000000001
 20
333.19999999999999
 30
0.0
 11
88.400000000000006
 21
333.19999999999999
 31
0.0
  0
ARC
  5
2AD
  8
LAY-1
  6
CONTINUOUS
 62
     3
 10
100.88852799999999
 20
356.94999999999999
 30
0.0
 40
0.5
 50
270.0
 51
329.55395800000002
  0
ARC
  5
2AE
  8
LAY-1
  6
CONTINUOUS
 62
     3
 10
104.12142900000001
 20
355.04977500000001
 30
0.0
 40
3.25
 50
30.446041999999998
 51
149.55395799999999
  0
ARC
  5
2AF
  8
LAY-1
  6
CONTINUOUS
 62
     3
 10
107.35432900000001
 20
356.94999999999999
 30
0.0
 40
0.5
 50
210.44604200000001
 51
270.0
  0
ARC
  5
2B0
  8
LAY-1
  6
CONTINUOUS
 62
     3
 10
107.35432900000001
 20
309.44999999999999
 30
0.0
 40
0.5
 50
90.0
 51
149.55395799999999
  0
ARC
  5
2B1
  8
LAY-1
  6
CONTINUOUS
 62
     3
 10
104.12142900000001
 20
311.35022500000002
 30
0.0
 40
3.25
 50
210.44604200000001
 51
329.55395800000002
  0
ARC
  5
2B2
  8
LAY-1
  6
CONTINUOUS
 62
     3
 10
100.88852799999999
 20
309.44999999999999
 30
0.0
 40
0.5
 50
30.446041999999998
 51
90.0
  0
LINE
  5
2B3
  8
LAY-1
  6
CONTINUOUS
 62
     3
 10
101.319582
 20
309.70336300000002
 30
0.0
 11
101.319582
 21
356.69663700000001
 31
0.0
  0
LINE
  5
2B4
  8
LAY-1
  6
CONTINUOUS
 62
     3
 10
106.992636
 20
356.6047779999999
 30
0.0
 11
106.992636
 21
309.70336300000002
 31
0.0
  0
LINE
  5
2B5
  8
LAY-1
  6
CONTINUOUS
 62
     3
 10
97.621429000000006
 20
356.44999999999999
 30
0.0
 11
100.88852799999999
 21
356.44999999999999
 31
0.0
  0
LINE
  5
2B6
  8
LAY-1
  6
CONTINUOUS
 62
     3
 10
107.35432900000001
 20
356.44999999999999
 30
0.0
 11
115.88852799999999
 21
356.44999999999999
 31
0.0
  0
LINE
  5
2B7
  8
LAY-1
  6
CONTINUOUS
 62
     3
 10
115.88852799999999
 20
309.94999999999999
 30
0.0
 11
107.35432900000001
 21
309.94999999999999
 31
0.0
  0
LINE
  5
2B8
  8
LAY-1
  6
CONTINUOUS
 62
     3
 10
100.88852799999999
 20
309.94999999999999
 30
0.0
 11
97.621429000000006
 21
309.94999999999999
 31
0.0
  0
ARC
  5
2B9
  8
LAY-1
  6
CONTINUOUS
 62
     3
 10
227.33138500000001
 20
359.44999999999999
 30
0.0
 40
0.5
 50
270.0
 51
329.55395800000002
  0
ARC
  5
2BA
  8
LAY-1
  6
CONTINUOUS
 62
     3
 10
230.56428600000001
 20
357.54977500000001
 30
0.0
 40
3.25
 50
30.446041999999998
 51
149.55395799999999
  0
ARC
  5
2BB
  8
LAY-1
  6
CONTINUOUS
 62
     3
 10
233.79718600000001
 20
359.44999999999999
 30
0.0
 40
0.5
 50
210.44604200000001
 51
270.0
  0
ARC
  5
2BC
  8
LAY-1
  6
CONTINUOUS
 62
     3
 10
233.79718600000001
 20
306.94999999999999
 30
0.0
 40
0.5
 50
90.0
 51
149.55395799999999
  0
ARC
  5
2BD
  8
LAY-1
  6
CONTINUOUS
 62
     3
 10
230.56428600000001
 20
308.85022500000002
 30
0.0
 40
3.25
 50
210.44604200000001
 51
329.55395800000002
  0
ARC
  5
2BE
  8
LAY-1
  6
CONTINUOUS
 62
     3
 10
227.33138500000001
 20
306.94999999999999
 30
0.0
 40
0.5
 50
30.446041999999998
 51
90.0
  0
LINE
  5
2BF
  8
LAY-1
  6
CONTINUOUS
 62
     3
 10
227.762439
 20
307.20336300000002
 30
0.0
 11
227.762439
 21
359.19663700000001
 31
0.0
  0
LINE
  5
2C0
  8
LAY-1
  6
CONTINUOUS
 62
     3
 10
233.43549300000001
 20
359.10477800000001
 30
0.0
 11
233.43549300000001
 21
307.20336300000002
 31
0.0
  0
LINE
  5
2C1
  8
LAY-1
  6
CONTINUOUS
 62
     3
 10
239.06428600000001
 20
364.19999999999999
 30
0.0
 11
236.86428599999999
 21
364.19999999999999
 31
0.0
  0
LINE
  5
2C2
  8
LAY-1
  6
CONTINUOUS
 62
     3
 10
239.06428600000001
 20
302.19999999999999
 30
0.0
 11
236.86428599999999
 21
302.19999999999999
 31
0.0
  0
LINE
  5
2C3
  8
LAY-1
  6
CONTINUOUS
 62
     3
 10
240.56428600000001
 20
359.94999999999999
 30
0.0
 11
239.06428600000001
 21
359.94999999999999
 31
0.0
  0
LINE
  5
2C4
  8
LAY-1
  6
CONTINUOUS
 62
     3
 10
240.56428600000001
 20
306.44999999999999
 30
0.0
 11
239.06428600000001
 21
306.44999999999999
 31
0.0
  0
LINE
  5
2C5
  8
LAY-1
  6
CONTINUOUS
 62
     3
 10
240.56428600000001
 20
359.94999999999999
 30
0.0
 11
240.56428600000001
 21
306.44999999999999
 31
0.0
  0
LINE
  5
2C6
  8
LAY-1
  6
CONTINUOUS
 62
     3
 10
239.06428600000001
 20
364.19999999999999
 30
0.0
 11
239.06428600000001
 21
302.19999999999999
 31
0.0
  0
LINE
  5
2C7
  8
LAY-1
  6
CONTINUOUS
 62
     3
 10
236.86428599999999
 20
364.19999999999999
 30
0.0
 11
236.86428599999999
 21
302.19999999999999
 31
0.0
  0
LINE
  5
2C8
  8
LAY-1
  6
CONTINUOUS
 62
     3
 10
233.79718600000001
 20
358.94999999999999
 30
0.0
 11
236.86428599999999
 21
358.94999999999999
 31
0.0
  0
LINE
  5
2C9
  8
LAY-1
  6
CONTINUOUS
 62
     3
 10
236.86428599999999
 20
307.44999999999999
 30
0.0
 11
233.79718600000001
 21
307.44999999999999
 31
0.0
  0
LINE
  5
2CA
  8
LAY-1
  6
CONTINUOUS
 62
     3
 10
207.06428600000001
 20
364.19999999999999
 30
0.0
 11
209.264286
 21
364.19999999999999
 31
0.0
  0
LINE
  5
2CB
  8
LAY-1
  6
CONTINUOUS
 62
     3
 10
207.06428600000001
 20
302.19999999999999
 30
0.0
 11
209.264286
 21
302.19999999999999
 31
0.0
  0
LINE
  5
2CC
  8
LAY-1
  6
CONTINUOUS
 62
     3
 10
205.56428600000001
 20
359.94999999999999
 30
0.0
 11
207.06428600000001
 21
359.94999999999999
 31
0.0
  0
LINE
  5
2CD
  8
LAY-1
  6
CONTINUOUS
 62
     3
 10
205.56428600000001
 20
306.44999999999999
 30
0.0
 11
207.06428600000001
 21
306.44999999999999
 31
0.0
  0
LINE
  5
2CE
  8
LAY-1
  6
CONTINUOUS
 62
     3
 10
205.56428600000001
 20
359.94999999999999
 30
0.0
 11
205.56428600000001
 21
306.44999999999999
 31
0.0
  0
LINE
  5
2CF
  8
LAY-1
  6
CONTINUOUS
 62
     3
 10
207.06428600000001
 20
364.19999999999999
 30
0.0
 11
207.06428600000001
 21
302.19999999999999
 31
0.0
  0
LINE
  5
2D0
  8
LAY-1
  6
CONTINUOUS
 62
     3
 10
209.264286
 20
364.19999999999999
 30
0.0
 11
209.264286
 21
302.19999999999999
 31
0.0
  0
LINE
  5
2D1
  8
LAY-1
  6
EXLTYPE3
 62
     1
 10
245.40000000000001
 20
333.19999999999999
 30
0.0
 11
200.09999999999999
 21
333.19999999999999
 31
0.0
  0
ARC
  5
2D2
  8
LAY-1
  6
CONTINUOUS
 62
     3
 10
212.33138500000001
 20
359.44999999999999
 30
0.0
 40
0.5
 50
270.0
 51
329.55395800000002
  0
ARC
  5
2D3
  8
LAY-1
  6
CONTINUOUS
 62
     3
 10
215.56428600000001
 20
357.54977500000001
 30
0.0
 40
3.25
 50
30.446041999999998
 51
149.55395799999999
  0
ARC
  5
2D4
  8
LAY-1
  6
CONTINUOUS
 62
     3
 10
218.79718600000001
 20
359.44999999999999
 30
0.0
 40
0.5
 50
210.44604200000001
 51
270.0
  0
ARC
  5
2D5
  8
LAY-1
  6
CONTINUOUS
 62
     3
 10
218.79718600000001
 20
306.94999999999999
 30
0.0
 40
0.5
 50
90.0
 51
149.55395799999999
  0
ARC
  5
2D6
  8
LAY-1
  6
CONTINUOUS
 62
     3
 10
215.56428600000001
 20
308.85022500000002
 30
0.0
 40
3.25
 50
210.44604200000001
 51
329.55395800000002
  0
ARC
  5
2D7
  8
LAY-1
  6
CONTINUOUS
 62
     3
 10
212.33138500000001
 20
306.94999999999999
 30
0.0
 40
0.5
 50
30.446041999999998
 51
90.0
  0
LINE
  5
2D8
  8
LAY-1
  6
CONTINUOUS
 62
     3
 10
212.762439
 20
307.20336300000002
 30
0.0
 11
212.762439
 21
359.19663700000001
 31
0.0
  0
LINE
  5
2D9
  8
LAY-1
  6
CONTINUOUS
 62
     3
 10
218.43549300000001
 20
359.10477800000001
 30
0.0
 11
218.43549300000001
 21
307.20336300000002
 31
0.0
  0
LINE
  5
2DA
  8
LAY-1
  6
CONTINUOUS
 62
     3
 10
209.264286
 20
358.94999999999999
 30
0.0
 11
212.33138500000001
 21
358.94999999999999
 31
0.0
  0
LINE
  5
2DB
  8
LAY-1
  6
CONTINUOUS
 62
     3
 10
218.79718600000001
 20
358.94999999999999
 30
0.0
 11
227.33138500000001
 21
358.94999999999999
 31
0.0
  0
LINE
  5
2DC
  8
LAY-1
  6
CONTINUOUS
 62
     3
 10
227.33138500000001
 20
307.44999999999999
 30
0.0
 11
218.79718600000001
 21
307.44999999999999
 31
0.0
  0
LINE
  5
2DD
  8
LAY-1
  6
CONTINUOUS
 62
     3
 10
212.33138500000001
 20
307.44999999999999
 30
0.0
 11
209.264286
 21
307.44999999999999
 31
0.0
  0
ARC
  5
2DE
  8
LAY-1
  6
CONTINUOUS
 62
     3
 10
323.77424300000001
 20
361.94999999999999
 30
0.0
 40
0.5
 50
270.0
 51
329.55395800000002
  0
ARC
  5
2DF
  8
LAY-1
  6
CONTINUOUS
 62
     3
 10
327.0071430000001
 20
360.04977500000001
 30
0.0
 40
3.25
 50
30.446041999999998
 51
149.55395799999999
  0
ARC
  5
2E0
  8
LAY-1
  6
CONTINUOUS
 62
     3
 10
330.24004300000001
 20
361.94999999999999
 30
0.0
 40
0.5
 50
210.44604200000001
 51
270.0
  0
ARC
  5
2E1
  8
LAY-1
  6
CONTINUOUS
 62
     3
 10
330.24004300000001
 20
304.44999999999999
 30
0.0
 40
0.5
 50
90.0
 51
149.55395799999999
  0
ARC
  5
2E2
  8
LAY-1
  6
CONTINUOUS
 62
     3
 10
327.0071430000001
 20
306.35022500000002
 30
0.0
 40
3.25
 50
210.44604200000001
 51
329.55395800000002
  0
ARC
  5
2E3
  8
LAY-1
  6
CONTINUOUS
 62
     3
 10
323.77424300000001
 20
304.44999999999999
 30
0.0
 40
0.5
 50
30.446041999999998
 51
90.0
  0
LINE
  5
2E4
  8
LAY-1
  6
CONTINUOUS
 62
     3
 10
324.20529599999998
 20
304.70336300000002
 30
0.0
 11
324.20529599999998
 21
361.69663700000001
 31
0.0
  0
LINE
  5
2E5
  8
LAY-1
  6
CONTINUOUS
 62
     3
 10
329.87835100000001
 20
361.60477800000001
 30
0.0
 11
329.87835100000001
 21
304.70336300000002
 31
0.0
  0
ARC
  5
2E6
  8
LAY-1
  6
CONTINUOUS
 62
     3
 10
338.77424300000001
 20
361.94999999999999
 30
0.0
 40
0.5
 50
270.0
 51
329.55395800000002
  0
ARC
  5
2E7
  8
LAY-1
  6
CONTINUOUS
 62
     3
 10
342.0071430000001
 20
360.04977500000001
 30
0.0
 40
3.25
 50
30.446041999999998
 51
149.55395799999999
  0
ARC
  5
2E8
  8
LAY-1
  6
CONTINUOUS
 62
     3
 10
345.24004300000001
 20
361.94999999999999
 30
0.0
 40
0.5
 50
210.44604200000001
 51
270.0
  0
ARC
  5
2E9
  8
LAY-1
  6
CONTINUOUS
 62
     3
 10
345.24004300000001
 20
304.44999999999999
 30
0.0
 40
0.5
 50
90.0
 51
149.55395799999999
  0
ARC
  5
2EA
  8
LAY-1
  6
CONTINUOUS
 62
     3
 10
342.0071430000001
 20
306.35022500000002
 30
0.0
 40
3.25
 50
210.44604200000001
 51
329.55395800000002
  0
ARC
  5
2EB
  8
LAY-1
  6
CONTINUOUS
 62
     3
 10
338.77424300000001
 20
304.44999999999999
 30
0.0
 40
0.5
 50
30.446041999999998
 51
90.0
  0
LINE
  5
2EC
  8
LAY-1
  6
CONTINUOUS
 62
     3
 10
339.20529599999998
 20
304.70336300000002
 30
0.0
 11
339.20529599999998
 21
361.69663700000001
 31
0.0
  0
LINE
  5
2ED
  8
LAY-1
  6
CONTINUOUS
 62
     3
 10
344.87835100000001
 20
361.60477800000001
 30
0.0
 11
344.87835100000001
 21
304.70336300000002
 31
0.0
  0
LINE
  5
2EE
  8
LAY-1
  6
CONTINUOUS
 62
     3
 10
330.24004300000001
 20
361.44999999999999
 30
0.0
 11
338.77424300000001
 21
361.44999999999999
 31
0.0
  0
LINE
  5
2EF
  8
LAY-1
  6
CONTINUOUS
 62
     3
 10
338.77424300000001
 20
304.94999999999999
 30
0.0
 11
330.24004300000001
 21
304.94999999999999
 31
0.0
  0
LINE
  5
2F0
  8
LAY-1
  6
CONTINUOUS
 62
     3
 10
461.5499999999999
 20
372.94999999999999
 30
0.0
 11
461.5499999999999
 21
293.44999999999999
 31
0.0
  0
LINE
  5
2F1
  8
LAY-1
  6
CONTINUOUS
 62
     3
 10
463.94999999999987
 20
372.94999999999999
 30
0.0
 11
463.94999999999987
 21
293.44999999999999
 31
0.0
  0
LINE
  5
2F2
  8
LAY-1
  6
CONTINUOUS
 62
     3
 10
465.94999999999999
 20
367.44999999999999
 30
0.0
 11
465.94999999999999
 21
298.94999999999999
 31
0.0
  0
LINE
  5
2F3
  8
LAY-1
  6
CONTINUOUS
 62
     3
 10
465.94999999999999
 20
298.94999999999999
 30
0.0
 11
463.94999999999987
 21
298.94999999999999
 31
0.0
  0
LINE
  5
2F4
  8
LAY-1
  6
CONTINUOUS
 62
     3
 10
465.94999999999999
 20
367.44999999999999
 30
0.0
 11
463.94999999999987
 21
367.44999999999999
 31
0.0
  0
LINE
  5
2F5
  8
LAY-1
  6
CONTINUOUS
 62
     3
 10
463.94999999999987
 20
372.94999999999999
 30
0.0
 11
461.5499999999999
 21
372.94999999999999
 31
0.0
  0
LINE
  5
2F6
  8
LAY-1
  6
CONTINUOUS
 62
     3
 10
463.94999999999987
 20
293.44999999999999
 30
0.0
 11
461.5499999999999
 21
293.44999999999999
 31
0.0
  0
LINE
  5
2F7
  8
LAY-1
  6
CONTINUOUS
 62
     3
 10
430.35000000000002
 20
372.94999999999999
 30
0.0
 11
430.35000000000002
 21
293.44999999999999
 31
0.0
  0
LINE
  5
2F8
  8
LAY-1
  6
CONTINUOUS
 62
     3
 10
427.94999999999987
 20
372.94999999999999
 30
0.0
 11
427.94999999999987
 21
293.44999999999999
 31
0.0
  0
LINE
  5
2F9
  8
LAY-1
  6
CONTINUOUS
 62
     3
 10
425.94999999999999
 20
367.44999999999999
 30
0.0
 11
425.94999999999999
 21
298.94999999999999
 31
0.0
  0
LINE
  5
2FA
  8
LAY-1
  6
CONTINUOUS
 62
     3
 10
425.94999999999999
 20
298.94999999999999
 30
0.0
 11
427.94999999999987
 21
298.94999999999999
 31
0.0
  0
LINE
  5
2FB
  8
LAY-1
  6
CONTINUOUS
 62
     3
 10
425.94999999999999
 20
367.44999999999999
 30
0.0
 11
427.94999999999987
 21
367.44999999999999
 31
0.0
  0
LINE
  5
2FC
  8
LAY-1
  6
CONTINUOUS
 62
     3
 10
427.94999999999987
 20
372.94999999999999
 30
0.0
 11
430.35000000000002
 21
372.94999999999999
 31
0.0
  0
LINE
  5
2FD
  8
LAY-1
  6
CONTINUOUS
 62
     3
 10
427.94999999999987
 20
293.44999999999999
 30
0.0
 11
430.35000000000002
 21
293.44999999999999
 31
0.0
  0
ARC
  5
2FE
  8
LAY-1
  6
CONTINUOUS
 62
     3
 10
450.21710000000002
 20
366.19999999999999
 30
0.0
 40
0.5
 50
270.0
 51
329.55395800000002
  0
ARC
  5
2FF
  8
LAY-1
  6
CONTINUOUS
 62
     3
 10
453.44999999999999
 20
364.29977500000001
 30
0.0
 40
3.25
 50
30.446041999999998
 51
149.55395799999999
  0
ARC
  5
300
  8
LAY-1
  6
CONTINUOUS
 62
     3
 10
456.68290000000002
 20
366.19999999999999
 30
0.0
 40
0.5
 50
210.44604200000001
 51
270.0
  0
ARC
  5
301
  8
LAY-1
  6
CONTINUOUS
 62
     3
 10
456.68290000000002
 20
300.19999999999999
 30
0.0
 40
0.5
 50
90.0
 51
149.55395799999999
  0
ARC
  5
302
  8
LAY-1
  6
CONTINUOUS
 62
     3
 10
453.44999999999999
 20
302.10022500000002
 30
0.0
 40
3.25
 50
210.44604200000001
 51
329.55395800000002
  0
ARC
  5
303
  8
LAY-1
  6
CONTINUOUS
 62
     3
 10
450.21710000000002
 20
300.19999999999999
 30
0.0
 40
0.5
 50
30.446041999999998
 51
90.0
  0
LINE
  5
304
  8
LAY-1
  6
CONTINUOUS
 62
     3
 10
450.51731799999988
 20
300.59983599999998
 30
0.0
 11
450.51731799999988
 21
365.800164
 31
0.0
  0
LINE
  5
305
  8
LAY-1
  6
CONTINUOUS
 62
     3
 10
456.25184699999988
 20
365.94663700000001
 30
0.0
 11
456.25184699999988
 21
300.45336300000002
 31
0.0
  0
LINE
  5
306
  8
LAY-1
  6
CONTINUOUS
 62
     3
 10
456.68290000000002
 20
365.69999999999999
 30
0.0
 11
461.5499999999999
 21
365.69999999999999
 31
0.0
  0
LINE
  5
307
  8
LAY-1
  6
CONTINUOUS
 62
     3
 10
461.5499999999999
 20
300.69999999999999
 30
0.0
 11
456.68290000000002
 21
300.69999999999999
 31
0.0
  0
LINE
  5
308
  8
LAY-1
  6
EXLTYPE3
 62
     1
 10
471.60000000000002
 20
333.19999999999999
 30
0.0
 11
420.89999999999992
 21
333.19999999999999
 31
0.0
  0
ARC
  5
309
  8
LAY-1
  6
CONTINUOUS
 62
     3
 10
435.21710000000002
 20
366.19999999999999
 30
0.0
 40
0.5
 50
270.0
 51
329.55395800000002
  0
ARC
  5
30A
  8
LAY-1
  6
CONTINUOUS
 62
     3
 10
438.44999999999999
 20
364.29977500000001
 30
0.0
 40
3.25
 50
30.446041999999998
 51
149.55395799999999
  0
ARC
  5
30B
  8
LAY-1
  6
CONTINUOUS
 62
     3
 10
441.6828999999999
 20
366.19999999999999
 30
0.0
 40
0.5
 50
210.44604200000001
 51
270.0
  0
ARC
  5
30C
  8
LAY-1
  6
CONTINUOUS
 62
     3
 10
441.6828999999999
 20
300.19999999999999
 30
0.0
 40
0.5
 50
90.0
 51
149.55395799999999
  0
ARC
  5
30D
  8
LAY-1
  6
CONTINUOUS
 62
     3
 10
438.44999999999999
 20
302.10022500000002
 30
0.0
 40
3.25
 50
210.44604200000001
 51
329.55395800000002
  0
ARC
  5
30E
  8
LAY-1
  6
CONTINUOUS
 62
     3
 10
435.21710000000002
 20
300.19999999999999
 30
0.0
 40
0.5
 50
30.446041999999998
 51
90.0
  0
LINE
  5
30F
  8
LAY-1
  6
CONTINUOUS
 62
     3
 10
435.51731799999999
 20
300.59983599999998
 30
0.0
 11
435.51731799999999
 21
365.800164
 31
0.0
  0
LINE
  5
310
  8
LAY-1
  6
CONTINUOUS
 62
     3
 10
441.251847
 20
365.94663700000001
 30
0.0
 11
441.251847
 21
300.45336300000002
 31
0.0
  0
LINE
  5
311
  8
LAY-1
  6
CONTINUOUS
 62
     3
 10
430.35000000000002
 20
365.69999999999999
 30
0.0
 11
435.21710000000002
 21
365.69999999999999
 31
0.0
  0
LINE
  5
312
  8
LAY-1
  6
CONTINUOUS
 62
     3
 10
441.6828999999999
 20
365.69999999999999
 30
0.0
 11
450.21710000000002
 21
365.69999999999999
 31
0.0
  0
LINE
  5
313
  8
LAY-1
  6
CONTINUOUS
 62
     3
 10
450.21710000000002
 20
300.69999999999999
 30
0.0
 11
441.6828999999999
 21
300.69999999999999
 31
0.0
  0
LINE
  5
314
  8
LAY-1
  6
CONTINUOUS
 62
     3
 10
435.21710000000002
 20
300.69999999999999
 30
0.0
 11
430.35000000000002
 21
300.69999999999999
 31
0.0
  0
LINE
  5
315
  8
LAY-1
  6
CONTINUOUS
 62
     3
 10
318.5071430000001
 20
366.94999999999999
 30
0.0
 11
320.70714299999997
 21
366.94999999999999
 31
0.0
  0
LINE
  5
316
  8
LAY-1
  6
CONTINUOUS
 62
     3
 10
318.5071430000001
 20
299.44999999999999
 30
0.0
 11
320.70714299999997
 21
299.44999999999999
 31
0.0
  0
LINE
  5
317
  8
LAY-1
  6
CONTINUOUS
 62
     3
 10
317.0071430000001
 20
362.44999999999999
 30
0.0
 11
318.5071430000001
 21
362.44999999999999
 31
0.0
  0
LINE
  5
318
  8
LAY-1
  6
CONTINUOUS
 62
     3
 10
317.0071430000001
 20
303.94999999999999
 30
0.0
 11
318.5071430000001
 21
303.94999999999999
 31
0.0
  0
LINE
  5
319
  8
LAY-1
  6
CONTINUOUS
 62
     3
 10
317.0071430000001
 20
362.44999999999999
 30
0.0
 11
317.0071430000001
 21
303.94999999999999
 31
0.0
  0
LINE
  5
31A
  8
LAY-1
  6
CONTINUOUS
 62
     3
 10
318.5071430000001
 20
366.94999999999999
 30
0.0
 11
318.5071430000001
 21
299.44999999999999
 31
0.0
  0
LINE
  5
31B
  8
LAY-1
  6
CONTINUOUS
 62
     3
 10
320.70714299999997
 20
366.94999999999999
 30
0.0
 11
320.70714299999997
 21
299.44999999999999
 31
0.0
  0
LINE
  5
31C
  8
LAY-1
  6
CONTINUOUS
 62
     3
 10
323.77424300000001
 20
304.94999999999999
 30
0.0
 11
320.70714299999997
 21
304.94999999999999
 31
0.0
  0
LINE
  5
31D
  8
LAY-1
  6
CONTINUOUS
 62
     3
 10
320.70714299999997
 20
361.44999999999999
 30
0.0
 11
323.77424300000001
 21
361.44999999999999
 31
0.0
  0
LINE
  5
31E
  8
LAY-1
  6
CONTINUOUS
 62
     3
 10
350.50714299999999
 20
366.94999999999999
 30
0.0
 11
348.307143
 21
366.94999999999999
 31
0.0
  0
LINE
  5
31F
  8
LAY-1
  6
CONTINUOUS
 62
     3
 10
350.50714299999999
 20
299.44999999999999
 30
0.0
 11
348.307143
 21
299.44999999999999
 31
0.0
  0
LINE
  5
320
  8
LAY-1
  6
CONTINUOUS
 62
     3
 10
352.0071430000001
 20
362.44999999999999
 30
0.0
 11
350.50714299999999
 21
362.44999999999999
 31
0.0
  0
LINE
  5
321
  8
LAY-1
  6
CONTINUOUS
 62
     3
 10
352.0071430000001
 20
303.94999999999999
 30
0.0
 11
350.50714299999999
 21
303.94999999999999
 31
0.0
  0
LINE
  5
322
  8
LAY-1
  6
CONTINUOUS
 62
     3
 10
352.0071430000001
 20
362.44999999999999
 30
0.0
 11
352.0071430000001
 21
303.94999999999999
 31
0.0
  0
LINE
  5
323
  8
LAY-1
  6
CONTINUOUS
 62
     3
 10
350.50714299999999
 20
366.94999999999999
 30
0.0
 11
350.50714299999999
 21
299.44999999999999
 31
0.0
  0
LINE
  5
324
  8
LAY-1
  6
CONTINUOUS
 62
     3
 10
348.307143
 20
366.94999999999999
 30
0.0
 11
348.307143
 21
299.44999999999999
 31
0.0
  0
LINE
  5
325
  8
LAY-1
  6
CONTINUOUS
 62
     3
 10
348.307143
 20
304.94999999999999
 30
0.0
 11
345.24004300000001
 21
304.94999999999999
 31
0.0
  0
LINE
  5
326
  8
LAY-1
  6
CONTINUOUS
 62
     3
 10
345.24004300000001
 20
361.44999999999999
 30
0.0
 11
348.307143
 21
361.44999999999999
 31
0.0
  0
LINE
  5
327
  8
LAY-1
  6
EXLTYPE3
 62
     1
 10
356.60000000000002
 20
333.19999999999999
 30
0.0
 11
312.80000000000001
 21
333.19999999999999
 31
0.0
  0
LINE
  5
328
  8
LAY-1
  6
CONTINUOUS
 62
     3
 10
539.39285700000005
 20
287.94999999999999
 30
0.0
 11
541.79285699999991
 21
287.94999999999999
 31
0.0
  0
LINE
  5
329
  8
LAY-1
  6
CONTINUOUS
 62
     3
 10
539.39285700000005
 20
378.44999999999999
 30
0.0
 11
541.79285699999991
 21
378.44999999999999
 31
0.0
  0
ARC
  5
32A
  8
LAY-1
  6
CONTINUOUS
 62
     3
 10
554.05277999999987
 20
372.14999999999998
 30
0.0
 40
0.7
 50
223.129446
 51
270.0
  0
ARC
  5
32B
  8
LAY-1
  6
CONTINUOUS
 62
     3
 10
549.89285700000005
 20
368.25320099999999
 30
0.0
 40
5.0
 50
43.129446000000002
 51
136.870554
  0
ARC
  5
32C
  8
LAY-1
  6
CONTINUOUS
 62
     3
 10
545.732934
 20
372.14999999999998
 30
0.0
 40
0.7
 50
270.0
 51
316.87055400000003
  0
LINE
  5
32D
  8
LAY-1
  6
CONTINUOUS
 62
     3
 10
537.39285700000005
 20
372.44999999999999
 30
0.0
 11
539.39285700000005
 21
372.44999999999999
 31
0.0
  0
LINE
  5
32E
  8
LAY-1
  6
CONTINUOUS
 62
     3
 10
541.79285699999991
 20
371.44999999999999
 30
0.0
 11
545.732934
 21
371.44999999999999
 31
0.0
  0
ARC
  5
32F
  8
LAY-1
  6
CONTINUOUS
 62
     3
 10
545.732934
 20
294.25
 30
0.0
 40
0.7
 50
43.129446000000002
 51
90.0
  0
ARC
  5
330
  8
LAY-1
  6
CONTINUOUS
 62
     3
 10
549.89285700000005
 20
298.14679899999999
 30
0.0
 40
5.0
 50
223.129446
 51
316.87055400000003
  0
ARC
  5
331
  8
LAY-1
  6
CONTINUOUS
 62
     3
 10
554.05277999999987
 20
294.25
 30
0.0
 40
0.7
 50
90.0
 51
136.870554
  0
LINE
  5
332
  8
LAY-1
  6
CONTINUOUS
 62
     3
 10
537.39285700000005
 20
293.94999999999999
 30
0.0
 11
539.39285700000005
 21
293.94999999999999
 31
0.0
  0
LINE
  5
333
  8
LAY-1
  6
CONTINUOUS
 62
     3
 10
545.732934
 20
294.94999999999999
 30
0.0
 11
541.79285699999991
 21
294.94999999999999
 31
0.0
  0
LINE
  5
334
  8
LAY-1
  6
CONTINUOUS
 62
     3
 10
537.39285700000005
 20
372.44999999999999
 30
0.0
 11
537.39285700000005
 21
293.94999999999999
 31
0.0
  0
LINE
  5
335
  8
LAY-1
  6
CONTINUOUS
 62
     3
 10
553.54191200000002
 20
294.72855399999997
 30
0.0
 11
553.54191200000002
 21
371.671446
 31
0.0
  0
LINE
  5
336
  8
LAY-1
  6
CONTINUOUS
 62
     3
 10
546.24380199999985
 20
371.671446
 30
0.0
 11
546.24380199999985
 21
294.72855399999997
 31
0.0
  0
LINE
  5
337
  8
LAY-1
  6
CONTINUOUS
 62
     3
 10
539.39285700000005
 20
378.44999999999999
 30
0.0
 11
539.39285700000005
 21
287.94999999999999
 31
0.0
  0
LINE
  5
338
  8
LAY-1
  6
CONTINUOUS
 62
     3
 10
541.79285699999991
 20
378.44999999999999
 30
0.0
 11
541.79285699999991
 21
287.94999999999999
 31
0.0
  0
LINE
  5
339
  8
LAY-1
  6
CONTINUOUS
 62
     3
 10
572.99285700000007
 20
287.94999999999999
 30
0.0
 11
575.39285700000005
 21
287.94999999999999
 31
0.0
  0
LINE
  5
33A
  8
LAY-1
  6
CONTINUOUS
 62
     3
 10
575.39285700000005
 20
378.44999999999999
 30
0.0
 11
572.99285700000007
 21
378.44999999999999
 31
0.0
  0
LINE
  5
33B
  8
LAY-1
  6
CONTINUOUS
 62
     3
 10
575.39285700000005
 20
372.44999999999999
 30
0.0
 11
577.39285700000005
 21
372.44999999999999
 31
0.0
  0
LINE
  5
33C
  8
LAY-1
  6
CONTINUOUS
 62
     3
 10
575.39285700000005
 20
293.94999999999999
 30
0.0
 11
577.39285700000005
 21
293.94999999999999
 31
0.0
  0
LINE
  5
33D
  8
LAY-1
  6
CONTINUOUS
 62
     3
 10
577.39285700000005
 20
372.44999999999999
 30
0.0
 11
577.39285700000005
 21
293.94999999999999
 31
0.0
  0
LINE
  5
33E
  8
LAY-1
  6
CONTINUOUS
 62
     3
 10
575.39285700000005
 20
378.44999999999999
 30
0.0
 11
575.39285700000005
 21
287.94999999999999
 31
0.0
  0
LINE
  5
33F
  8
LAY-1
  6
CONTINUOUS
 62
     3
 10
572.99285700000007
 20
378.44999999999999
 30
0.0
 11
572.99285700000007
 21
287.94999999999999
 31
0.0
  0
LINE
  5
340
  8
LAY-1
  6
EXLTYPE3
 62
     1
 10
533.81334100000004
 20
333.19999999999999
 30
0.0
 11
580.91334099999995
 21
333.19999999999999
 31
0.0
  0
ARC
  5
341
  8
LAY-1
  6
CONTINUOUS
 62
     3
 10
569.05277999999987
 20
372.14999999999998
 30
0.0
 40
0.7
 50
223.129446
 51
270.0
  0
ARC
  5
342
  8
LAY-1
  6
CONTINUOUS
 62
     3
 10
564.89285700000005
 20
368.25320099999999
 30
0.0
 40
5.0
 50
43.129446000000002
 51
136.870554
  0
ARC
  5
343
  8
LAY-1
  6
CONTINUOUS
 62
     3
 10
560.73293399999989
 20
372.14999999999998
 30
0.0
 40
0.7
 50
270.0
 51
316.87055400000003
  0
ARC
  5
344
  8
LAY-1
  6
CONTINUOUS
 62
     3
 10
560.73293399999989
 20
294.25
 30
0.0
 40
0.7
 50
43.129446000000002
 51
90.0
  0
ARC
  5
345
  8
LAY-1
  6
CONTINUOUS
 62
     3
 10
564.89285700000005
 20
298.14679899999999
 30
0.0
 40
5.0
 50
223.129446
 51
316.87055400000003
  0
ARC
  5
346
  8
LAY-1
  6
CONTINUOUS
 62
     3
 10
569.05277999999987
 20
294.25
 30
0.0
 40
0.7
 50
90.0
 51
136.870554
  0
LINE
  5
347
  8
LAY-1
  6
CONTINUOUS
 62
     3
 10
568.54191200000002
 20
294.72855399999997
 30
0.0
 11
568.54191200000002
 21
371.671446
 31
0.0
  0
LINE
  5
348
  8
LAY-1
  6
CONTINUOUS
 62
     3
 10
561.24380199999985
 20
371.671446
 30
0.0
 11
561.24380199999985
 21
294.72855399999997
 31
0.0
  0
LINE
  5
349
  8
LAY-1
  6
CONTINUOUS
 62
     3
 10
554.05277999999987
 20
371.44999999999999
 30
0.0
 11
560.73293399999989
 21
371.44999999999999
 31
0.0
  0
LINE
  5
34A
  8
LAY-1
  6
CONTINUOUS
 62
     3
 10
569.05277999999987
 20
371.44999999999999
 30
0.0
 11
572.99285700000007
 21
371.44999999999999
 31
0.0
  0
LINE
  5
34B
  8
LAY-1
  6
CONTINUOUS
 62
     3
 10
572.99285700000007
 20
294.94999999999999
 30
0.0
 11
569.05277999999987
 21
294.94999999999999
 31
0.0
  0
LINE
  5
34C
  8
LAY-1
  6
CONTINUOUS
 62
     3
 10
560.73293399999989
 20
294.94999999999999
 30
0.0
 11
554.05277999999987
 21
294.94999999999999
 31
0.0
  0
ARC
  5
34D
  8
LAY-1
  6
CONTINUOUS
 62
     3
 10
661.33571399999994
 20
373.90938799999998
 30
0.0
 40
4.593812999999999
 50
41.252282000000001
 51
138.74771799999999
  0
ARC
  5
34E
  8
LAY-1
  6
CONTINUOUS
 62
     3
 10
657.35575400000005
 20
377.39999999999998
 30
0.0
 40
0.7
 50
270.0
 51
318.74771800000002
  0
ARC
  5
34F
  8
LAY-1
  6
CONTINUOUS
 62
     3
 10
665.31567500000006
 20
377.39999999999998
 30
0.0
 40
0.7
 50
221.25228200000001
 51
270.0
  0
ARC
  5
350
  8
LAY-1
  6
CONTINUOUS
 62
     3
 10
665.31567500000006
 20
289.0
 30
0.0
 40
0.7
 50
90.0
 51
138.74771799999999
  0
ARC
  5
351
  8
LAY-1
  6
CONTINUOUS
 62
     3
 10
661.33571399999994
 20
292.490612
 30
0.0
 40
4.593812999999999
 50
221.25228200000001
 51
318.74771800000002
  0
ARC
  5
352
  8
LAY-1
  6
CONTINUOUS
 62
     3
 10
657.35575400000005
 20
289.0
 30
0.0
 40
0.7
 50
41.252282000000001
 51
90.0
  0
LINE
  5
353
  8
LAY-1
  6
CONTINUOUS
 62
     3
 10
657.88202299999989
 20
376.93843700000002
 30
0.0
 11
657.88202299999989
 21
289.46156300000001
 31
0.0
  0
LINE
  5
354
  8
LAY-1
  6
CONTINUOUS
 62
     3
 10
664.78940499999987
 20
376.93843700000002
 30
0.0
 11
664.78940499999987
 21
289.46156300000001
 31
0.0
  0
ARC
  5
355
  8
LAY-1
  6
CONTINUOUS
 62
     3
 10
676.33571399999994
 20
373.90938799999998
 30
0.0
 40
4.593812999999999
 50
41.252282000000001
 51
138.74771799999999
  0
ARC
  5
356
  8
LAY-1
  6
CONTINUOUS
 62
     3
 10
672.35575400000005
 20
377.39999999999998
 30
0.0
 40
0.7
 50
270.0
 51
318.74771800000002
  0
ARC
  5
357
  8
LAY-1
  6
CONTINUOUS
 62
     3
 10
680.31567500000006
 20
377.39999999999998
 30
0.0
 40
0.7
 50
221.25228200000001
 51
270.0
  0
ARC
  5
358
  8
LAY-1
  6
CONTINUOUS
 62
     3
 10
680.31567500000006
 20
289.0
 30
0.0
 40
0.7
 50
90.0
 51
138.74771799999999
  0
ARC
  5
359
  8
LAY-1
  6
CONTINUOUS
 62
     3
 10
676.33571399999994
 20
292.490612
 30
0.0
 40
4.593812999999999
 50
221.25228200000001
 51
318.74771800000002
  0
ARC
  5
35A
  8
LAY-1
  6
CONTINUOUS
 62
     3
 10
672.35575400000005
 20
289.0
 30
0.0
 40
0.7
 50
41.252282000000001
 51
90.0
  0
LINE
  5
35B
  8
LAY-1
  6
CONTINUOUS
 62
     3
 10
672.882023
 20
376.93843700000002
 30
0.0
 11
672.882023
 21
289.46156300000001
 31
0.0
  0
LINE
  5
35C
  8
LAY-1
  6
CONTINUOUS
 62
     3
 10
679.78940499999999
 20
376.93843700000002
 30
0.0
 11
679.78940499999999
 21
289.46156300000001
 31
0.0
  0
LINE
  5
35D
  8
LAY-1
  6
CONTINUOUS
 62
     3
 10
665.31567500000006
 20
376.69999999999999
 30
0.0
 11
672.35575400000005
 21
376.69999999999999
 31
0.0
  0
LINE
  5
35E
  8
LAY-1
  6
CONTINUOUS
 62
     3
 10
672.35575400000005
 20
289.69999999999999
 30
0.0
 11
665.31567500000006
 21
289.69999999999999
 31
0.0
  0
LINE
  5
35F
  8
LAY-1
  6
CONTINUOUS
 62
     3
 10
650.83571399999994
 20
384.19999999999999
 30
0.0
 11
653.43571399999996
 21
384.19999999999999
 31
0.0
  0
LINE
  5
360
  8
LAY-1
  6
CONTINUOUS
 62
     3
 10
650.83571399999994
 20
282.19999999999999
 30
0.0
 11
653.43571399999996
 21
282.19999999999999
 31
0.0
  0
LINE
  5
361
  8
LAY-1
  6
CONTINUOUS
 62
     3
 10
648.83571399999994
 20
377.69999999999999
 30
0.0
 11
650.83571399999994
 21
377.69999999999999
 31
0.0
  0
LINE
  5
362
  8
LAY-1
  6
CONTINUOUS
 62
     3
 10
653.43571399999996
 20
376.69999999999999
 30
0.0
 11
657.35575400000005
 21
376.69999999999999
 31
0.0
  0
LINE
  5
363
  8
LAY-1
  6
CONTINUOUS
 62
     3
 10
648.83571399999994
 20
288.69999999999999
 30
0.0
 11
650.83571399999994
 21
288.69999999999999
 31
0.0
  0
LINE
  5
364
  8
LAY-1
  6
CONTINUOUS
 62
     3
 10
657.35575400000005
 20
289.69999999999999
 30
0.0
 11
653.43571399999996
 21
289.69999999999999
 31
0.0
  0
LINE
  5
365
  8
LAY-1
  6
CONTINUOUS
 62
     3
 10
648.83571399999994
 20
377.69999999999999
 30
0.0
 11
648.83571399999994
 21
288.69999999999999
 31
0.0
  0
LINE
  5
366
  8
LAY-1
  6
CONTINUOUS
 62
     3
 10
650.83571399999994
 20
384.19999999999999
 30
0.0
 11
650.83571399999994
 21
282.19999999999999
 31
0.0
  0
LINE
  5
367
  8
LAY-1
  6
CONTINUOUS
 62
     3
 10
653.43571399999996
 20
384.19999999999999
 30
0.0
 11
653.43571399999996
 21
282.19999999999999
 31
0.0
  0
LINE
  5
368
  8
LAY-1
  6
CONTINUOUS
 62
     3
 10
686.83571399999994
 20
384.19999999999999
 30
0.0
 11
684.2357139999998
 21
384.19999999999999
 31
0.0
  0
LINE
  5
369
  8
LAY-1
  6
CONTINUOUS
 62
     3
 10
684.2357139999998
 20
282.19999999999999
 30
0.0
 11
686.83571399999994
 21
282.19999999999999
 31
0.0
  0
LINE
  5
36A
  8
LAY-1
  6
CONTINUOUS
 62
     3
 10
686.83571399999994
 20
377.69999999999999
 30
0.0
 11
688.83571399999994
 21
377.69999999999999
 31
0.0
  0
LINE
  5
36B
  8
LAY-1
  6
CONTINUOUS
 62
     3
 10
686.83571399999994
 20
288.69999999999999
 30
0.0
 11
688.83571399999994
 21
288.69999999999999
 31
0.0
  0
LINE
  5
36C
  8
LAY-1
  6
CONTINUOUS
 62
     3
 10
688.83571399999994
 20
377.69999999999999
 30
0.0
 11
688.83571399999994
 21
288.69999999999999
 31
0.0
  0
LINE
  5
36D
  8
LAY-1
  6
CONTINUOUS
 62
     3
 10
686.83571399999994
 20
384.19999999999999
 30
0.0
 11
686.83571399999994
 21
282.19999999999999
 31
0.0
  0
LINE
  5
36E
  8
LAY-1
  6
CONTINUOUS
 62
     3
 10
684.2357139999998
 20
384.19999999999999
 30
0.0
 11
684.2357139999998
 21
282.19999999999999
 31
0.0
  0
LINE
  5
36F
  8
LAY-1
  6
CONTINUOUS
 62
     3
 10
680.31567500000006
 20
376.69999999999999
 30
0.0
 11
684.2357139999998
 21
376.69999999999999
 31
0.0
  0
LINE
  5
370
  8
LAY-1
  6
CONTINUOUS
 62
     3
 10
684.2357139999998
 20
289.69999999999999
 30
0.0
 11
680.31567500000006
 21
289.69999999999999
 31
0.0
  0
LINE
  5
371
  8
LAY-1
  6
EXLTYPE3
 62
     1
 10
645.54417999999998
 20
333.19999999999999
 30
0.0
 11
692.64418000000001
 21
333.19999999999999
 31
0.0
  0
LINE
  5
372
  8
LAY-1
  6
CONTINUOUS
 62
     3
 10
798.07857100000001
 20
389.19999999999999
 30
0.0
 11
795.47857099999999
 21
389.19999999999999
 31
0.0
  0
LINE
  5
373
  8
LAY-1
  6
CONTINUOUS
 62
     3
 10
795.47857099999999
 20
277.19999999999999
 30
0.0
 11
798.07857100000001
 21
277.19999999999999
 31
0.0
  0
LINE
  5
374
  8
LAY-1
  6
CONTINUOUS
 62
     3
 10
798.07857100000001
 20
382.69999999999999
 30
0.0
 11
800.27857099999994
 21
382.69999999999999
 31
0.0
  0
LINE
  5
375
  8
LAY-1
  6
CONTINUOUS
 62
     3
 10
798.07857100000001
 20
283.69999999999999
 30
0.0
 11
800.27857099999994
 21
283.69999999999999
 31
0.0
  0
LINE
  5
376
  8
LAY-1
  6
CONTINUOUS
 62
     3
 10
800.27857099999994
 20
382.69999999999999
 30
0.0
 11
800.27857099999994
 21
283.69999999999999
 31
0.0
  0
LINE
  5
377
  8
LAY-1
  6
CONTINUOUS
 62
     3
 10
798.07857100000001
 20
389.19999999999999
 30
0.0
 11
798.07857100000001
 21
277.19999999999999
 31
0.0
  0
LINE
  5
378
  8
LAY-1
  6
CONTINUOUS
 62
     3
 10
795.47857099999999
 20
389.19999999999999
 30
0.0
 11
795.47857099999999
 21
277.19999999999999
 31
0.0
  0
LINE
  5
379
  8
LAY-1
  6
CONTINUOUS
 62
     3
 10
762.47857099999999
 20
389.19999999999999
 30
0.0
 11
765.07857100000001
 21
389.19999999999999
 31
0.0
  0
LINE
  5
37A
  8
LAY-1
  6
CONTINUOUS
 62
     3
 10
762.47857099999999
 20
277.19999999999999
 30
0.0
 11
765.07857100000001
 21
277.19999999999999
 31
0.0
  0
LINE
  5
37B
  8
LAY-1
  6
CONTINUOUS
 62
     3
 10
760.27857099999994
 20
382.69999999999999
 30
0.0
 11
762.47857099999999
 21
382.69999999999999
 31
0.0
  0
LINE
  5
37C
  8
LAY-1
  6
CONTINUOUS
 62
     3
 10
760.27857099999994
 20
283.69999999999999
 30
0.0
 11
762.47857099999999
 21
283.69999999999999
 31
0.0
  0
LINE
  5
37D
  8
LAY-1
  6
CONTINUOUS
 62
     3
 10
760.27857099999994
 20
382.69999999999999
 30
0.0
 11
760.27857099999994
 21
283.69999999999999
 31
0.0
  0
LINE
  5
37E
  8
LAY-1
  6
CONTINUOUS
 62
     3
 10
762.47857099999999
 20
389.19999999999999
 30
0.0
 11
762.47857099999999
 21
277.19999999999999
 31
0.0
  0
LINE
  5
37F
  8
LAY-1
  6
CONTINUOUS
 62
     3
 10
765.07857100000001
 20
389.19999999999999
 30
0.0
 11
765.07857100000001
 21
277.19999999999999
 31
0.0
  0
ARC
  5
380
  8
LAY-1
  6
CONTINUOUS
 62
     3
 10
768.79861100000005
 20
382.39999999999998
 30
0.0
 40
0.7
 50
270.0
 51
318.74771800000002
  0
ARC
  5
381
  8
LAY-1
  6
CONTINUOUS
 62
     3
 10
772.77857100000006
 20
378.90938799999998
 30
0.0
 40
4.593812999999999
 50
41.252282000000001
 51
138.74771799999999
  0
ARC
  5
382
  8
LAY-1
  6
CONTINUOUS
 62
     3
 10
776.75853200000006
 20
382.39999999999998
 30
0.0
 40
0.7
 50
221.25228200000001
 51
270.0
  0
LINE
  5
383
  8
LAY-1
  6
CONTINUOUS
 62
     3
 10
765.07857100000001
 20
381.69999999999999
 30
0.0
 11
768.79861100000005
 21
381.69999999999999
 31
0.0
  0
ARC
  5
384
  8
LAY-1
  6
CONTINUOUS
 62
     3
 10
776.75853200000006
 20
284.0
 30
0.0
 40
0.7
 50
90.0
 51
138.74771799999999
  0
ARC
  5
385
  8
LAY-1
  6
CONTINUOUS
 62
     3
 10
772.77857100000006
 20
287.490612
 30
0.0
 40
4.593812999999999
 50
221.25228200000001
 51
318.74771800000002
  0
ARC
  5
386
  8
LAY-1
  6
CONTINUOUS
 62
     3
 10
768.79861100000005
 20
284.0
 30
0.0
 40
0.7
 50
41.252282000000001
 51
90.0
  0
LINE
  5
387
  8
LAY-1
  6
CONTINUOUS
 62
     3
 10
768.79861100000005
 20
284.69999999999999
 30
0.0
 11
765.07857100000001
 21
284.69999999999999
 31
0.0
  0
LINE
  5
388
  8
LAY-1
  6
CONTINUOUS
 62
     3
 10
776.23226199999988
 20
381.93843700000002
 30
0.0
 11
776.23226199999988
 21
284.46156300000001
 31
0.0
  0
LINE
  5
389
  8
LAY-1
  6
CONTINUOUS
 62
     3
 10
769.324881
 20
381.93843700000002
 30
0.0
 11
769.324881
 21
284.46156300000001
 31
0.0
  0
LINE
  5
38A
  8
LAY-1
  6
EXLTYPE3
 62
     1
 10
756.70369100000005
 20
333.19999999999999
 30
0.0
 11
805.503691
 21
333.19999999999999
 31
0.0
  0
ARC
  5
38B
  8
LAY-1
  6
CONTINUOUS
 62
     3
 10
783.79861100000005
 20
382.39999999999998
 30
0.0
 40
0.7
 50
270.0
 51
318.74771800000002
  0
ARC
  5
38C
  8
LAY-1
  6
CONTINUOUS
 62
     3
 10
787.77857099999994
 20
378.90938799999998
 30
0.0
 40
4.593812999999999
 50
41.252282000000001
 51
138.74771799999999
  0
ARC
  5
38D
  8
LAY-1
  6
CONTINUOUS
 62
     3
 10
791.75853199999995
 20
382.39999999999998
 30
0.0
 40
0.7
 50
221.25228200000001
 51
270.0
  0
ARC
  5
38E
  8
LAY-1
  6
CONTINUOUS
 62
     3
 10
791.75853199999995
 20
284.0
 30
0.0
 40
0.7
 50
90.0
 51
138.74771799999999
  0
ARC
  5
38F
  8
LAY-1
  6
CONTINUOUS
 62
     3
 10
787.77857099999994
 20
287.490612
 30
0.0
 40
4.593812999999999
 50
221.25228200000001
 51
318.74771800000002
  0
ARC
  5
390
  8
LAY-1
  6
CONTINUOUS
 62
     3
 10
783.79861100000005
 20
284.0
 30
0.0
 40
0.7
 50
41.252282000000001
 51
90.0
  0
LINE
  5
391
  8
LAY-1
  6
CONTINUOUS
 62
     3
 10
791.23226199999999
 20
381.93843700000002
 30
0.0
 11
791.23226199999999
 21
284.46156300000001
 31
0.0
  0
LINE
  5
392
  8
LAY-1
  6
CONTINUOUS
 62
     3
 10
784.324881
 20
381.93843700000002
 30
0.0
 11
784.324881
 21
284.46156300000001
 31
0.0
  0
LINE
  5
393
  8
LAY-1
  6
CONTINUOUS
 62
     3
 10
776.75853200000006
 20
381.69999999999999
 30
0.0
 11
783.79861100000005
 21
381.69999999999999
 31
0.0
  0
LINE
  5
394
  8
LAY-1
  6
CONTINUOUS
 62
     3
 10
791.75853199999995
 20
381.69999999999999
 30
0.0
 11
795.47857099999999
 21
381.69999999999999
 31
0.0
  0
LINE
  5
395
  8
LAY-1
  6
CONTINUOUS
 62
     3
 10
795.47857099999999
 20
284.69999999999999
 30
0.0
 11
791.75853199999995
 21
284.69999999999999
 31
0.0
  0
LINE
  5
396
  8
LAY-1
  6
CONTINUOUS
 62
     3
 10
783.79861100000005
 20
284.69999999999999
 30
0.0
 11
776.75853200000006
 21
284.69999999999999
 31
0.0
  0
LINE
  5
397
  8
LAY-1
  6
CONTINUOUS
 62
     3
 10
91.321429000000009
 20
98.950000000000017
 30
0.0
 11
93.521428999999998
 21
98.950000000000017
 31
0.0
  0
LINE
  5
398
  8
LAY-1
  6
CONTINUOUS
 62
     3
 10
91.321429000000009
 20
222.44999999999999
 30
0.0
 11
93.521428999999998
 21
222.44999999999999
 31
0.0
  0
LINE
  5
399
  8
LAY-1
  6
CONTINUOUS
 62
     3
 10
89.121429000000006
 20
215.69999999999999
 30
0.0
 11
91.321429000000009
 21
215.69999999999999
 31
0.0
  0
LINE
  5
39A
  8
LAY-1
  6
CONTINUOUS
 62
     3
 10
89.121429000000006
 20
105.7
 30
0.0
 11
91.321429000000009
 21
105.7
 31
0.0
  0
LINE
  5
39B
  8
LAY-1
  6
CONTINUOUS
 62
     3
 10
89.121429000000006
 20
215.69999999999999
 30
0.0
 11
89.121429000000006
 21
105.7
 31
0.0
  0
LINE
  5
39C
  8
LAY-1
  6
CONTINUOUS
 62
     3
 10
91.321429000000009
 20
222.44999999999999
 30
0.0
 11
91.321429000000009
 21
98.950000000000017
 31
0.0
  0
LINE
  5
39D
  8
LAY-1
  6
CONTINUOUS
 62
     3
 10
93.521428999999998
 20
222.44999999999999
 30
0.0
 11
93.521428999999998
 21
98.950000000000017
 31
0.0
  0
LINE
  5
39E
  8
LAY-1
  6
CONTINUOUS
 62
     3
 10
129.721429
 20
98.950000000000017
 30
0.0
 11
131.92142899999999
 21
98.950000000000017
 31
0.0
  0
LINE
  5
39F
  8
LAY-1
  6
CONTINUOUS
 62
     3
 10
131.92142899999999
 20
222.44999999999999
 30
0.0
 11
129.721429
 21
222.44999999999999
 31
0.0
  0
LINE
  5
3A0
  8
LAY-1
  6
CONTINUOUS
 62
     3
 10
131.92142899999999
 20
215.69999999999999
 30
0.0
 11
134.12142900000001
 21
215.69999999999999
 31
0.0
  0
LINE
  5
3A1
  8
LAY-1
  6
CONTINUOUS
 62
     3
 10
131.92142899999999
 20
105.7
 30
0.0
 11
134.12142900000001
 21
105.7
 31
0.0
  0
LINE
  5
3A2
  8
LAY-1
  6
CONTINUOUS
 62
     3
 10
134.12142900000001
 20
215.69999999999999
 30
0.0
 11
134.12142900000001
 21
105.7
 31
0.0
  0
LINE
  5
3A3
  8
LAY-1
  6
CONTINUOUS
 62
     3
 10
131.92142899999999
 20
222.44999999999999
 30
0.0
 11
131.92142899999999
 21
98.950000000000017
 31
0.0
  0
LINE
  5
3A4
  8
LAY-1
  6
CONTINUOUS
 62
     3
 10
129.721429
 20
222.44999999999999
 30
0.0
 11
129.721429
 21
98.950000000000017
 31
0.0
  0
ARC
  5
3A5
  8
LAY-1
  6
CONTINUOUS
 62
     3
 10
100.141468
 20
215.40000000000001
 30
0.0
 40
0.7
 50
270.0
 51
318.74771800000002
  0
ARC
  5
3A6
  8
LAY-1
  6
CONTINUOUS
 62
     3
 10
104.12142900000001
 20
211.90938800000001
 30
0.0
 40
4.593812999999999
 50
41.252282000000001
 51
138.74771799999999
  0
ARC
  5
3A7
  8
LAY-1
  6
CONTINUOUS
 62
     3
 10
108.101389
 20
215.40000000000001
 30
0.0
 40
0.7
 50
221.25228200000001
 51
270.0
  0
LINE
  5
3A8
  8
LAY-1
  6
CONTINUOUS
 62
     3
 10
93.521428999999998
 20
214.69999999999999
 30
0.0
 11
100.141468
 21
214.69999999999999
 31
0.0
  0
ARC
  5
3A9
  8
LAY-1
  6
CONTINUOUS
 62
     3
 10
108.101389
 20
106.0
 30
0.0
 40
0.7
 50
90.0
 51
138.74771799999999
  0
ARC
  5
3AA
  8
LAY-1
  6
CONTINUOUS
 62
     3
 10
104.12142900000001
 20
109.490612
 30
0.0
 40
4.593812999999999
 50
221.25228200000001
 51
318.74771800000002
  0
ARC
  5
3AB
  8
LAY-1
  6
CONTINUOUS
 62
     3
 10
100.141468
 20
106.0
 30
0.0
 40
0.7
 50
41.252282000000001
 51
90.0
  0
LINE
  5
3AC
  8
LAY-1
  6
CONTINUOUS
 62
     3
 10
100.141468
 20
106.7
 30
0.0
 11
93.521428999999998
 21
106.7
 31
0.0
  0
LINE
  5
3AD
  8
LAY-1
  6
CONTINUOUS
 62
     3
 10
107.575119
 20
214.93843699999999
 30
0.0
 11
107.575119
 21
106.461563
 31
0.0
  0
LINE
  5
3AE
  8
LAY-1
  6
CONTINUOUS
 62
     3
 10
100.667738
 20
214.93843699999999
 30
0.0
 11
100.667738
 21
106.461563
 31
0.0
  0
ARC
  5
3AF
  8
LAY-1
  6
CONTINUOUS
 62
     3
 10
115.141468
 20
215.40000000000001
 30
0.0
 40
0.7
 50
270.0
 51
318.74771800000002
  0
ARC
  5
3B0
  8
LAY-1
  6
CONTINUOUS
 62
     3
 10
119.12142900000001
 20
211.90938800000001
 30
0.0
 40
4.593812999999999
 50
41.252282000000001
 51
138.74771799999999
  0
ARC
  5
3B1
  8
LAY-1
  6
CONTINUOUS
 62
     3
 10
123.101389
 20
215.40000000000001
 30
0.0
 40
0.7
 50
221.25228200000001
 51
270.0
  0
ARC
  5
3B2
  8
LAY-1
  6
CONTINUOUS
 62
     3
 10
123.101389
 20
106.0
 30
0.0
 40
0.7
 50
90.0
 51
138.74771799999999
  0
ARC
  5
3B3
  8
LAY-1
  6
CONTINUOUS
 62
     3
 10
119.12142900000001
 20
109.490612
 30
0.0
 40
4.593812999999999
 50
221.25228200000001
 51
318.74771800000002
  0
ARC
  5
3B4
  8
LAY-1
  6
CONTINUOUS
 62
     3
 10
115.141468
 20
106.0
 30
0.0
 40
0.7
 50
41.252282000000001
 51
90.0
  0
LINE
  5
3B5
  8
LAY-1
  6
CONTINUOUS
 62
     3
 10
122.575119
 20
214.93843699999999
 30
0.0
 11
122.575119
 21
106.461563
 31
0.0
  0
LINE
  5
3B6
  8
LAY-1
  6
CONTINUOUS
 62
     3
 10
115.667738
 20
214.93843699999999
 30
0.0
 11
115.667738
 21
106.461563
 31
0.0
  0
LINE
  5
3B7
  8
LAY-1
  6
CONTINUOUS
 62
     3
 10
123.101389
 20
214.69999999999999
 30
0.0
 11
129.721429
 21
214.69999999999999
 31
0.0
  0
LINE
  5
3B8
  8
LAY-1
  6
CONTINUOUS
 62
     3
 10
129.721429
 20
106.7
 30
0.0
 11
123.101389
 21
106.7
 31
0.0
  0
LINE
  5
3B9
  8
LAY-1
  6
EXLTYPE3
 62
     1
 10
84.767737999999994
 20
160.69999999999999
 30
0.0
 11
140.467738
 21
160.69999999999999
 31
0.0
  0
LINE
  5
3BA
  8
LAY-1
  6
CONTINUOUS
 62
     3
 10
108.101389
 20
214.69999999999999
 30
0.0
 11
115.141468
 21
214.69999999999999
 31
0.0
  0
LINE
  5
3BB
  8
LAY-1
  6
CONTINUOUS
 62
     3
 10
115.141468
 20
106.7
 30
0.0
 11
108.101389
 21
106.7
 31
0.0
  0
LINE
  5
3BC
  8
LAY-1
  6
CONTINUOUS
 62
     3
 10
202.764286
 20
93.450000000000003
 30
0.0
 11
204.96428599999999
 21
93.450000000000003
 31
0.0
  0
LINE
  5
3BD
  8
LAY-1
  6
CONTINUOUS
 62
     3
 10
200.56428600000001
 20
220.69999999999999
 30
0.0
 11
202.764286
 21
220.69999999999999
 31
0.0
  0
LINE
  5
3BE
  8
LAY-1
  6
CONTINUOUS
 62
     3
 10
200.56428600000001
 20
100.7
 30
0.0
 11
202.764286
 21
100.7
 31
0.0
  0
LINE
  5
3BF
  8
LAY-1
  6
CONTINUOUS
 62
     3
 10
200.56428600000001
 20
220.69999999999999
 30
0.0
 11
200.56428600000001
 21
100.7
 31
0.0
  0
LINE
  5
3C0
  8
LAY-1
  6
CONTINUOUS
 62
     3
 10
202.764286
 20
227.94999999999999
 30
0.0
 11
202.764286
 21
93.450000000000003
 31
0.0
  0
LINE
  5
3C1
  8
LAY-1
  6
CONTINUOUS
 62
     3
 10
204.96428599999999
 20
227.94999999999999
 30
0.0
 11
204.96428599999999
 21
93.450000000000003
 31
0.0
  0
LINE
  5
3C2
  8
LAY-1
  6
CONTINUOUS
 62
     3
 10
202.764286
 20
227.94999999999999
 30
0.0
 11
204.96428599999999
 21
227.94999999999999
 31
0.0
  0
LINE
  5
3C3
  8
LAY-1
  6
CONTINUOUS
 62
     3
 10
243.36428599999999
 20
227.94999999999999
 30
0.0
 11
241.164286
 21
227.94999999999999
 31
0.0
  0
LINE
  5
3C4
  8
LAY-1
  6
CONTINUOUS
 62
     3
 10
241.164286
 20
93.450000000000003
 30
0.0
 11
243.36428599999999
 21
93.450000000000003
 31
0.0
  0
LINE
  5
3C5
  8
LAY-1
  6
CONTINUOUS
 62
     3
 10
243.36428599999999
 20
220.69999999999999
 30
0.0
 11
245.56428600000001
 21
220.69999999999999
 31
0.0
  0
LINE
  5
3C6
  8
LAY-1
  6
CONTINUOUS
 62
     3
 10
243.36428599999999
 20
100.7
 30
0.0
 11
245.56428600000001
 21
100.7
 31
0.0
  0
LINE
  5
3C7
  8
LAY-1
  6
CONTINUOUS
 62
     3
 10
245.56428600000001
 20
220.69999999999999
 30
0.0
 11
245.56428600000001
 21
100.7
 31
0.0
  0
LINE
  5
3C8
  8
LAY-1
  6
CONTINUOUS
 62
     3
 10
243.36428599999999
 20
227.94999999999999
 30
0.0
 11
243.36428599999999
 21
93.450000000000003
 31
0.0
  0
LINE
  5
3C9
  8
LAY-1
  6
CONTINUOUS
 62
     3
 10
241.164286
 20
227.94999999999999
 30
0.0
 11
241.164286
 21
93.450000000000003
 31
0.0
  0
ARC
  5
3CA
  8
LAY-1
  6
CONTINUOUS
 62
     3
 10
226.58432500000001
 20
220.40000000000001
 30
0.0
 40
0.7
 50
270.0
 51
318.74771800000002
  0
ARC
  5
3CB
  8
LAY-1
  6
CONTINUOUS
 62
     3
 10
230.56428600000001
 20
216.90938800000001
 30
0.0
 40
4.593812999999999
 50
41.252282000000001
 51
138.74771799999999
  0
ARC
  5
3CC
  8
LAY-1
  6
CONTINUOUS
 62
     3
 10
234.54424599999999
 20
220.40000000000001
 30
0.0
 40
0.7
 50
221.25228200000001
 51
270.0
  0
LINE
  5
3CD
  8
LAY-1
  6
CONTINUOUS
 62
     3
 10
234.54424599999999
 20
219.69999999999999
 30
0.0
 11
241.164286
 21
219.69999999999999
 31
0.0
  0
ARC
  5
3CE
  8
LAY-1
  6
CONTINUOUS
 62
     3
 10
234.54424599999999
 20
101.0
 30
0.0
 40
0.7
 50
90.0
 51
138.74771799999999
  0
ARC
  5
3CF
  8
LAY-1
  6
CONTINUOUS
 62
     3
 10
230.56428600000001
 20
104.490612
 30
0.0
 40
4.593812999999999
 50
221.25228200000001
 51
318.74771800000002
  0
ARC
  5
3D0
  8
LAY-1
  6
CONTINUOUS
 62
     3
 10
226.58432500000001
 20
101.0
 30
0.0
 40
0.7
 50
41.252282000000001
 51
90.0
  0
LINE
  5
3D1
  8
LAY-1
  6
CONTINUOUS
 62
     3
 10
241.164286
 20
101.7
 30
0.0
 11
234.54424599999999
 21
101.7
 31
0.0
  0
LINE
  5
3D2
  8
LAY-1
  6
CONTINUOUS
 62
     3
 10
234.017977
 20
219.93843699999999
 30
0.0
 11
234.017977
 21
101.461563
 31
0.0
  0
LINE
  5
3D3
  8
LAY-1
  6
CONTINUOUS
 62
     3
 10
227.11059499999999
 20
219.93843699999999
 30
0.0
 11
227.11059499999999
 21
101.461563
 31
0.0
  0
LINE
  5
3D4
  8
LAY-1
  6
EXLTYPE3
 62
     1
 10
197.04630900000001
 20
160.69999999999999
 30
0.0
 11
248.246309
 21
160.69999999999999
 31
0.0
  0
ARC
  5
3D5
  8
LAY-1
  6
CONTINUOUS
 62
     3
 10
211.58432500000001
 20
220.40000000000001
 30
0.0
 40
0.7
 50
270.0
 51
318.74771800000002
  0
ARC
  5
3D6
  8
LAY-1
  6
CONTINUOUS
 62
     3
 10
215.56428600000001
 20
216.90938800000001
 30
0.0
 40
4.593812999999999
 50
41.252282000000001
 51
138.74771799999999
  0
ARC
  5
3D7
  8
LAY-1
  6
CONTINUOUS
 62
     3
 10
219.54424599999999
 20
220.40000000000001
 30
0.0
 40
0.7
 50
221.25228200000001
 51
270.0
  0
ARC
  5
3D8
  8
LAY-1
  6
CONTINUOUS
 62
     3
 10
219.54424599999999
 20
101.0
 30
0.0
 40
0.7
 50
90.0
 51
138.74771799999999
  0
ARC
  5
3D9
  8
LAY-1
  6
CONTINUOUS
 62
     3
 10
215.56428600000001
 20
104.490612
 30
0.0
 40
4.593812999999999
 50
221.25228200000001
 51
318.74771800000002
  0
ARC
  5
3DA
  8
LAY-1
  6
CONTINUOUS
 62
     3
 10
211.58432500000001
 20
101.0
 30
0.0
 40
0.7
 50
41.252282000000001
 51
90.0
  0
LINE
  5
3DB
  8
LAY-1
  6
CONTINUOUS
 62
     3
 10
219.017977
 20
219.93843699999999
 30
0.0
 11
219.017977
 21
101.461563
 31
0.0
  0
LINE
  5
3DC
  8
LAY-1
  6
CONTINUOUS
 62
     3
 10
212.11059499999999
 20
219.93843699999999
 30
0.0
 11
212.11059499999999
 21
101.461563
 31
0.0
  0
LINE
  5
3DD
  8
LAY-1
  6
CONTINUOUS
 62
     3
 10
204.96428599999999
 20
219.69999999999999
 30
0.0
 11
211.58432500000001
 21
219.69999999999999
 31
0.0
  0
LINE
  5
3DE
  8
LAY-1
  6
CONTINUOUS
 62
     3
 10
219.54424599999999
 20
219.69999999999999
 30
0.0
 11
226.58432500000001
 21
219.69999999999999
 31
0.0
  0
LINE
  5
3DF
  8
LAY-1
  6
CONTINUOUS
 62
     3
 10
226.58432500000001
 20
101.7
 30
0.0
 11
219.54424599999999
 21
101.7
 31
0.0
  0
LINE
  5
3E0
  8
LAY-1
  6
CONTINUOUS
 62
     3
 10
211.58432500000001
 20
101.7
 30
0.0
 11
204.96428599999999
 21
101.7
 31
0.0
  0
LINE
  5
3E1
  8
LAY-1
  6
CONTINUOUS
 62
     3
 10
316.40714300000002
 20
233.94999999999999
 30
0.0
 11
316.40714300000002
 21
87.450000000000003
 31
0.0
  0
LINE
  5
3E2
  8
LAY-1
  6
CONTINUOUS
 62
     3
 10
314.20714299999997
 20
233.94999999999999
 30
0.0
 11
314.20714299999997
 21
87.450000000000003
 31
0.0
  0
LINE
  5
3E3
  8
LAY-1
  6
CONTINUOUS
 62
     3
 10
312.00714299999999
 20
225.69999999999999
 30
0.0
 11
312.00714299999999
 21
95.700000000000003
 31
0.0
  0
LINE
  5
3E4
  8
LAY-1
  6
CONTINUOUS
 62
     3
 10
312.00714299999999
 20
95.700000000000003
 30
0.0
 11
314.20714299999997
 21
95.700000000000003
 31
0.0
  0
LINE
  5
3E5
  8
LAY-1
  6
CONTINUOUS
 62
     3
 10
312.00714299999999
 20
225.69999999999999
 30
0.0
 11
314.20714299999997
 21
225.69999999999999
 31
0.0
  0
LINE
  5
3E6
  8
LAY-1
  6
CONTINUOUS
 62
     3
 10
314.20714299999997
 20
87.450000000000003
 30
0.0
 11
316.40714300000002
 21
87.450000000000003
 31
0.0
  0
LINE
  5
3E7
  8
LAY-1
  6
CONTINUOUS
 62
     3
 10
314.20714299999997
 20
233.94999999999999
 30
0.0
 11
316.40714300000002
 21
233.94999999999999
 31
0.0
  0
LINE
  5
3E8
  8
LAY-1
  6
CONTINUOUS
 62
     3
 10
352.60714300000001
 20
233.94999999999999
 30
0.0
 11
352.60714300000001
 21
87.450000000000003
 31
0.0
  0
LINE
  5
3E9
  8
LAY-1
  6
CONTINUOUS
 62
     3
 10
354.807143
 20
233.94999999999999
 30
0.0
 11
354.807143
 21
87.450000000000003
 31
0.0
  0
LINE
  5
3EA
  8
LAY-1
  6
CONTINUOUS
 62
     3
 10
338.55345199999999
 20
224.93843699999999
 30
0.0
 11
338.55345199999999
 21
96.461563000000012
 31
0.0
  0
LINE
  5
3EB
  8
LAY-1
  6
CONTINUOUS
 62
     3
 10
345.46083399999998
 20
224.93843699999999
 30
0.0
 11
345.46083399999998
 21
96.461563000000012
 31
0.0
  0
LINE
  5
3EC
  8
LAY-1
  6
CONTINUOUS
 62
     3
 10
357.00714299999999
 20
225.69999999999999
 30
0.0
 11
357.00714299999999
 21
95.700000000000003
 31
0.0
  0
LINE
  5
3ED
  8
LAY-1
  6
CONTINUOUS
 62
     3
 10
352.60714300000001
 20
96.700000000000017
 30
0.0
 11
345.98710299999999
 21
96.700000000000017
 31
0.0
  0
LINE
  5
3EE
  8
LAY-1
  6
CONTINUOUS
 62
     3
 10
354.807143
 20
95.700000000000003
 30
0.0
 11
357.00714299999999
 21
95.700000000000003
 31
0.0
  0
ARC
  5
3EF
  8
LAY-1
  6
CONTINUOUS
 62
     3
 10
338.02718199999998
 20
96.0
 30
0.0
 40
0.7
 50
41.252282000000001
 51
90.0
  0
ARC
  5
3F0
  8
LAY-1
  6
CONTINUOUS
 62
     3
 10
342.0071430000001
 20
99.490611999999999
 30
0.0
 40
4.593812999999999
 50
221.25228200000001
 51
318.74771800000002
  0
ARC
  5
3F1
  8
LAY-1
  6
CONTINUOUS
 62
     3
 10
345.98710299999999
 20
96.0
 30
0.0
 40
0.7
 50
90.0
 51
138.74771799999999
  0
LINE
  5
3F2
  8
LAY-1
  6
CONTINUOUS
 62
     3
 10
345.98710299999999
 20
224.69999999999999
 30
0.0
 11
352.60714300000001
 21
224.69999999999999
 31
0.0
  0
LINE
  5
3F3
  8
LAY-1
  6
CONTINUOUS
 62
     3
 10
354.807143
 20
225.69999999999999
 30
0.0
 11
357.00714299999999
 21
225.69999999999999
 31
0.0
  0
ARC
  5
3F4
  8
LAY-1
  6
CONTINUOUS
 62
     3
 10
345.98710299999999
 20
225.40000000000001
 30
0.0
 40
0.7
 50
221.25228200000001
 51
270.0
  0
ARC
  5
3F5
  8
LAY-1
  6
CONTINUOUS
 62
     3
 10
342.0071430000001
 20
221.90938800000001
 30
0.0
 40
4.593812999999999
 50
41.252282000000001
 51
138.74771799999999
  0
ARC
  5
3F6
  8
LAY-1
  6
CONTINUOUS
 62
     3
 10
338.02718199999998
 20
225.40000000000001
 30
0.0
 40
0.7
 50
270.0
 51
318.74771800000002
  0
LINE
  5
3F7
  8
LAY-1
  6
CONTINUOUS
 62
     3
 10
352.60714300000001
 20
87.450000000000003
 30
0.0
 11
354.807143
 21
87.450000000000003
 31
0.0
  0
LINE
  5
3F8
  8
LAY-1
  6
CONTINUOUS
 62
     3
 10
354.807143
 20
233.94999999999999
 30
0.0
 11
352.60714300000001
 21
233.94999999999999
 31
0.0
  0
LINE
  5
3F9
  8
LAY-1
  6
EXLTYPE3
 62
     1
 10
306.94630899999999
 20
160.69999999999999
 30
0.0
 11
361.04630900000001
 21
160.69999999999999
 31
0.0
  0
LINE
  5
3FA
  8
LAY-1
  6
CONTINUOUS
 62
     3
 10
323.55345199999999
 20
224.93843699999999
 30
0.0
 11
323.55345199999999
 21
96.461563000000012
 31
0.0
  0
LINE
  5
3FB
  8
LAY-1
  6
CONTINUOUS
 62
     3
 10
330.46083399999998
 20
224.93843699999999
 30
0.0
 11
330.46083399999998
 21
96.461563000000012
 31
0.0
  0
ARC
  5
3FC
  8
LAY-1
  6
CONTINUOUS
 62
     3
 10
323.02718199999998
 20
96.0
 30
0.0
 40
0.7
 50
41.252282000000001
 51
90.0
  0
ARC
  5
3FD
  8
LAY-1
  6
CONTINUOUS
 62
     3
 10
327.0071430000001
 20
99.490611999999999
 30
0.0
 40
4.593812999999999
 50
221.25228200000001
 51
318.74771800000002
  0
ARC
  5
3FE
  8
LAY-1
  6
CONTINUOUS
 62
     3
 10
330.98710299999999
 20
96.0
 30
0.0
 40
0.7
 50
90.0
 51
138.74771799999999
  0
ARC
  5
3FF
  8
LAY-1
  6
CONTINUOUS
 62
     3
 10
330.98710299999999
 20
225.40000000000001
 30
0.0
 40
0.7
 50
221.25228200000001
 51
270.0
  0
ARC
  5
400
  8
LAY-1
  6
CONTINUOUS
 62
     3
 10
327.0071430000001
 20
221.90938800000001
 30
0.0
 40
4.593812999999999
 50
41.252282000000001
 51
138.74771799999999
  0
ARC
  5
401
  8
LAY-1
  6
CONTINUOUS
 62
     3
 10
323.02718199999998
 20
225.40000000000001
 30
0.0
 40
0.7
 50
270.0
 51
318.74771800000002
  0
LINE
  5
402
  8
LAY-1
  6
CONTINUOUS
 62
     3
 10
316.40714300000002
 20
224.69999999999999
 30
0.0
 11
323.02718199999998
 21
224.69999999999999
 31
0.0
  0
LINE
  5
403
  8
LAY-1
  6
CONTINUOUS
 62
     3
 10
330.98710299999999
 20
224.69999999999999
 30
0.0
 11
338.02718199999998
 21
224.69999999999999
 31
0.0
  0
LINE
  5
404
  8
LAY-1
  6
CONTINUOUS
 62
     3
 10
338.02718199999998
 20
96.700000000000017
 30
0.0
 11
330.98710299999999
 21
96.700000000000017
 31
0.0
  0
LINE
  5
405
  8
LAY-1
  6
CONTINUOUS
 62
     3
 10
323.02718199999998
 20
96.700000000000017
 30
0.0
 11
316.40714300000002
 21
96.700000000000017
 31
0.0
  0
LINE
  5
406
  8
LAY-1
  6
CONTINUOUS
 62
     3
 10
427.85000000000002
 20
242.19999999999999
 30
0.0
 11
427.85000000000002
 21
79.200000000000003
 31
0.0
  0
LINE
  5
407
  8
LAY-1
  6
CONTINUOUS
 62
     3
 10
425.64999999999992
 20
242.19999999999999
 30
0.0
 11
425.64999999999992
 21
79.200000000000003
 31
0.0
  0
LINE
  5
408
  8
LAY-1
  6
CONTINUOUS
 62
     3
 10
434.996309
 20
232.43843699999999
 30
0.0
 11
434.996309
 21
88.961562999999984
 31
0.0
  0
LINE
  5
409
  8
LAY-1
  6
CONTINUOUS
 62
     3
 10
441.90369099999998
 20
232.43843699999999
 30
0.0
 11
441.90369099999998
 21
88.961562999999984
 31
0.0
  0
LINE
  5
40A
  8
LAY-1
  6
CONTINUOUS
 62
     3
 10
423.44999999999987
 20
233.19999999999999
 30
0.0
 11
423.44999999999987
 21
88.200000000000003
 31
0.0
  0
LINE
  5
40B
  8
LAY-1
  6
CONTINUOUS
 62
     3
 10
434.47003999999998
 20
89.199999999999989
 30
0.0
 11
427.85000000000002
 21
89.199999999999989
 31
0.0
  0
LINE
  5
40C
  8
LAY-1
  6
CONTINUOUS
 62
     3
 10
423.44999999999987
 20
88.200000000000003
 30
0.0
 11
425.64999999999992
 21
88.200000000000003
 31
0.0
  0
ARC
  5
40D
  8
LAY-1
  6
CONTINUOUS
 62
     3
 10
434.47003999999998
 20
88.499999999999986
 30
0.0
 40
0.7
 50
41.252282000000001
 51
90.0
  0
ARC
  5
40E
  8
LAY-1
  6
CONTINUOUS
 62
     3
 10
438.44999999999999
 20
91.990611999999999
 30
0.0
 40
4.593812999999999
 50
221.25228200000001
 51
318.74771800000002
  0
ARC
  5
40F
  8
LAY-1
  6
CONTINUOUS
 62
     3
 10
442.42995999999988
 20
88.499999999999986
 30
0.0
 40
0.7
 50
90.0
 51
138.74771799999999
  0
LINE
  5
410
  8
LAY-1
  6
CONTINUOUS
 62
     3
 10
427.85000000000002
 20
232.19999999999999
 30
0.0
 11
434.47003999999998
 21
232.19999999999999
 31
0.0
  0
LINE
  5
411
  8
LAY-1
  6
CONTINUOUS
 62
     3
 10
423.44999999999987
 20
233.19999999999999
 30
0.0
 11
425.64999999999992
 21
233.19999999999999
 31
0.0
  0
ARC
  5
412
  8
LAY-1
  6
CONTINUOUS
 62
     3
 10
442.42995999999988
 20
232.90000000000001
 30
0.0
 40
0.7
 50
221.25228200000001
 51
270.0
  0
ARC
  5
413
  8
LAY-1
  6
CONTINUOUS
 62
     3
 10
438.44999999999999
 20
229.40938800000001
 30
0.0
 40
4.593812999999999
 50
41.252282000000001
 51
138.74771799999999
  0
ARC
  5
414
  8
LAY-1
  6
CONTINUOUS
 62
     3
 10
434.47003999999998
 20
232.90000000000001
 30
0.0
 40
0.7
 50
270.0
 51
318.74771800000002
  0
LINE
  5
415
  8
LAY-1
  6
CONTINUOUS
 62
     3
 10
425.64999999999992
 20
79.200000000000003
 30
0.0
 11
427.85000000000002
 21
79.200000000000003
 31
0.0
  0
LINE
  5
416
  8
LAY-1
  6
CONTINUOUS
 62
     3
 10
425.64999999999992
 20
242.19999999999999
 30
0.0
 11
427.85000000000002
 21
242.19999999999999
 31
0.0
  0
LINE
  5
417
  8
LAY-1
  6
CONTINUOUS
 62
     3
 10
464.05000000000001
 20
242.19999999999999
 30
0.0
 11
464.05000000000001
 21
79.200000000000003
 31
0.0
  0
LINE
  5
418
  8
LAY-1
  6
CONTINUOUS
 62
     3
 10
466.25
 20
242.19999999999999
 30
0.0
 11
466.25
 21
79.200000000000003
 31
0.0
  0
LINE
  5
419
  8
LAY-1
  6
CONTINUOUS
 62
     3
 10
468.44999999999987
 20
233.19999999999999
 30
0.0
 11
468.44999999999987
 21
88.200000000000003
 31
0.0
  0
LINE
  5
41A
  8
LAY-1
  6
CONTINUOUS
 62
     3
 10
466.25
 20
88.200000000000003
 30
0.0
 11
468.44999999999987
 21
88.200000000000003
 31
0.0
  0
LINE
  5
41B
  8
LAY-1
  6
CONTINUOUS
 62
     3
 10
466.25
 20
233.19999999999999
 30
0.0
 11
468.44999999999987
 21
233.19999999999999
 31
0.0
  0
LINE
  5
41C
  8
LAY-1
  6
CONTINUOUS
 62
     3
 10
464.05000000000001
 20
79.200000000000003
 30
0.0
 11
466.25
 21
79.200000000000003
 31
0.0
  0
LINE
  5
41D
  8
LAY-1
  6
CONTINUOUS
 62
     3
 10
466.25
 20
242.19999999999999
 30
0.0
 11
464.05000000000001
 21
242.19999999999999
 31
0.0
  0
LINE
  5
41E
  8
LAY-1
  6
EXLTYPE3
 62
     1
 10
420.93916599999989
 20
160.69999999999999
 30
0.0
 11
472.439166
 21
160.69999999999999
 31
0.0
  0
LINE
  5
41F
  8
LAY-1
  6
CONTINUOUS
 62
     3
 10
449.996309
 20
232.43843699999999
 30
0.0
 11
449.996309
 21
88.961562999999984
 31
0.0
  0
LINE
  5
420
  8
LAY-1
  6
CONTINUOUS
 62
     3
 10
456.90369099999998
 20
232.43843699999999
 30
0.0
 11
456.90369099999998
 21
88.961562999999984
 31
0.0
  0
ARC
  5
421
  8
LAY-1
  6
CONTINUOUS
 62
     3
 10
449.47003999999998
 20
88.499999999999986
 30
0.0
 40
0.7
 50
41.252282000000001
 51
90.0
  0
ARC
  5
422
  8
LAY-1
  6
CONTINUOUS
 62
     3
 10
453.44999999999999
 20
91.990611999999999
 30
0.0
 40
4.593812999999999
 50
221.25228200000001
 51
318.74771800000002
  0
ARC
  5
423
  8
LAY-1
  6
CONTINUOUS
 62
     3
 10
457.42995999999988
 20
88.499999999999986
 30
0.0
 40
0.7
 50
90.0
 51
138.74771799999999
  0
ARC
  5
424
  8
LAY-1
  6
CONTINUOUS
 62
     3
 10
457.42995999999988
 20
232.90000000000001
 30
0.0
 40
0.7
 50
221.25228200000001
 51
270.0
  0
ARC
  5
425
  8
LAY-1
  6
CONTINUOUS
 62
     3
 10
453.44999999999999
 20
229.40938800000001
 30
0.0
 40
4.593812999999999
 50
41.252282000000001
 51
138.74771799999999
  0
ARC
  5
426
  8
LAY-1
  6
CONTINUOUS
 62
     3
 10
449.47003999999998
 20
232.90000000000001
 30
0.0
 40
0.7
 50
270.0
 51
318.74771800000002
  0
LINE
  5
427
  8
LAY-1
  6
CONTINUOUS
 62
     3
 10
442.42995999999988
 20
232.19999999999999
 30
0.0
 11
449.47003999999998
 21
232.19999999999999
 31
0.0
  0
LINE
  5
428
  8
LAY-1
  6
CONTINUOUS
 62
     3
 10
457.42995999999988
 20
232.19999999999999
 30
0.0
 11
464.05000000000001
 21
232.19999999999999
 31
0.0
  0
LINE
  5
429
  8
LAY-1
  6
CONTINUOUS
 62
     3
 10
464.05000000000001
 20
89.199999999999989
 30
0.0
 11
457.42995999999988
 21
89.199999999999989
 31
0.0
  0
LINE
  5
42A
  8
LAY-1
  6
CONTINUOUS
 62
     3
 10
449.47003999999998
 20
89.199999999999989
 30
0.0
 11
442.42995999999988
 21
89.199999999999989
 31
0.0
  0
LINE
  5
42B
  8
LAY-1
  6
CONTINUOUS
 62
     3
 10
539.29285700000003
 20
250.44999999999999
 30
0.0
 11
539.29285700000003
 21
70.950000000000003
 31
0.0
  0
LINE
  5
42C
  8
LAY-1
  6
CONTINUOUS
 62
     3
 10
537.09285699999998
 20
250.44999999999999
 30
0.0
 11
537.09285699999998
 21
70.950000000000003
 31
0.0
  0
LINE
  5
42D
  8
LAY-1
  6
CONTINUOUS
 62
     3
 10
534.89285700000005
 20
242.19999999999999
 30
0.0
 11
534.89285700000005
 21
79.200000000000003
 31
0.0
  0
LINE
  5
42E
  8
LAY-1
  6
CONTINUOUS
 62
     3
 10
534.89285700000005
 20
79.200000000000003
 30
0.0
 11
537.09285699999998
 21
79.200000000000003
 31
0.0
  0
LINE
  5
42F
  8
LAY-1
  6
CONTINUOUS
 62
     3
 10
534.89285700000005
 20
242.19999999999999
 30
0.0
 11
537.09285699999998
 21
242.19999999999999
 31
0.0
  0
LINE
  5
430
  8
LAY-1
  6
CONTINUOUS
 62
     3
 10
537.09285699999998
 20
70.950000000000003
 30
0.0
 11
539.29285700000003
 21
70.950000000000003
 31
0.0
  0
LINE
  5
431
  8
LAY-1
  6
CONTINUOUS
 62
     3
 10
537.09285699999998
 20
250.44999999999999
 30
0.0
 11
539.29285700000003
 21
250.44999999999999
 31
0.0
  0
LINE
  5
432
  8
LAY-1
  6
CONTINUOUS
 62
     3
 10
575.49285699999996
 20
250.44999999999999
 30
0.0
 11
575.49285699999996
 21
70.950000000000003
 31
0.0
  0
LINE
  5
433
  8
LAY-1
  6
CONTINUOUS
 62
     3
 10
577.69285699999989
 20
250.44999999999999
 30
0.0
 11
577.69285699999989
 21
70.950000000000003
 31
0.0
  0
LINE
  5
434
  8
LAY-1
  6
CONTINUOUS
 62
     3
 10
579.89285700000005
 20
242.19999999999999
 30
0.0
 11
579.89285700000005
 21
79.200000000000003
 31
0.0
  0
LINE
  5
435
  8
LAY-1
  6
CONTINUOUS
 62
     3
 10
577.69285699999989
 20
79.200000000000003
 30
0.0
 11
579.89285700000005
 21
79.200000000000003
 31
0.0
  0
LINE
  5
436
  8
LAY-1
  6
CONTINUOUS
 62
     3
 10
577.69285699999989
 20
242.19999999999999
 30
0.0
 11
579.89285700000005
 21
242.19999999999999
 31
0.0
  0
LINE
  5
437
  8
LAY-1
  6
CONTINUOUS
 62
     3
 10
575.49285699999996
 20
70.950000000000003
 30
0.0
 11
577.69285699999989
 21
70.950000000000003
 31
0.0
  0
LINE
  5
438
  8
LAY-1
  6
CONTINUOUS
 62
     3
 10
577.69285699999989
 20
250.44999999999999
 30
0.0
 11
575.49285699999996
 21
250.44999999999999
 31
0.0
  0
LINE
  5
439
  8
LAY-1
  6
CONTINUOUS
 62
     3
 10
553.68029799999999
 20
241.44506699999999
 30
0.0
 11
553.68029799999999
 21
79.915301999999997
 31
0.0
  0
LINE
  5
43A
  8
LAY-1
  6
CONTINUOUS
 62
     3
 10
546.14616999999998
 20
241.48457400000001
 30
0.0
 11
546.14616999999998
 21
79.942719999999994
 31
0.0
  0
LINE
  5
43B
  8
LAY-1
  6
CONTINUOUS
 62
     3
 10
545.52899500000001
 20
80.200000000000017
 30
0.0
 11
539.29285700000003
 21
80.200000000000017
 31
0.0
  0
ARC
  5
43C
  8
LAY-1
  6
CONTINUOUS
 62
     3
 10
545.52899500000001
 20
79.299999999999983
 30
0.0
 40
0.9
 50
45.572186000000002
 51
90.0
  0
ARC
  5
43D
  8
LAY-1
  6
CONTINUOUS
 62
     3
 10
549.93373899999995
 20
83.793610999999999
 30
0.0
 40
5.3924010000000004
 50
225.57218599999999
 51
314.01198399999998
  0
ARC
  5
43E
  8
LAY-1
  6
CONTINUOUS
 62
     3
 10
554.30575499999986
 20
79.268151000000003
 30
0.0
 40
0.9
 50
91.863789999999995
 51
134.01198400000001
  0
LINE
  5
43F
  8
LAY-1
  6
CONTINUOUS
 62
     3
 10
539.29285700000003
 20
241.19999999999999
 30
0.0
 11
543.43333799999994
 21
241.19999999999999
 31
0.0
  0
ARC
  5
440
  8
LAY-1
  6
CONTINUOUS
 62
     3
 10
554.29760099999999
 20
242.09999999999999
 30
0.0
 40
0.9
 50
225.57218599999999
 51
270.0
  0
ARC
  5
441
  8
LAY-1
  6
CONTINUOUS
 62
     3
 10
545.5208419999999
 20
242.13184899999999
 30
0.0
 40
0.9
 50
271.86378999999999
 51
314.01198399999998
  0
ARC
  5
442
  8
LAY-1
  6
CONTINUOUS
 62
     3
 10
549.89285700000005
 20
237.60638900000001
 30
0.0
 40
5.3924010000000004
 50
45.572186000000002
 51
134.01198400000001
  0
ARC
  5
443
  8
LAY-1
  6
CONTINUOUS
 62
     3
 10
543.55536299999994
 20
302.5324
 30
0.0
 40
61.332520999999993
 50
269.88600600000001
 51
271.86378999999999
  0
LINE
  5
444
  8
LAY-1
  6
EXLTYPE3
 62
     1
 10
529.0
 20
160.69999999999999
 30
0.0
 11
585.0
 21
160.69999999999999
 31
0.0
  0
LINE
  5
445
  8
LAY-1
  6
CONTINUOUS
 62
     3
 10
568.68029799999999
 20
241.44506699999999
 30
0.0
 11
568.68029799999999
 21
79.915301999999997
 31
0.0
  0
LINE
  5
446
  8
LAY-1
  6
CONTINUOUS
 62
     3
 10
561.14616999999987
 20
241.48457400000001
 30
0.0
 11
561.14616999999987
 21
79.942719999999994
 31
0.0
  0
ARC
  5
447
  8
LAY-1
  6
CONTINUOUS
 62
     3
 10
560.52899500000001
 20
79.299999999999983
 30
0.0
 40
0.9
 50
45.572186000000002
 51
90.0
  0
ARC
  5
448
  8
LAY-1
  6
CONTINUOUS
 62
     3
 10
564.93373899999995
 20
83.793610999999999
 30
0.0
 40
5.3924010000000004
 50
225.57218599999999
 51
314.01198399999998
  0
ARC
  5
449
  8
LAY-1
  6
CONTINUOUS
 62
     3
 10
569.30575499999986
 20
79.268151000000003
 30
0.0
 40
0.9
 50
91.863789999999995
 51
134.01198400000001
  0
ARC
  5
44A
  8
LAY-1
  6
CONTINUOUS
 62
     3
 10
569.29760099999987
 20
242.09999999999999
 30
0.0
 40
0.9
 50
225.57218599999999
 51
270.0
  0
ARC
  5
44B
  8
LAY-1
  6
CONTINUOUS
 62
     3
 10
560.52084200000002
 20
242.13184899999999
 30
0.0
 40
0.9
 50
271.86378999999999
 51
314.01198399999998
  0
ARC
  5
44C
  8
LAY-1
  6
CONTINUOUS
 62
     3
 10
564.89285700000005
 20
237.60638900000001
 30
0.0
 40
5.3924010000000004
 50
45.572186000000002
 51
134.01198400000001
  0
LINE
  5
44D
  8
LAY-1
  6
CONTINUOUS
 62
     3
 10
569.29760099999987
 20
241.19999999999999
 30
0.0
 11
575.49285699999996
 21
241.19999999999999
 31
0.0
  0
LINE
  5
44E
  8
LAY-1
  6
CONTINUOUS
 62
     3
 10
575.49285699999996
 20
80.200000000000017
 30
0.0
 11
569.27648399999987
 21
80.200000000000017
 31
0.0
  0
LINE
  5
44F
  8
LAY-1
  6
CONTINUOUS
 62
     3
 10
560.52899500000001
 20
80.200000000000017
 30
0.0
 11
554.27648399999998
 21
80.200000000000017
 31
0.0
  0
LINE
  5
450
  8
LAY-1
  6
CONTINUOUS
 62
     3
 10
554.29760099999999
 20
241.19999999999999
 30
0.0
 11
560.55011300000001
 21
241.19999999999999
 31
0.0
  0
LINE
  5
451
  8
LAY-2
  6
CONTINUOUS
 62
     2
 10
227.810562
 20
579.97500000000002
 30
0.0
 11
229.98943800000001
 21
579.97500000000002
 31
0.0
  0
LINE
  5
452
  8
LAY-2
  6
CONTINUOUS
 62
     2
 10
226.26324099999999
 20
579.60000000000002
 30
0.0
 11
231.53675899999999
 21
579.60000000000002
 31
0.0
  0
LINE
  5
453
  8
LAY-2
  6
CONTINUOUS
 62
     2
 10
225.37340499999999
 20
579.22500000000002
 30
0.0
 11
232.42659499999999
 21
579.22500000000002
 31
0.0
  0
LINE
  5
454
  8
LAY-2
  6
CONTINUOUS
 62
     2
 10
224.69999999999999
 20
578.84999999999991
 30
0.0
 11
233.09999999999999
 21
578.84999999999991
 31
0.0
  0
LINE
  5
455
  8
LAY-2
  6
CONTINUOUS
 62
     2
 10
224.15006600000001
 20
578.47500000000002
 30
0.0
 11
233.649934
 21
578.47500000000002
 31
0.0
  0
LINE
  5
456
  8
LAY-2
  6
CONTINUOUS
 62
     2
 10
223.68439799999999
 20
578.10000000000002
 30
0.0
 11
234.115602
 21
578.10000000000002
 31
0.0
  0
LINE
  5
457
  8
LAY-2
  6
CONTINUOUS
 62
     2
 10
210.15000000000001
 20
577.72500000000002
 30
0.0
 11
222.23363499999999
 21
577.72500000000002
 31
0.0
  0
LINE
  5
458
  8
LAY-2
  6
CONTINUOUS
 62
     2
 10
223.282004
 20
577.72500000000002
 30
0.0
 11
234.51799600000001
 21
577.72500000000002
 31
0.0
  0
LINE
  5
459
  8
LAY-2
  6
CONTINUOUS
 62
     2
 10
235.56636499999999
 20
577.72500000000002
 30
0.0
 11
244.65000000000001
 21
577.72500000000002
 31
0.0
  0
LINE
  5
45A
  8
LAY-2
  6
CONTINUOUS
 62
     2
 10
245.92500000000001
 20
577.72500000000002
 30
0.0
 11
255.97499999999999
 21
577.72500000000002
 31
0.0
  0
LINE
  5
45B
  8
LAY-2
  6
CONTINUOUS
 62
     2
 10
257.10000000000002
 20
577.72500000000002
 30
0.0
 11
259.64999999999998
 21
577.72500000000002
 31
0.0
  0
LINE
  5
45C
  8
LAY-2
  6
CONTINUOUS
 62
     2
 10
264.89999999999998
 20
577.72500000000002
 30
0.0
 11
267.44999999999999
 21
577.72500000000002
 31
0.0
  0
LINE
  5
45D
  8
LAY-2
  6
CONTINUOUS
 62
     2
 10
210.15000000000001
 20
577.35000000000002
 30
0.0
 11
221.93447399999999
 21
577.35000000000002
 31
0.0
  0
LINE
  5
45E
  8
LAY-2
  6
CONTINUOUS
 62
     2
 10
222.93007499999999
 20
577.35000000000002
 30
0.0
 11
234.86992499999999
 21
577.35000000000002
 31
0.0
  0
LINE
  5
45F
  8
LAY-2
  6
CONTINUOUS
 62
     2
 10
235.86552599999999
 20
577.35000000000002
 30
0.0
 11
244.65000000000001
 21
577.35000000000002
 31
0.0
  0
LINE
  5
460
  8
LAY-2
  6
CONTINUOUS
 62
     2
 10
245.92500000000001
 20
577.35000000000002
 30
0.0
 11
255.97499999999999
 21
577.35000000000002
 31
0.0
  0
LINE
  5
461
  8
LAY-2
  6
CONTINUOUS
 62
     2
 10
257.10000000000002
 20
577.35000000000002
 30
0.0
 11
259.89678300000003
 21
577.35000000000002
 31
0.0
  0
LINE
  5
462
  8
LAY-2
  6
CONTINUOUS
 62
     2
 10
264.89999999999998
 20
577.35000000000002
 30
0.0
 11
267.44999999999999
 21
577.35000000000002
 31
0.0
  0
LINE
  5
463
  8
LAY-2
  6
CONTINUOUS
 62
     2
 10
210.15000000000001
 20
576.97500000000002
 30
0.0
 11
221.66705999999999
 21
576.97500000000002
 31
0.0
  0
LINE
  5
464
  8
LAY-2
  6
CONTINUOUS
 62
     2
 10
222.62012100000001
 20
576.97500000000002
 30
0.0
 11
226.95144300000001
 21
576.97500000000002
 31
0.0
  0
LINE
  5
465
  8
LAY-2
  6
CONTINUOUS
 62
     2
 10
230.848557
 20
576.97500000000002
 30
0.0
 11
235.179879
 21
576.97500000000002
 31
0.0
  0
LINE
  5
466
  8
LAY-2
  6
CONTINUOUS
 62
     2
 10
236.13293999999999
 20
576.97500000000002
 30
0.0
 11
244.65000000000001
 21
576.97500000000002
 31
0.0
  0
LINE
  5
467
  8
LAY-2
  6
CONTINUOUS
 62
     2
 10
245.92500000000001
 20
576.97500000000002
 30
0.0
 11
255.97499999999999
 21
576.97500000000002
 31
0.0
  0
LINE
  5
468
  8
LAY-2
  6
CONTINUOUS
 62
     2
 10
257.10000000000002
 20
576.97500000000002
 30
0.0
 11
260.14356600000002
 21
576.97500000000002
 31
0.0
  0
LINE
  5
469
  8
LAY-2
  6
CONTINUOUS
 62
     2
 10
264.89999999999998
 20
576.97500000000002
 30
0.0
 11
267.44999999999999
 21
576.97500000000002
 31
0.0
  0
LINE
  5
46A
  8
LAY-2
  6
CONTINUOUS
 62
     2
 10
210.15000000000001
 20
576.60000000000002
 30
0.0
 11
221.42798199999999
 21
576.60000000000002
 31
0.0
  0
LINE
  5
46B
  8
LAY-2
  6
CONTINUOUS
 62
     2
 10
222.34618399999999
 20
576.60000000000002
 30
0.0
 11
226.19583700000001
 21
576.60000000000002
 31
0.0
  0
LINE
  5
46C
  8
LAY-2
  6
CONTINUOUS
 62
     2
 10
231.604163
 20
576.60000000000002
 30
0.0
 11
235.45381599999999
 21
576.60000000000002
 31
0.0
  0
LINE
  5
46D
  8
LAY-2
  6
CONTINUOUS
 62
     2
 10
236.372018
 20
576.60000000000002
 30
0.0
 11
244.65000000000001
 21
576.60000000000002
 31
0.0
  0
LINE
  5
46E
  8
LAY-2
  6
CONTINUOUS
 62
     2
 10
245.92500000000001
 20
576.60000000000002
 30
0.0
 11
255.97499999999999
 21
576.60000000000002
 31
0.0
  0
LINE
  5
46F
  8
LAY-2
  6
CONTINUOUS
 62
     2
 10
257.10000000000002
 20
576.60000000000002
 30
0.0
 11
260.39034900000001
 21
576.60000000000002
 31
0.0
  0
LINE
  5
470
  8
LAY-2
  6
CONTINUOUS
 62
     2
 10
264.89999999999998
 20
576.60000000000002
 30
0.0
 11
267.44999999999999
 21
576.60000000000002
 31
0.0
  0
LINE
  5
471
  8
LAY-2
  6
CONTINUOUS
 62
     2
 10
210.15000000000001
 20
576.22500000000002
 30
0.0
 11
221.214597
 21
576.22500000000002
 31
0.0
  0
LINE
  5
472
  8
LAY-2
  6
CONTINUOUS
 62
     2
 10
222.10390699999999
 20
576.22500000000002
 30
0.0
 11
225.65240499999999
 21
576.22500000000002
 31
0.0
  0
LINE
  5
473
  8
LAY-2
  6
CONTINUOUS
 62
     2
 10
232.147595
 20
576.22500000000002
 30
0.0
 11
235.69609299999999
 21
576.22500000000002
 31
0.0
  0
LINE
  5
474
  8
LAY-2
  6
CONTINUOUS
 62
     2
 10
236.58540300000001
 20
576.22500000000002
 30
0.0
 11
244.65000000000001
 21
576.22500000000002
 31
0.0
  0
LINE
  5
475
  8
LAY-2
  6
CONTINUOUS
 62
     2
 10
245.92500000000001
 20
576.22500000000002
 30
0.0
 11
255.97499999999999
 21
576.22500000000002
 31
0.0
  0
LINE
  5
476
  8
LAY-2
  6
CONTINUOUS
 62
     2
 10
257.10000000000002
 20
576.22500000000002
 30
0.0
 11
260.63713200000001
 21
576.22500000000002
 31
0.0
  0
LINE
  5
477
  8
LAY-2
  6
CONTINUOUS
 62
     2
 10
264.89999999999998
 20
576.22500000000002
 30
0.0
 11
267.44999999999999
 21
576.22500000000002
 31
0.0
  0
LINE
  5
478
  8
LAY-2
  6
CONTINUOUS
 62
     2
 10
210.15000000000001
 20
575.85000000000002
 30
0.0
 11
221.02481399999999
 21
575.85000000000002
 31
0.0
  0
LINE
  5
479
  8
LAY-2
  6
CONTINUOUS
 62
     2
 10
221.890007
 20
575.85000000000002
 30
0.0
 11
225.225765
 21
575.85000000000002
 31
0.0
  0
LINE
  5
47A
  8
LAY-2
  6
CONTINUOUS
 62
     2
 10
227.58161999999999
 20
575.85000000000002
 30
0.0
 11
230.21838
 21
575.85000000000002
 31
0.0
  0
LINE
  5
47B
  8
LAY-2
  6
CONTINUOUS
 62
     2
 10
232.57423499999999
 20
575.85000000000002
 30
0.0
 11
235.90999299999999
 21
575.85000000000002
 31
0.0
  0
LINE
  5
47C
  8
LAY-2
  6
CONTINUOUS
 62
     2
 10
236.77518599999999
 20
575.85000000000002
 30
0.0
 11
244.65000000000001
 21
575.85000000000002
 31
0.0
  0
LINE
  5
47D
  8
LAY-2
  6
CONTINUOUS
 62
     2
 10
245.92500000000001
 20
575.85000000000002
 30
0.0
 11
255.97499999999999
 21
575.85000000000002
 31
0.0
  0
LINE
  5
47E
  8
LAY-2
  6
CONTINUOUS
 62
     2
 10
257.10000000000002
 20
575.85000000000002
 30
0.0
 11
260.883915
 21
575.85000000000002
 31
0.0
  0
LINE
  5
47F
  8
LAY-2
  6
CONTINUOUS
 62
     2
 10
264.89999999999998
 20
575.85000000000002
 30
0.0
 11
267.44999999999999
 21
575.85000000000002
 31
0.0
  0
LINE
  5
480
  8
LAY-2
  6
CONTINUOUS
 62
     2
 10
210.15000000000001
 20
575.47500000000002
 30
0.0
 11
220.856964
 21
575.47500000000002
 31
0.0
  0
LINE
  5
481
  8
LAY-2
  6
CONTINUOUS
 62
     2
 10
221.701953
 20
575.47500000000002
 30
0.0
 11
224.87857299999999
 21
575.47500000000002
 31
0.0
  0
LINE
  5
482
  8
LAY-2
  6
CONTINUOUS
 62
     2
 10
226.80000000000001
 20
575.47500000000002
 30
0.0
 11
231.0
 21
575.47500000000002
 31
0.0
  0
LINE
  5
483
  8
LAY-2
  6
CONTINUOUS
 62
     2
 10
232.92142699999999
 20
575.47500000000002
 30
0.0
 11
236.09804700000001
 21
575.47500000000002
 31
0.0
  0
LINE
  5
484
  8
LAY-2
  6
CONTINUOUS
 62
     2
 10
236.94303600000001
 20
575.47500000000002
 30
0.0
 11
244.65000000000001
 21
575.47500000000002
 31
0.0
  0
LINE
  5
485
  8
LAY-2
  6
CONTINUOUS
 62
     2
 10
245.92500000000001
 20
575.47500000000002
 30
0.0
 11
255.97499999999999
 21
575.47500000000002
 31
0.0
  0
LINE
  5
486
  8
LAY-2
  6
CONTINUOUS
 62
     2
 10
257.10000000000002
 20
575.47500000000002
 30
0.0
 11
261.13069899999999
 21
575.47500000000002
 31
0.0
  0
LINE
  5
487
  8
LAY-2
  6
CONTINUOUS
 62
     2
 10
264.89999999999998
 20
575.47500000000002
 30
0.0
 11
267.44999999999999
 21
575.47500000000002
 31
0.0
  0
LINE
  5
488
  8
LAY-2
  6
CONTINUOUS
 62
     2
 10
215.40000000000001
 20
575.10000000000002
 30
0.0
 11
218.02500000000001
 21
575.10000000000002
 31
0.0
  0
LINE
  5
489
  8
LAY-2
  6
CONTINUOUS
 62
     2
 10
221.53776500000001
 20
575.10000000000002
 30
0.0
 11
224.591578
 21
575.10000000000002
 31
0.0
  0
LINE
  5
48A
  8
LAY-2
  6
CONTINUOUS
 62
     2
 10
226.29219900000001
 20
575.10000000000002
 30
0.0
 11
231.507801
 21
575.10000000000002
 31
0.0
  0
LINE
  5
48B
  8
LAY-2
  6
CONTINUOUS
 62
     2
 10
233.20842200000001
 20
575.10000000000002
 30
0.0
 11
236.262235
 21
575.10000000000002
 31
0.0
  0
LINE
  5
48C
  8
LAY-2
  6
CONTINUOUS
 62
     2
 10
241.75728100000001
 20
575.10000000000002
 30
0.0
 11
244.65000000000001
 21
575.10000000000002
 31
0.0
  0
LINE
  5
48D
  8
LAY-2
  6
CONTINUOUS
 62
     2
 10
245.92500000000001
 20
575.10000000000002
 30
0.0
 11
248.55000000000001
 21
575.10000000000002
 31
0.0
  0
LINE
  5
48E
  8
LAY-2
  6
CONTINUOUS
 62
     2
 10
257.10000000000002
 20
575.10000000000002
 30
0.0
 11
261.37748199999999
 21
575.10000000000002
 31
0.0
  0
LINE
  5
48F
  8
LAY-2
  6
CONTINUOUS
 62
     2
 10
264.89999999999998
 20
575.10000000000002
 30
0.0
 11
267.44999999999999
 21
575.10000000000002
 31
0.0
  0
LINE
  5
490
  8
LAY-2
  6
CONTINUOUS
 62
     2
 10
215.40000000000001
 20
574.72500000000002
 30
0.0
 11
218.02500000000001
 21
574.72500000000002
 31
0.0
  0
LINE
  5
491
  8
LAY-2
  6
CONTINUOUS
 62
     2
 10
221.39587599999999
 20
574.72500000000002
 30
0.0
 11
224.35336699999999
 21
574.72500000000002
 31
0.0
  0
LINE
  5
492
  8
LAY-2
  6
CONTINUOUS
 62
     2
 10
225.91503800000001
 20
574.72500000000002
 30
0.0
 11
231.884962
 21
574.72500000000002
 31
0.0
  0
LINE
  5
493
  8
LAY-2
  6
CONTINUOUS
 62
     2
 10
233.44663299999999
 20
574.72500000000002
 30
0.0
 11
236.404124
 21
574.72500000000002
 31
0.0
  0
LINE
  5
494
  8
LAY-2
  6
CONTINUOUS
 62
     2
 10
241.419218
 20
574.72500000000002
 30
0.0
 11
244.311938
 21
574.72500000000002
 31
0.0
  0
LINE
  5
495
  8
LAY-2
  6
CONTINUOUS
 62
     2
 10
245.92500000000001
 20
574.72500000000002
 30
0.0
 11
248.55000000000001
 21
574.72500000000002
 31
0.0
  0
LINE
  5
496
  8
LAY-2
  6
CONTINUOUS
 62
     2
 10
257.10000000000002
 20
574.72500000000002
 30
0.0
 11
261.62426499999998
 21
574.72500000000002
 31
0.0
  0
LINE
  5
497
  8
LAY-2
  6
CONTINUOUS
 62
     2
 10
264.89999999999998
 20
574.72500000000002
 30
0.0
 11
267.44999999999999
 21
574.72500000000002
 31
0.0
  0
LINE
  5
498
  8
LAY-2
  6
CONTINUOUS
 62
     2
 10
215.40000000000001
 20
574.35000000000002
 30
0.0
 11
218.02500000000001
 21
574.35000000000002
 31
0.0
  0
LINE
  5
499
  8
LAY-2
  6
CONTINUOUS
 62
     2
 10
221.27504099999999
 20
574.35000000000002
 30
0.0
 11
224.15658400000001
 21
574.35000000000002
 31
0.0
  0
LINE
  5
49A
  8
LAY-2
  6
CONTINUOUS
 62
     2
 10
225.62309200000001
 20
574.35000000000002
 30
0.0
 11
232.176908
 21
574.35000000000002
 31
0.0
  0
LINE
  5
49B
  8
LAY-2
  6
CONTINUOUS
 62
     2
 10
233.643416
 20
574.35000000000002
 30
0.0
 11
236.524959
 21
574.35000000000002
 31
0.0
  0
LINE
  5
49C
  8
LAY-2
  6
CONTINUOUS
 62
     2
 10
241.08115599999999
 20
574.35000000000002
 30
0.0
 11
243.97387599999999
 21
574.35000000000002
 31
0.0
  0
LINE
  5
49D
  8
LAY-2
  6
CONTINUOUS
 62
     2
 10
245.92500000000001
 20
574.35000000000002
 30
0.0
 11
248.55000000000001
 21
574.35000000000002
 31
0.0
  0
LINE
  5
49E
  8
LAY-2
  6
CONTINUOUS
 62
     2
 10
257.10000000000002
 20
574.35000000000002
 30
0.0
 11
259.64999999999998
 21
574.35000000000002
 31
0.0
  0
LINE
  5
49F
  8
LAY-2
  6
CONTINUOUS
 62
     2
 10
259.717555
 20
574.35000000000002
 30
0.0
 11
261.87104799999997
 21
574.35000000000002
 31
0.0
  0
LINE
  5
4A0
  8
LAY-2
  6
CONTINUOUS
 62
     2
 10
264.89999999999998
 20
574.35000000000002
 30
0.0
 11
267.44999999999999
 21
574.35000000000002
 31
0.0
  0
LINE
  5
4A1
  8
LAY-2
  6
CONTINUOUS
 62
     2
 10
215.40000000000001
 20
573.97499999999991
 30
0.0
 11
218.02500000000001
 21
573.97499999999991
 31
0.0
  0
LINE
  5
4A2
  8
LAY-2
  6
CONTINUOUS
 62
     2
 10
221.174272
 20
573.97499999999991
 30
0.0
 11
223.996239
 21
573.97499999999991
 31
0.0
  0
LINE
  5
4A3
  8
LAY-2
  6
CONTINUOUS
 62
     2
 10
225.395004
 20
573.97499999999991
 30
0.0
 11
232.40499600000001
 21
573.97499999999991
 31
0.0
  0
LINE
  5
4A4
  8
LAY-2
  6
CONTINUOUS
 62
     2
 10
233.80376100000001
 20
573.97499999999991
 30
0.0
 11
236.62572800000001
 21
573.97499999999991
 31
0.0
  0
LINE
  5
4A5
  8
LAY-2
  6
CONTINUOUS
 62
     2
 10
240.74309400000001
 20
573.97499999999991
 30
0.0
 11
243.63581400000001
 21
573.97499999999991
 31
0.0
  0
LINE
  5
4A6
  8
LAY-2
  6
CONTINUOUS
 62
     2
 10
245.92500000000001
 20
573.97499999999991
 30
0.0
 11
248.55000000000001
 21
573.97499999999991
 31
0.0
  0
LINE
  5
4A7
  8
LAY-2
  6
CONTINUOUS
 62
     2
 10
257.10000000000002
 20
573.97499999999991
 30
0.0
 11
259.64999999999998
 21
573.97499999999991
 31
0.0
  0
LINE
  5
4A8
  8
LAY-2
  6
CONTINUOUS
 62
     2
 10
259.964338
 20
573.97499999999991
 30
0.0
 11
262.11783100000002
 21
573.97499999999991
 31
0.0
  0
LINE
  5
4A9
  8
LAY-2
  6
CONTINUOUS
 62
     2
 10
264.89999999999998
 20
573.97499999999991
 30
0.0
 11
267.44999999999999
 21
573.97499999999991
 31
0.0
  0
LINE
  5
4AA
  8
LAY-2
  6
CONTINUOUS
 62
     2
 10
215.40000000000001
 20
573.60000000000002
 30
0.0
 11
218.02500000000001
 21
573.60000000000002
 31
0.0
  0
LINE
  5
4AB
  8
LAY-2
  6
CONTINUOUS
 62
     2
 10
221.092792
 20
573.60000000000002
 30
0.0
 11
223.86884699999999
 21
573.60000000000002
 31
0.0
  0
LINE
  5
4AC
  8
LAY-2
  6
CONTINUOUS
 62
     2
 10
225.21888300000001
 20
573.60000000000002
 30
0.0
 11
232.58111700000001
 21
573.60000000000002
 31
0.0
  0
LINE
  5
4AD
  8
LAY-2
  6
CONTINUOUS
 62
     2
 10
233.93115299999999
 20
573.60000000000002
 30
0.0
 11
236.70720800000001
 21
573.60000000000002
 31
0.0
  0
LINE
  5
4AE
  8
LAY-2
  6
CONTINUOUS
 62
     2
 10
240.40503200000001
 20
573.60000000000002
 30
0.0
 11
243.297752
 21
573.60000000000002
 31
0.0
  0
LINE
  5
4AF
  8
LAY-2
  6
CONTINUOUS
 62
     2
 10
245.92500000000001
 20
573.60000000000002
 30
0.0
 11
248.55000000000001
 21
573.60000000000002
 31
0.0
  0
LINE
  5
4B0
  8
LAY-2
  6
CONTINUOUS
 62
     2
 10
257.10000000000002
 20
573.60000000000002
 30
0.0
 11
259.64999999999998
 21
573.60000000000002
 31
0.0
  0
LINE
  5
4B1
  8
LAY-2
  6
CONTINUOUS
 62
     2
 10
260.21112099999999
 20
573.60000000000002
 30
0.0
 11
262.36461400000002
 21
573.60000000000002
 31
0.0
  0
LINE
  5
4B2
  8
LAY-2
  6
CONTINUOUS
 62
     2
 10
264.89999999999998
 20
573.60000000000002
 30
0.0
 11
267.44999999999999
 21
573.60000000000002
 31
0.0
  0
LINE
  5
4B3
  8
LAY-2
  6
CONTINUOUS
 62
     2
 10
215.40000000000001
 20
573.22500000000002
 30
0.0
 11
218.02500000000001
 21
573.22500000000002
 31
0.0
  0
LINE
  5
4B4
  8
LAY-2
  6
CONTINUOUS
 62
     2
 10
221.030002
 20
573.22500000000002
 30
0.0
 11
223.771952
 21
573.22500000000002
 31
0.0
  0
LINE
  5
4B5
  8
LAY-2
  6
CONTINUOUS
 62
     2
 10
225.08752000000001
 20
573.22500000000002
 30
0.0
 11
232.71247999999991
 21
573.22500000000002
 31
0.0
  0
LINE
  5
4B6
  8
LAY-2
  6
CONTINUOUS
 62
     2
 10
234.02804800000001
 20
573.22500000000002
 30
0.0
 11
236.76999799999999
 21
573.22500000000002
 31
0.0
  0
LINE
  5
4B7
  8
LAY-2
  6
CONTINUOUS
 62
     2
 10
240.06697
 20
573.22500000000002
 30
0.0
 11
242.95968999999999
 21
573.22500000000002
 31
0.0
  0
LINE
  5
4B8
  8
LAY-2
  6
CONTINUOUS
 62
     2
 10
245.92500000000001
 20
573.22500000000002
 30
0.0
 11
255.97499999999999
 21
573.22500000000002
 31
0.0
  0
LINE
  5
4B9
  8
LAY-2
  6
CONTINUOUS
 62
     2
 10
257.10000000000002
 20
573.22500000000002
 30
0.0
 11
259.64999999999998
 21
573.22500000000002
 31
0.0
  0
LINE
  5
4BA
  8
LAY-2
  6
CONTINUOUS
 62
     2
 10
260.45790399999998
 20
573.22500000000002
 30
0.0
 11
262.61139700000001
 21
573.22500000000002
 31
0.0
  0
LINE
  5
4BB
  8
LAY-2
  6
CONTINUOUS
 62
     2
 10
264.89999999999998
 20
573.22500000000002
 30
0.0
 11
267.44999999999999
 21
573.22500000000002
 31
0.0
  0
LINE
  5
4BC
  8
LAY-2
  6
CONTINUOUS
 62
     2
 10
215.40000000000001
 20
572.85000000000002
 30
0.0
 11
218.02500000000001
 21
572.85000000000002
 31
0.0
  0
LINE
  5
4BD
  8
LAY-2
  6
CONTINUOUS
 62
     2
 10
220.985456
 20
572.85000000000002
 30
0.0
 11
223.70384799999999
 21
572.85000000000002
 31
0.0
  0
LINE
  5
4BE
  8
LAY-2
  6
CONTINUOUS
 62
     2
 10
224.996396
 20
572.85000000000002
 30
0.0
 11
232.80360400000001
 21
572.85000000000002
 31
0.0
  0
LINE
  5
4BF
  8
LAY-2
  6
CONTINUOUS
 62
     2
 10
234.09615199999999
 20
572.85000000000002
 30
0.0
 11
236.81454400000001
 21
572.85000000000002
 31
0.0
  0
LINE
  5
4C0
  8
LAY-2
  6
CONTINUOUS
 62
     2
 10
239.72890799999999
 20
572.85000000000002
 30
0.0
 11
242.62162699999999
 21
572.85000000000002
 31
0.0
  0
LINE
  5
4C1
  8
LAY-2
  6
CONTINUOUS
 62
     2
 10
245.92500000000001
 20
572.85000000000002
 30
0.0
 11
255.97499999999999
 21
572.85000000000002
 31
0.0
  0
LINE
  5
4C2
  8
LAY-2
  6
CONTINUOUS
 62
     2
 10
257.10000000000002
 20
572.85000000000002
 30
0.0
 11
259.64999999999998
 21
572.85000000000002
 31
0.0
  0
LINE
  5
4C3
  8
LAY-2
  6
CONTINUOUS
 62
     2
 10
260.70468699999998
 20
572.85000000000002
 30
0.0
 11
262.85818
 21
572.85000000000002
 31
0.0
  0
LINE
  5
4C4
  8
LAY-2
  6
CONTINUOUS
 62
     2
 10
264.89999999999998
 20
572.85000000000002
 30
0.0
 11
267.44999999999999
 21
572.85000000000002
 31
0.0
  0
LINE
  5
4C5
  8
LAY-2
  6
CONTINUOUS
 62
     2
 10
215.40000000000001
 20
572.47500000000002
 30
0.0
 11
218.02500000000001
 21
572.47500000000002
 31
0.0
  0
LINE
  5
4C6
  8
LAY-2
  6
CONTINUOUS
 62
     2
 10
220.95884899999999
 20
572.47500000000002
 30
0.0
 11
223.66341
 21
572.47500000000002
 31
0.0
  0
LINE
  5
4C7
  8
LAY-2
  6
CONTINUOUS
 62
     2
 10
224.94272799999999
 20
572.47500000000002
 30
0.0
 11
232.85727199999999
 21
572.47500000000002
 31
0.0
  0
LINE
  5
4C8
  8
LAY-2
  6
CONTINUOUS
 62
     2
 10
234.13659000000001
 20
572.47500000000002
 30
0.0
 11
236.841151
 21
572.47500000000002
 31
0.0
  0
LINE
  5
4C9
  8
LAY-2
  6
CONTINUOUS
 62
     2
 10
239.39084600000001
 20
572.47500000000002
 30
0.0
 11
242.28356500000001
 21
572.47500000000002
 31
0.0
  0
LINE
  5
4CA
  8
LAY-2
  6
CONTINUOUS
 62
     2
 10
245.92500000000001
 20
572.47500000000002
 30
0.0
 11
255.97499999999999
 21
572.47500000000002
 31
0.0
  0
LINE
  5
4CB
  8
LAY-2
  6
CONTINUOUS
 62
     2
 10
257.10000000000002
 20
572.47500000000002
 30
0.0
 11
259.64999999999998
 21
572.47500000000002
 31
0.0
  0
LINE
  5
4CC
  8
LAY-2
  6
CONTINUOUS
 62
     2
 10
260.95147100000003
 20
572.47500000000002
 30
0.0
 11
263.104963
 21
572.47500000000002
 31
0.0
  0
LINE
  5
4CD
  8
LAY-2
  6
CONTINUOUS
 62
     2
 10
264.89999999999998
 20
572.47500000000002
 30
0.0
 11
267.44999999999999
 21
572.47500000000002
 31
0.0
  0
LINE
  5
4CE
  8
LAY-2
  6
CONTINUOUS
 62
     2
 10
215.40000000000001
 20
572.10000000000002
 30
0.0
 11
218.02500000000001
 21
572.10000000000002
 31
0.0
  0
LINE
  5
4CF
  8
LAY-2
  6
CONTINUOUS
 62
     2
 10
220.94999999999999
 20
572.10000000000002
 30
0.0
 11
223.65000000000001
 21
572.10000000000002
 31
0.0
  0
LINE
  5
4D0
  8
LAY-2
  6
CONTINUOUS
 62
     2
 10
224.92500000000001
 20
572.10000000000002
 30
0.0
 11
232.875
 21
572.10000000000002
 31
0.0
  0
LINE
  5
4D1
  8
LAY-2
  6
CONTINUOUS
 62
     2
 10
234.15000000000001
 20
572.10000000000002
 30
0.0
 11
236.84999999999999
 21
572.10000000000002
 31
0.0
  0
LINE
  5
4D2
  8
LAY-2
  6
CONTINUOUS
 62
     2
 10
239.052784
 20
572.10000000000002
 30
0.0
 11
241.945503
 21
572.10000000000002
 31
0.0
  0
LINE
  5
4D3
  8
LAY-2
  6
CONTINUOUS
 62
     2
 10
245.92500000000001
 20
572.10000000000002
 30
0.0
 11
255.97499999999999
 21
572.10000000000002
 31
0.0
  0
LINE
  5
4D4
  8
LAY-2
  6
CONTINUOUS
 62
     2
 10
257.10000000000002
 20
572.10000000000002
 30
0.0
 11
259.64999999999998
 21
572.10000000000002
 31
0.0
  0
LINE
  5
4D5
  8
LAY-2
  6
CONTINUOUS
 62
     2
 10
261.19825400000002
 20
572.10000000000002
 30
0.0
 11
263.35174599999999
 21
572.10000000000002
 31
0.0
  0
LINE
  5
4D6
  8
LAY-2
  6
CONTINUOUS
 62
     2
 10
264.89999999999998
 20
572.10000000000002
 30
0.0
 11
267.44999999999999
 21
572.10000000000002
 31
0.0
  0
LINE
  5
4D7
  8
LAY-2
  6
CONTINUOUS
 62
     2
 10
215.40000000000001
 20
571.72499999999991
 30
0.0
 11
218.02500000000001
 21
571.72499999999991
 31
0.0
  0
LINE
  5
4D8
  8
LAY-2
  6
CONTINUOUS
 62
     2
 10
220.95884899999999
 20
571.72499999999991
 30
0.0
 11
223.66341
 21
571.72499999999991
 31
0.0
  0
LINE
  5
4D9
  8
LAY-2
  6
CONTINUOUS
 62
     2
 10
224.94272799999999
 20
571.72499999999991
 30
0.0
 11
232.85727199999999
 21
571.72499999999991
 31
0.0
  0
LINE
  5
4DA
  8
LAY-2
  6
CONTINUOUS
 62
     2
 10
234.13659000000001
 20
571.72499999999991
 30
0.0
 11
236.841151
 21
571.72499999999991
 31
0.0
  0
LINE
  5
4DB
  8
LAY-2
  6
CONTINUOUS
 62
     2
 10
238.71472199999999
 20
571.72499999999991
 30
0.0
 11
241.60744099999999
 21
571.72499999999991
 31
0.0
  0
LINE
  5
4DC
  8
LAY-2
  6
CONTINUOUS
 62
     2
 10
245.92500000000001
 20
571.72499999999991
 30
0.0
 11
255.97499999999999
 21
571.72499999999991
 31
0.0
  0
LINE
  5
4DD
  8
LAY-2
  6
CONTINUOUS
 62
     2
 10
257.10000000000002
 20
571.72499999999991
 30
0.0
 11
259.64999999999998
 21
571.72499999999991
 31
0.0
  0
LINE
  5
4DE
  8
LAY-2
  6
CONTINUOUS
 62
     2
 10
261.44503700000001
 20
571.72499999999991
 30
0.0
 11
263.59852899999998
 21
571.72499999999991
 31
0.0
  0
LINE
  5
4DF
  8
LAY-2
  6
CONTINUOUS
 62
     2
 10
264.89999999999998
 20
571.72499999999991
 30
0.0
 11
267.44999999999999
 21
571.72499999999991
 31
0.0
  0
LINE
  5
4E0
  8
LAY-2
  6
CONTINUOUS
 62
     2
 10
215.40000000000001
 20
571.35000000000002
 30
0.0
 11
218.02500000000001
 21
571.35000000000002
 31
0.0
  0
LINE
  5
4E1
  8
LAY-2
  6
CONTINUOUS
 62
     2
 10
220.985456
 20
571.35000000000002
 30
0.0
 11
223.70384799999999
 21
571.35000000000002
 31
0.0
  0
LINE
  5
4E2
  8
LAY-2
  6
CONTINUOUS
 62
     2
 10
224.996396
 20
571.35000000000002
 30
0.0
 11
232.80360400000001
 21
571.35000000000002
 31
0.0
  0
LINE
  5
4E3
  8
LAY-2
  6
CONTINUOUS
 62
     2
 10
234.09615199999999
 20
571.35000000000002
 30
0.0
 11
236.81454400000001
 21
571.35000000000002
 31
0.0
  0
LINE
  5
4E4
  8
LAY-2
  6
CONTINUOUS
 62
     2
 10
238.37665999999999
 20
571.35000000000002
 30
0.0
 11
241.26937899999999
 21
571.35000000000002
 31
0.0
  0
LINE
  5
4E5
  8
LAY-2
  6
CONTINUOUS
 62
     2
 10
245.92500000000001
 20
571.35000000000002
 30
0.0
 11
255.97499999999999
 21
571.35000000000002
 31
0.0
  0
LINE
  5
4E6
  8
LAY-2
  6
CONTINUOUS
 62
     2
 10
257.10000000000002
 20
571.35000000000002
 30
0.0
 11
259.64999999999998
 21
571.35000000000002
 31
0.0
  0
LINE
  5
4E7
  8
LAY-2
  6
CONTINUOUS
 62
     2
 10
261.69182000000001
 20
571.35000000000002
 30
0.0
 11
263.84531199999998
 21
571.35000000000002
 31
0.0
  0
LINE
  5
4E8
  8
LAY-2
  6
CONTINUOUS
 62
     2
 10
264.89999999999998
 20
571.35000000000002
 30
0.0
 11
267.44999999999999
 21
571.35000000000002
 31
0.0
  0
LINE
  5
4E9
  8
LAY-2
  6
CONTINUOUS
 62
     2
 10
215.40000000000001
 20
570.97500000000002
 30
0.0
 11
218.02500000000001
 21
570.97500000000002
 31
0.0
  0
LINE
  5
4EA
  8
LAY-2
  6
CONTINUOUS
 62
     2
 10
221.030002
 20
570.97500000000002
 30
0.0
 11
223.771952
 21
570.97500000000002
 31
0.0
  0
LINE
  5
4EB
  8
LAY-2
  6
CONTINUOUS
 62
     2
 10
225.08752000000001
 20
570.97500000000002
 30
0.0
 11
232.71247999999991
 21
570.97500000000002
 31
0.0
  0
LINE
  5
4EC
  8
LAY-2
  6
CONTINUOUS
 62
     2
 10
234.02804800000001
 20
570.97500000000002
 30
0.0
 11
236.76999799999999
 21
570.97500000000002
 31
0.0
  0
LINE
  5
4ED
  8
LAY-2
  6
CONTINUOUS
 62
     2
 10
238.03859700000001
 20
570.97500000000002
 30
0.0
 11
240.93131700000001
 21
570.97500000000002
 31
0.0
  0
LINE
  5
4EE
  8
LAY-2
  6
CONTINUOUS
 62
     2
 10
245.92500000000001
 20
570.97500000000002
 30
0.0
 11
248.55000000000001
 21
570.97500000000002
 31
0.0
  0
LINE
  5
4EF
  8
LAY-2
  6
CONTINUOUS
 62
     2
 10
257.10000000000002
 20
570.97500000000002
 30
0.0
 11
259.64999999999998
 21
570.97500000000002
 31
0.0
  0
LINE
  5
4F0
  8
LAY-2
  6
CONTINUOUS
 62
     2
 10
261.938603
 20
570.97500000000002
 30
0.0
 11
264.09209600000003
 21
570.97500000000002
 31
0.0
  0
LINE
  5
4F1
  8
LAY-2
  6
CONTINUOUS
 62
     2
 10
264.89999999999998
 20
570.97500000000002
 30
0.0
 11
267.44999999999999
 21
570.97500000000002
 31
0.0
  0
LINE
  5
4F2
  8
LAY-2
  6
CONTINUOUS
 62
     2
 10
215.40000000000001
 20
570.60000000000002
 30
0.0
 11
218.02500000000001
 21
570.60000000000002
 31
0.0
  0
LINE
  5
4F3
  8
LAY-2
  6
CONTINUOUS
 62
     2
 10
221.092792
 20
570.60000000000002
 30
0.0
 11
223.86884699999999
 21
570.60000000000002
 31
0.0
  0
LINE
  5
4F4
  8
LAY-2
  6
CONTINUOUS
 62
     2
 10
225.21888300000001
 20
570.60000000000002
 30
0.0
 11
232.58111700000001
 21
570.60000000000002
 31
0.0
  0
LINE
  5
4F5
  8
LAY-2
  6
CONTINUOUS
 62
     2
 10
233.93115299999999
 20
570.60000000000002
 30
0.0
 11
236.70720800000001
 21
570.60000000000002
 31
0.0
  0
LINE
  5
4F6
  8
LAY-2
  6
CONTINUOUS
 62
     2
 10
237.700535
 20
570.60000000000002
 30
0.0
 11
240.593255
 21
570.60000000000002
 31
0.0
  0
LINE
  5
4F7
  8
LAY-2
  6
CONTINUOUS
 62
     2
 10
245.92500000000001
 20
570.60000000000002
 30
0.0
 11
248.55000000000001
 21
570.60000000000002
 31
0.0
  0
LINE
  5
4F8
  8
LAY-2
  6
CONTINUOUS
 62
     2
 10
257.10000000000002
 20
570.60000000000002
 30
0.0
 11
259.64999999999998
 21
570.60000000000002
 31
0.0
  0
LINE
  5
4F9
  8
LAY-2
  6
CONTINUOUS
 62
     2
 10
262.18538599999999
 20
570.60000000000002
 30
0.0
 11
264.33887900000002
 21
570.60000000000002
 31
0.0
  0
LINE
  5
4FA
  8
LAY-2
  6
CONTINUOUS
 62
     2
 10
264.89999999999998
 20
570.60000000000002
 30
0.0
 11
267.44999999999999
 21
570.60000000000002
 31
0.0
  0
LINE
  5
4FB
  8
LAY-2
  6
CONTINUOUS
 62
     2
 10
215.40000000000001
 20
570.22500000000002
 30
0.0
 11
218.02500000000001
 21
570.22500000000002
 31
0.0
  0
LINE
  5
4FC
  8
LAY-2
  6
CONTINUOUS
 62
     2
 10
221.174272
 20
570.22500000000002
 30
0.0
 11
223.996239
 21
570.22500000000002
 31
0.0
  0
LINE
  5
4FD
  8
LAY-2
  6
CONTINUOUS
 62
     2
 10
225.395004
 20
570.22500000000002
 30
0.0
 11
232.40499600000001
 21
570.22500000000002
 31
0.0
  0
LINE
  5
4FE
  8
LAY-2
  6
CONTINUOUS
 62
     2
 10
233.80376100000001
 20
570.22500000000002
 30
0.0
 11
236.62572800000001
 21
570.22500000000002
 31
0.0
  0
LINE
  5
4FF
  8
LAY-2
  6
CONTINUOUS
 62
     2
 10
237.41853399999999
 20
570.22500000000002
 30
0.0
 11
240.25519299999999
 21
570.22500000000002
 31
0.0
  0
LINE
  5
500
  8
LAY-2
  6
CONTINUOUS
 62
     2
 10
245.92500000000001
 20
570.22500000000002
 30
0.0
 11
248.55000000000001
 21
570.22500000000002
 31
0.0
  0
LINE
  5
501
  8
LAY-2
  6
CONTINUOUS
 62
     2
 10
257.10000000000002
 20
570.22500000000002
 30
0.0
 11
259.64999999999998
 21
570.22500000000002
 31
0.0
  0
LINE
  5
502
  8
LAY-2
  6
CONTINUOUS
 62
     2
 10
262.43216899999999
 20
570.22500000000002
 30
0.0
 11
264.58566200000001
 21
570.22500000000002
 31
0.0
  0
LINE
  5
503
  8
LAY-2
  6
CONTINUOUS
 62
     2
 10
264.89999999999998
 20
570.22500000000002
 30
0.0
 11
267.44999999999999
 21
570.22500000000002
 31
0.0
  0
LINE
  5
504
  8
LAY-2
  6
CONTINUOUS
 62
     2
 10
215.40000000000001
 20
569.85000000000002
 30
0.0
 11
218.02500000000001
 21
569.85000000000002
 31
0.0
  0
LINE
  5
505
  8
LAY-2
  6
CONTINUOUS
 62
     2
 10
221.27504099999999
 20
569.85000000000002
 30
0.0
 11
224.15658400000001
 21
569.85000000000002
 31
0.0
  0
LINE
  5
506
  8
LAY-2
  6
CONTINUOUS
 62
     2
 10
225.62309200000001
 20
569.85000000000002
 30
0.0
 11
232.176908
 21
569.85000000000002
 31
0.0
  0
LINE
  5
507
  8
LAY-2
  6
CONTINUOUS
 62
     2
 10
233.643416
 20
569.85000000000002
 30
0.0
 11
236.524959
 21
569.85000000000002
 31
0.0
  0
LINE
  5
508
  8
LAY-2
  6
CONTINUOUS
 62
     2
 10
237.32724999999999
 20
569.85000000000002
 30
0.0
 11
239.91713100000001
 21
569.85000000000002
 31
0.0
  0
LINE
  5
509
  8
LAY-2
  6
CONTINUOUS
 62
     2
 10
245.92500000000001
 20
569.85000000000002
 30
0.0
 11
248.55000000000001
 21
569.85000000000002
 31
0.0
  0
LINE
  5
50A
  8
LAY-2
  6
CONTINUOUS
 62
     2
 10
257.10000000000002
 20
569.85000000000002
 30
0.0
 11
259.64999999999998
 21
569.85000000000002
 31
0.0
  0
LINE
  5
50B
  8
LAY-2
  6
CONTINUOUS
 62
     2
 10
262.67895199999998
 20
569.85000000000002
 30
0.0
 11
264.83244500000001
 21
569.85000000000002
 31
0.0
  0
LINE
  5
50C
  8
LAY-2
  6
CONTINUOUS
 62
     2
 10
264.89999999999998
 20
569.85000000000002
 30
0.0
 11
267.44999999999999
 21
569.85000000000002
 31
0.0
  0
LINE
  5
50D
  8
LAY-2
  6
CONTINUOUS
 62
     2
 10
215.40000000000001
 20
569.47499999999991
 30
0.0
 11
218.02500000000001
 21
569.47499999999991
 31
0.0
  0
LINE
  5
50E
  8
LAY-2
  6
CONTINUOUS
 62
     2
 10
221.39587599999999
 20
569.47499999999991
 30
0.0
 11
224.35336699999999
 21
569.47499999999991
 31
0.0
  0
LINE
  5
50F
  8
LAY-2
  6
CONTINUOUS
 62
     2
 10
225.91503800000001
 20
569.47499999999991
 30
0.0
 11
231.884962
 21
569.47499999999991
 31
0.0
  0
LINE
  5
510
  8
LAY-2
  6
CONTINUOUS
 62
     2
 10
233.44663299999999
 20
569.47499999999991
 30
0.0
 11
236.404124
 21
569.47499999999991
 31
0.0
  0
LINE
  5
511
  8
LAY-2
  6
CONTINUOUS
 62
     2
 10
237.21807799999999
 20
569.47499999999991
 30
0.0
 11
239.579069
 21
569.47499999999991
 31
0.0
  0
LINE
  5
512
  8
LAY-2
  6
CONTINUOUS
 62
     2
 10
245.92500000000001
 20
569.47499999999991
 30
0.0
 11
248.55000000000001
 21
569.47499999999991
 31
0.0
  0
LINE
  5
513
  8
LAY-2
  6
CONTINUOUS
 62
     2
 10
257.10000000000002
 20
569.47499999999991
 30
0.0
 11
259.64999999999998
 21
569.47499999999991
 31
0.0
  0
LINE
  5
514
  8
LAY-2
  6
CONTINUOUS
 62
     2
 10
262.92573499999997
 20
569.47499999999991
 30
0.0
 11
267.44999999999999
 21
569.47499999999991
 31
0.0
  0
LINE
  5
515
  8
LAY-2
  6
CONTINUOUS
 62
     2
 10
215.40000000000001
 20
569.10000000000002
 30
0.0
 11
218.02500000000001
 21
569.10000000000002
 31
0.0
  0
LINE
  5
516
  8
LAY-2
  6
CONTINUOUS
 62
     2
 10
221.53776500000001
 20
569.10000000000002
 30
0.0
 11
224.591578
 21
569.10000000000002
 31
0.0
  0
LINE
  5
517
  8
LAY-2
  6
CONTINUOUS
 62
     2
 10
226.29219900000001
 20
569.10000000000002
 30
0.0
 11
231.507801
 21
569.10000000000002
 31
0.0
  0
LINE
  5
518
  8
LAY-2
  6
CONTINUOUS
 62
     2
 10
233.20842200000001
 20
569.10000000000002
 30
0.0
 11
236.262235
 21
569.10000000000002
 31
0.0
  0
LINE
  5
519
  8
LAY-2
  6
CONTINUOUS
 62
     2
 10
237.09030200000001
 20
569.10000000000002
 30
0.0
 11
244.65000000000001
 21
569.10000000000002
 31
0.0
  0
LINE
  5
51A
  8
LAY-2
  6
CONTINUOUS
 62
     2
 10
245.92500000000001
 20
569.10000000000002
 30
0.0
 11
255.97499999999999
 21
569.10000000000002
 31
0.0
  0
LINE
  5
51B
  8
LAY-2
  6
CONTINUOUS
 62
     2
 10
257.10000000000002
 20
569.10000000000002
 30
0.0
 11
259.64999999999998
 21
569.10000000000002
 31
0.0
  0
LINE
  5
51C
  8
LAY-2
  6
CONTINUOUS
 62
     2
 10
263.17251800000003
 20
569.10000000000002
 30
0.0
 11
267.44999999999999
 21
569.10000000000002
 31
0.0
  0
LINE
  5
51D
  8
LAY-2
  6
CONTINUOUS
 62
     2
 10
215.40000000000001
 20
568.72500000000002
 30
0.0
 11
218.02500000000001
 21
568.72500000000002
 31
0.0
  0
LINE
  5
51E
  8
LAY-2
  6
CONTINUOUS
 62
     2
 10
221.701953
 20
568.72500000000002
 30
0.0
 11
224.87857299999999
 21
568.72500000000002
 31
0.0
  0
LINE
  5
51F
  8
LAY-2
  6
CONTINUOUS
 62
     2
 10
226.80000000000001
 20
568.72500000000002
 30
0.0
 11
231.0
 21
568.72500000000002
 31
0.0
  0
LINE
  5
520
  8
LAY-2
  6
CONTINUOUS
 62
     2
 10
232.92142699999999
 20
568.72500000000002
 30
0.0
 11
236.09804700000001
 21
568.72500000000002
 31
0.0
  0
LINE
  5
521
  8
LAY-2
  6
CONTINUOUS
 62
     2
 10
236.94303600000001
 20
568.72500000000002
 30
0.0
 11
244.65000000000001
 21
568.72500000000002
 31
0.0
  0
LINE
  5
522
  8
LAY-2
  6
CONTINUOUS
 62
     2
 10
245.92500000000001
 20
568.72500000000002
 30
0.0
 11
255.97499999999999
 21
568.72500000000002
 31
0.0
  0
LINE
  5
523
  8
LAY-2
  6
CONTINUOUS
 62
     2
 10
257.10000000000002
 20
568.72500000000002
 30
0.0
 11
259.64999999999998
 21
568.72500000000002
 31
0.0
  0
LINE
  5
524
  8
LAY-2
  6
CONTINUOUS
 62
     2
 10
263.41930100000002
 20
568.72500000000002
 30
0.0
 11
267.44999999999999
 21
568.72500000000002
 31
0.0
  0
LINE
  5
525
  8
LAY-2
  6
CONTINUOUS
 62
     2
 10
215.40000000000001
 20
568.35000000000002
 30
0.0
 11
218.02500000000001
 21
568.35000000000002
 31
0.0
  0
LINE
  5
526
  8
LAY-2
  6
CONTINUOUS
 62
     2
 10
221.890007
 20
568.35000000000002
 30
0.0
 11
225.225765
 21
568.35000000000002
 31
0.0
  0
LINE
  5
527
  8
LAY-2
  6
CONTINUOUS
 62
     2
 10
227.58161999999999
 20
568.35000000000002
 30
0.0
 11
230.21838
 21
568.35000000000002
 31
0.0
  0
LINE
  5
528
  8
LAY-2
  6
CONTINUOUS
 62
     2
 10
232.57423499999999
 20
568.35000000000002
 30
0.0
 11
235.90999299999999
 21
568.35000000000002
 31
0.0
  0
LINE
  5
529
  8
LAY-2
  6
CONTINUOUS
 62
     2
 10
236.77518599999999
 20
568.35000000000002
 30
0.0
 11
244.65000000000001
 21
568.35000000000002
 31
0.0
  0
LINE
  5
52A
  8
LAY-2
  6
CONTINUOUS
 62
     2
 10
245.92500000000001
 20
568.35000000000002
 30
0.0
 11
255.97499999999999
 21
568.35000000000002
 31
0.0
  0
LINE
  5
52B
  8
LAY-2
  6
CONTINUOUS
 62
     2
 10
257.10000000000002
 20
568.35000000000002
 30
0.0
 11
259.64999999999998
 21
568.35000000000002
 31
0.0
  0
LINE
  5
52C
  8
LAY-2
  6
CONTINUOUS
 62
     2
 10
263.66608500000001
 20
568.35000000000002
 30
0.0
 11
267.44999999999999
 21
568.35000000000002
 31
0.0
  0
LINE
  5
52D
  8
LAY-2
  6
CONTINUOUS
 62
     2
 10
215.40000000000001
 20
567.97500000000002
 30
0.0
 11
218.02500000000001
 21
567.97500000000002
 31
0.0
  0
LINE
  5
52E
  8
LAY-2
  6
CONTINUOUS
 62
     2
 10
222.10390699999999
 20
567.97500000000002
 30
0.0
 11
225.65240499999999
 21
567.97500000000002
 31
0.0
  0
LINE
  5
52F
  8
LAY-2
  6
CONTINUOUS
 62
     2
 10
232.147595
 20
567.97500000000002
 30
0.0
 11
235.69609299999999
 21
567.97500000000002
 31
0.0
  0
LINE
  5
530
  8
LAY-2
  6
CONTINUOUS
 62
     2
 10
236.58540300000001
 20
567.97500000000002
 30
0.0
 11
244.65000000000001
 21
567.97500000000002
 31
0.0
  0
LINE
  5
531
  8
LAY-2
  6
CONTINUOUS
 62
     2
 10
245.92500000000001
 20
567.97500000000002
 30
0.0
 11
255.97499999999999
 21
567.97500000000002
 31
0.0
  0
LINE
  5
532
  8
LAY-2
  6
CONTINUOUS
 62
     2
 10
257.10000000000002
 20
567.97500000000002
 30
0.0
 11
259.64999999999998
 21
567.97500000000002
 31
0.0
  0
LINE
  5
533
  8
LAY-2
  6
CONTINUOUS
 62
     2
 10
263.912868
 20
567.97500000000002
 30
0.0
 11
267.44999999999999
 21
567.97500000000002
 31
0.0
  0
LINE
  5
534
  8
LAY-2
  6
CONTINUOUS
 62
     2
 10
215.40000000000001
 20
567.60000000000002
 30
0.0
 11
218.02500000000001
 21
567.60000000000002
 31
0.0
  0
LINE
  5
535
  8
LAY-2
  6
CONTINUOUS
 62
     2
 10
222.34618399999999
 20
567.60000000000002
 30
0.0
 11
226.19583700000001
 21
567.60000000000002
 31
0.0
  0
LINE
  5
536
  8
LAY-2
  6
CONTINUOUS
 62
     2
 10
231.604163
 20
567.60000000000002
 30
0.0
 11
235.45381599999999
 21
567.60000000000002
 31
0.0
  0
LINE
  5
537
  8
LAY-2
  6
CONTINUOUS
 62
     2
 10
236.372018
 20
567.60000000000002
 30
0.0
 11
244.65000000000001
 21
567.60000000000002
 31
0.0
  0
LINE
  5
538
  8
LAY-2
  6
CONTINUOUS
 62
     2
 10
245.92500000000001
 20
567.60000000000002
 30
0.0
 11
255.97499999999999
 21
567.60000000000002
 31
0.0
  0
LINE
  5
539
  8
LAY-2
  6
CONTINUOUS
 62
     2
 10
257.10000000000002
 20
567.60000000000002
 30
0.0
 11
259.64999999999998
 21
567.60000000000002
 31
0.0
  0
LINE
  5
53A
  8
LAY-2
  6
CONTINUOUS
 62
     2
 10
264.159651
 20
567.60000000000002
 30
0.0
 11
267.44999999999999
 21
567.60000000000002
 31
0.0
  0
LINE
  5
53B
  8
LAY-2
  6
CONTINUOUS
 62
     2
 10
215.40000000000001
 20
567.22500000000002
 30
0.0
 11
218.02500000000001
 21
567.22500000000002
 31
0.0
  0
LINE
  5
53C
  8
LAY-2
  6
CONTINUOUS
 62
     2
 10
222.62012100000001
 20
567.22500000000002
 30
0.0
 11
226.95144300000001
 21
567.22500000000002
 31
0.0
  0
LINE
  5
53D
  8
LAY-2
  6
CONTINUOUS
 62
     2
 10
230.848557
 20
567.22500000000002
 30
0.0
 11
235.179879
 21
567.22500000000002
 31
0.0
  0
LINE
  5
53E
  8
LAY-2
  6
CONTINUOUS
 62
     2
 10
236.13293999999999
 20
567.22500000000002
 30
0.0
 11
244.65000000000001
 21
567.22500000000002
 31
0.0
  0
LINE
  5
53F
  8
LAY-2
  6
CONTINUOUS
 62
     2
 10
245.92500000000001
 20
567.22500000000002
 30
0.0
 11
255.97499999999999
 21
567.22500000000002
 31
0.0
  0
LINE
  5
540
  8
LAY-2
  6
CONTINUOUS
 62
     2
 10
257.10000000000002
 20
567.22500000000002
 30
0.0
 11
259.64999999999998
 21
567.22500000000002
 31
0.0
  0
LINE
  5
541
  8
LAY-2
  6
CONTINUOUS
 62
     2
 10
264.40643399999999
 20
567.22500000000002
 30
0.0
 11
267.44999999999999
 21
567.22500000000002
 31
0.0
  0
LINE
  5
542
  8
LAY-2
  6
CONTINUOUS
 62
     2
 10
215.40000000000001
 20
566.85000000000002
 30
0.0
 11
218.02500000000001
 21
566.85000000000002
 31
0.0
  0
LINE
  5
543
  8
LAY-2
  6
CONTINUOUS
 62
     2
 10
222.93007499999999
 20
566.85000000000002
 30
0.0
 11
234.86992499999999
 21
566.85000000000002
 31
0.0
  0
LINE
  5
544
  8
LAY-2
  6
CONTINUOUS
 62
     2
 10
235.86552599999999
 20
566.85000000000002
 30
0.0
 11
244.65000000000001
 21
566.85000000000002
 31
0.0
  0
LINE
  5
545
  8
LAY-2
  6
CONTINUOUS
 62
     2
 10
245.92500000000001
 20
566.85000000000002
 30
0.0
 11
255.97499999999999
 21
566.85000000000002
 31
0.0
  0
LINE
  5
546
  8
LAY-2
  6
CONTINUOUS
 62
     2
 10
257.10000000000002
 20
566.85000000000002
 30
0.0
 11
259.64999999999998
 21
566.85000000000002
 31
0.0
  0
LINE
  5
547
  8
LAY-2
  6
CONTINUOUS
 62
     2
 10
264.65321699999998
 20
566.85000000000002
 30
0.0
 11
267.44999999999999
 21
566.85000000000002
 31
0.0
  0
LINE
  5
548
  8
LAY-2
  6
CONTINUOUS
 62
     2
 10
223.282004
 20
566.47500000000002
 30
0.0
 11
234.51799600000001
 21
566.47500000000002
 31
0.0
  0
LINE
  5
549
  8
LAY-2
  6
CONTINUOUS
 62
     2
 10
223.68439799999999
 20
566.10000000000002
 30
0.0
 11
234.115602
 21
566.10000000000002
 31
0.0
  0
LINE
  5
54A
  8
LAY-2
  6
CONTINUOUS
 62
     2
 10
224.15006600000001
 20
565.72500000000002
 30
0.0
 11
233.649934
 21
565.72500000000002
 31
0.0
  0
LINE
  5
54B
  8
LAY-2
  6
CONTINUOUS
 62
     2
 10
224.69999999999999
 20
565.35000000000002
 30
0.0
 11
233.09999999999999
 21
565.35000000000002
 31
0.0
  0
LINE
  5
54C
  8
LAY-2
  6
CONTINUOUS
 62
     2
 10
225.37340499999999
 20
564.97500000000002
 30
0.0
 11
232.42659499999999
 21
564.97500000000002
 31
0.0
  0
LINE
  5
54D
  8
LAY-2
  6
CONTINUOUS
 62
     2
 10
226.26324099999999
 20
564.59999999999991
 30
0.0
 11
231.53675899999999
 21
564.59999999999991
 31
0.0
  0
LINE
  5
54E
  8
LAY-2
  6
CONTINUOUS
 62
     2
 10
227.810562
 20
564.22500000000002
 30
0.0
 11
229.98943800000001
 21
564.22500000000002
 31
0.0
  0
LINE
  5
54F
  8
LAY-2
  6
CONTINUOUS
 62
     2
 10
55.899999999999991
 20
60.700000000000003
 30
0.0
 11
836.0
 21
60.700000000000003
 31
0.0
  0
LINE
  5
550
  8
LAY-2
  6
CONTINUOUS
 62
     2
 10
836.0
 20
60.700000000000003
 30
0.0
 11
836.0
 21
589.0
 31
0.0
  0
LINE
  5
551
  8
LAY-2
  6
CONTINUOUS
 62
     2
 10
836.0
 20
589.0
 30
0.0
 11
55.899999999999991
 21
589.0
 31
0.0
  0
LINE
  5
552
  8
LAY-2
  6
CONTINUOUS
 62
     2
 10
55.899999999999991
 20
589.0
 30
0.0
 11
55.899999999999991
 21
60.700000000000003
 31
0.0
  0
LINE
  5
553
  8
LAY-2
  6
CONTINUOUS
 62
     2
 10
613.11428599999988
 20
555.70000000000005
 30
0.0
 11
613.11428599999988
 21
60.5
 31
0.0
  0
LINE
  5
554
  8
LAY-2
  6
CONTINUOUS
 62
     2
 10
501.67142899999999
 20
555.70000000000005
 30
0.0
 11
501.67142899999999
 21
60.5
 31
0.0
  0
LINE
  5
555
  8
LAY-2
  6
CONTINUOUS
 62
     2
 10
390.22857099999999
 20
555.70000000000005
 30
0.0
 11
390.22857099999999
 21
61.0
 31
0.0
  0
LINE
  5
556
  8
LAY-2
  6
CONTINUOUS
 62
     2
 10
278.78571399999998
 20
555.70000000000005
 30
0.0
 11
278.78571399999998
 21
61.0
 31
0.0
  0
LINE
  5
557
  8
LAY-2
  6
CONTINUOUS
 62
     2
 10
167.34285700000001
 20
555.70000000000005
 30
0.0
 11
167.34285700000001
 21
61.0
 31
0.0
  0
LINE
  5
558
  8
LAY-2
  6
CONTINUOUS
 62
     2
 10
55.899999999999991
 20
260.69999999999999
 30
0.0
 11
836.0
 21
260.69999999999999
 31
0.0
  0
LINE
  5
559
  8
LAY-2
  6
CONTINUOUS
 62
     2
 10
55.899999999999991
 20
270.69999999999999
 30
0.0
 11
836.0
 21
270.69999999999999
 31
0.0
  0
LINE
  5
55A
  8
LAY-2
  6
CONTINUOUS
 62
     2
 10
55.899999999999991
 20
395.69999999999999
 30
0.0
 11
836.0
 21
395.69999999999999
 31
0.0
  0
LINE
  5
55B
  8
LAY-2
  6
CONTINUOUS
 62
     2
 10
55.899999999999991
 20
405.69999999999999
 30
0.0
 11
836.0
 21
405.69999999999999
 31
0.0
  0
LINE
  5
55C
  8
LAY-2
  6
CONTINUOUS
 62
     2
 10
55.899999999999991
 20
470.69999999999987
 30
0.0
 11
836.0
 21
470.69999999999987
 31
0.0
  0
LINE
  5
55D
  8
LAY-2
  6
CONTINUOUS
 62
     2
 10
55.899999999999991
 20
480.69999999999999
 30
0.0
 11
836.0
 21
480.69999999999999
 31
0.0
  0
LINE
  5
55E
  8
LAY-2
  6
CONTINUOUS
 62
     2
 10
55.899999999999991
 20
545.70000000000005
 30
0.0
 11
836.0
 21
545.70000000000005
 31
0.0
  0
LINE
  5
55F
  8
LAY-2
  6
CONTINUOUS
 62
     2
 10
55.899999999999991
 20
555.70000000000005
 30
0.0
 11
836.0
 21
555.70000000000005
 31
0.0
  0
LINE
  5
560
  8
LAY-2
  6
CONTINUOUS
 62
     2
 10
724.557143
 20
555.70000000000005
 30
0.0
 11
724.557143
 21
270.69999999999999
 31
0.0
  0
TEXT
  5
561
  8
LAY-2
  6
CONTINUOUS
 62
     7
 10
88.121429000000006
 20
548.20000000000005
 30
0.0
 40
5.0
  1
２０Ａ×２５０Ｌ
 41
1.021739130434782
  7
EXCADSTD
 72
     5
 11
135.12142900000001
 21
548.20000000000005
 31
0.0
  0
TEXT
  5
562
  8
LAY-2
  6
CONTINUOUS
 62
     7
 10
199.56428600000001
 20
548.20000000000005
 30
0.0
 40
5.0
  1
２５Ａ×２５０Ｌ
 41
1.021739130434782
  7
EXCADSTD
 72
     5
 11
246.56428600000001
 21
548.20000000000005
 31
0.0
  0
TEXT
  5
563
  8
LAY-2
  6
CONTINUOUS
 62
     7
 10
311.00714299999999
 20
548.20000000000005
 30
0.0
 40
5.0
  1
３２Ａ×２５０Ｌ
 41
1.021739130434782
  7
EXCADSTD
 72
     5
 11
358.00714299999999
 21
548.20000000000005
 31
0.0
  0
TEXT
  5
564
  8
LAY-2
  6
CONTINUOUS
 62
     7
 10
422.44999999999987
 20
548.20000000000005
 30
0.0
 40
5.0
  1
４０Ａ×２５０Ｌ
 41
1.021739130434782
  7
EXCADSTD
 72
     5
 11
469.44999999999987
 21
548.20000000000005
 31
0.0
  0
TEXT
  5
565
  8
LAY-2
  6
CONTINUOUS
 62
     7
 10
533.89285700000005
 20
548.20000000000005
 30
0.0
 40
5.0
  1
５０Ａ×２５０Ｌ
 41
1.021739130434782
  7
EXCADSTD
 72
     5
 11
580.89285700000005
 21
548.20000000000005
 31
0.0
  0
TEXT
  5
566
  8
LAY-2
  6
CONTINUOUS
 62
     7
 10
645.33571399999994
 20
548.20000000000005
 30
0.0
 40
5.0
  1
６５Ａ×２５０Ｌ
 41
1.021739130434782
  7
EXCADSTD
 72
     5
 11
692.33571399999994
 21
548.20000000000005
 31
0.0
  0
TEXT
  5
567
  8
LAY-2
  6
CONTINUOUS
 62
     7
 10
756.77857099999994
 20
548.20000000000005
 30
0.0
 40
5.0
  1
８０Ａ×３００Ｌ
 41
1.021739130434782
  7
EXCADSTD
 72
     5
 11
803.77857099999994
 21
548.20000000000005
 31
0.0
  0
TEXT
  5
568
  8
LAY-2
  6
CONTINUOUS
 62
     7
 10
642.33571399999994
 20
473.19999999999999
 30
0.0
 40
5.0
  1
３００Ａ\U+00d7３５０Ｌ
 41
1.0192307692307689
  7
EXCADSTD
 72
     5
 11
695.33571399999994
 21
473.19999999999999
 31
0.0
  0
TEXT
  5
569
  8
LAY-2
  6
CONTINUOUS
 62
     7
 10
530.89285700000005
 20
473.19999999999999
 30
0.0
 40
5.0
  1
２５０Ａ×３００Ｌ
 41
1.0192307692307689
  7
EXCADSTD
 72
     5
 11
583.89285700000005
 21
473.19999999999999
 31
0.0
  0
TEXT
  5
56A
  8
LAY-2
  6
CONTINUOUS
 62
     7
 10
419.44999999999987
 20
473.19999999999999
 30
0.0
 40
5.0
  1
２００Ａ×３００Ｌ
 41
1.0192307692307689
  7
EXCADSTD
 72
     5
 11
472.44999999999987
 21
473.19999999999999
 31
0.0
  0
TEXT
  5
56B
  8
LAY-2
  6
CONTINUOUS
 62
     7
 10
308.00714299999999
 20
473.19999999999999
 30
0.0
 40
5.0
  1
１５０Ａ×３００Ｌ
 41
1.0192307692307689
  7
EXCADSTD
 72
     5
 11
361.00714299999999
 21
473.19999999999999
 31
0.0
  0
TEXT
  5
56C
  8
LAY-2
  6
CONTINUOUS
 62
     7
 10
196.56428600000001
 20
473.19999999999999
 30
0.0
 40
5.0
  1
１２５Ａ×３００Ｌ
 41
1.0192307692307681
  7
EXCADSTD
 72
     5
 11
249.56428600000001
 21
473.19999999999999
 31
0.0
  0
TEXT
  5
56D
  8
LAY-2
  6
CONTINUOUS
 62
     7
 10
85.121429000000006
 20
473.19999999999999
 30
0.0
 40
5.0
  1
１００Ａ×３００Ｌ
 41
1.0192307692307689
  7
EXCADSTD
 72
     5
 11
138.12142900000001
 21
473.19999999999999
 31
0.0
  0
TEXT
  5
56E
  8
LAY-2
  6
CONTINUOUS
 62
     7
 10
753.77857099999994
 20
473.19999999999999
 30
0.0
 40
5.0
  1
３５０Ａ×３５０Ｌ
 41
1.0192307692307689
  7
EXCADSTD
 72
     5
 11
806.77857099999983
 21
473.19999999999999
 31
0.0
  0
TEXT
  5
56F
  8
LAY-2
  6
CONTINUOUS
 62
     7
 10
308.00714299999999
 20
398.19999999999999
 30
0.0
 40
5.0
  1
５００Ａ×３５０Ｌ
 41
1.0192307692307689
  7
EXCADSTD
 72
     5
 11
361.00714299999999
 21
398.19999999999999
 31
0.0
  0
TEXT
  5
570
  8
LAY-2
  6
CONTINUOUS
 62
     7
 10
196.56428600000001
 20
398.19999999999999
 30
0.0
 40
5.0
  1
４５０Ａ×３５０Ｌ
 41
1.0192307692307681
  7
EXCADSTD
 72
     5
 11
249.56428600000001
 21
398.19999999999999
 31
0.0
  0
TEXT
  5
571
  8
LAY-2
  6
CONTINUOUS
 62
     7
 10
85.121429000000006
 20
398.19999999999999
 30
0.0
 40
5.0
  1
４００Ａ×３５０Ｌ
 41
1.0192307692307689
  7
EXCADSTD
 72
     5
 11
138.12142900000001
 21
398.19999999999999
 31
0.0
  0
TEXT
  5
572
  8
LAY-2
  6
CONTINUOUS
 62
     7
 10
419.44999999999987
 20
398.19999999999999
 30
0.0
 40
5.0
  1
６００Ａ×４００Ｌ
 41
1.0192307692307689
  7
EXCADSTD
 72
     5
 11
472.44999999999987
 21
398.19999999999999
 31
0.0
  0
TEXT
  5
573
  8
LAY-2
  6
CONTINUOUS
 62
     7
 10
530.89285700000005
 20
398.19999999999999
 30
0.0
 40
5.0
  1
７００Ａ×４００Ｌ
 41
1.0192307692307689
  7
EXCADSTD
 72
     5
 11
583.89285700000005
 21
398.19999999999999
 31
0.0
  0
TEXT
  5
574
  8
LAY-2
  6
CONTINUOUS
 62
     7
 10
642.33571399999994
 20
398.19999999999999
 30
0.0
 40
5.0
  1
８００Ａ×４００Ｌ
 41
1.0192307692307689
  7
EXCADSTD
 72
     5
 11
695.33571399999994
 21
398.19999999999999
 31
0.0
  0
TEXT
  5
575
  8
LAY-2
  6
CONTINUOUS
 62
     7
 10
753.77857099999994
 20
398.19999999999999
 30
0.0
 40
5.0
  1
９００Ａ×４００Ｌ
 41
1.0192307692307689
  7
EXCADSTD
 72
     5
 11
806.77857099999983
 21
398.19999999999999
 31
0.0
  0
TEXT
  5
576
  8
LAY-2
  6
CONTINUOUS
 62
     7
 10
82.121429000000006
 20
263.19999999999999
 30
0.0
 40
5.0
  1
１０００Ａ×４５０Ｌ
 41
1.0172413793103441
  7
EXCADSTD
 72
     5
 11
141.12142900000001
 21
263.19999999999999
 31
0.0
  0
TEXT
  5
577
  8
LAY-2
  6
CONTINUOUS
 62
     7
 10
193.56428600000001
 20
263.19999999999999
 30
0.0
 40
5.0
  1
１１００Ａ×４５０Ｌ
 41
1.0172413793103441
  7
EXCADSTD
 72
     5
 11
252.56428600000001
 21
263.19999999999999
 31
0.0
  0
TEXT
  5
578
  8
LAY-2
  6
CONTINUOUS
 62
     7
 10
305.00714299999999
 20
263.19999999999999
 30
0.0
 40
5.0
  1
１２００Ａ×４５０Ｌ
 41
1.0172413793103441
  7
EXCADSTD
 72
     5
 11
364.00714299999999
 21
263.19999999999999
 31
0.0
  0
TEXT
  5
579
  8
LAY-2
  6
CONTINUOUS
 62
     7
 10
416.44999999999999
 20
263.19999999999999
 30
0.0
 40
5.0
  1
１３５０Ａ×４５０Ｌ
 41
1.0172413793103441
  7
EXCADSTD
 72
     5
 11
475.44999999999999
 21
263.19999999999999
 31
0.0
  0
TEXT
  5
57A
  8
LAY-2
  6
CONTINUOUS
 62
     7
 10
527.89285700000005
 20
263.19999999999999
 30
0.0
 40
5.0
  1
１５００Ａ×４５０Ｌ
 41
1.0172413793103441
  7
EXCADSTD
 72
     5
 11
586.89285700000005
 21
263.19999999999999
 31
0.0
  0
LINE
  5
57B
  8
LAY-2
  6
CONTINUOUS
 62
     2
 10
215.40000000000001
 20
575.10000000000002
 30
0.0
 11
215.40000000000001
 21
566.47500000000002
 31
0.0
  0
LINE
  5
57C
  8
LAY-2
  6
CONTINUOUS
 62
     2
 10
218.02500000000001
 20
575.10000000000002
 30
0.0
 11
218.02500000000001
 21
566.47500000000002
 31
0.0
  0
CIRCLE
  5
57D
  8
LAY-2
  6
CONTINUOUS
 62
     2
 10
228.90000000000001
 20
572.10000000000002
 30
0.0
 40
3.9750000000000001
  0
CIRCLE
  5
57E
  8
LAY-2
  6
CONTINUOUS
 62
     2
 10
228.90000000000001
 20
572.10000000000002
 30
0.0
 40
5.25
  0
CIRCLE
  5
57F
  8
LAY-2
  6
CONTINUOUS
 62
     2
 10
228.90000000000001
 20
572.10000000000002
 30
0.0
 40
7.9500000000000002
  0
LINE
  5
580
  8
LAY-2
  6
CONTINUOUS
 62
     2
 10
210.15000000000001
 20
577.72500000000002
 30
0.0
 11
210.15000000000001
 21
575.10000000000002
 31
0.0
  0
LINE
  5
581
  8
LAY-2
  6
CONTINUOUS
 62
     2
 10
215.40000000000001
 20
566.47500000000002
 30
0.0
 11
218.02500000000001
 21
566.47500000000002
 31
0.0
  0
ARC
  5
582
  8
LAY-2
  6
CONTINUOUS
 62
     2
 10
228.90000000000001
 20
572.10000000000002
 30
0.0
 40
8.7224450000000004
 50
139.84272300000001
 51
159.882882
  0
ARC
  5
583
  8
LAY-2
  6
CONTINUOUS
 62
     2
 10
228.90000000000001
 20
572.10000000000002
 30
0.0
 40
8.7224450000000004
 50
20.117118000000001
 51
40.157277000000001
  0
LINE
  5
584
  8
LAY-2
  6
CONTINUOUS
 62
     2
 10
244.65000000000001
 20
569.10000000000002
 30
0.0
 11
244.65000000000001
 21
566.47500000000002
 31
0.0
  0
LINE
  5
585
  8
LAY-2
  6
CONTINUOUS
 62
     2
 10
244.65000000000001
 20
577.72500000000002
 30
0.0
 11
244.65000000000001
 21
575.10000000000002
 31
0.0
  0
ARC
  5
586
  8
LAY-2
  6
CONTINUOUS
 62
     2
 10
228.90000000000001
 20
572.10000000000002
 30
0.0
 40
8.7224450000000004
 50
319.84272299999998
 51
348.13542799999999
  0
LINE
  5
587
  8
LAY-2
  6
CONTINUOUS
 62
     2
 10
244.65000000000001
 20
575.10000000000002
 30
0.0
 11
239.241006
 21
569.10000000000002
 31
0.0
  0
LINE
  5
588
  8
LAY-2
  6
CONTINUOUS
 62
     2
 10
241.75728100000001
 20
575.10000000000002
 30
0.0
 11
237.43610200000001
 21
570.30667300000005
 31
0.0
  0
LINE
  5
589
  8
LAY-2
  6
CONTINUOUS
 62
     2
 10
245.92500000000001
 20
577.72500000000002
 30
0.0
 11
245.92500000000001
 21
566.47500000000002
 31
0.0
  0
LINE
  5
58A
  8
LAY-2
  6
CONTINUOUS
 62
     2
 10
248.55000000000001
 20
570.97500000000002
 30
0.0
 11
255.97499999999999
 21
570.97500000000002
 31
0.0
  0
LINE
  5
58B
  8
LAY-2
  6
CONTINUOUS
 62
     2
 10
257.10000000000002
 20
577.72500000000002
 30
0.0
 11
257.10000000000002
 21
566.47500000000002
 31
0.0
  0
LINE
  5
58C
  8
LAY-2
  6
CONTINUOUS
 62
     2
 10
267.44999999999999
 20
577.72500000000002
 30
0.0
 11
267.44999999999999
 21
566.47500000000002
 31
0.0
  0
LINE
  5
58D
  8
LAY-2
  6
CONTINUOUS
 62
     2
 10
264.89999999999998
 20
566.47500000000002
 30
0.0
 11
259.64999999999998
 21
574.45265400000005
 31
0.0
  0
LINE
  5
58E
  8
LAY-2
  6
CONTINUOUS
 62
     2
 10
259.64999999999998
 20
577.72500000000002
 30
0.0
 11
264.89999999999998
 21
569.74734599999999
 31
0.0
  0
LINE
  5
58F
  8
LAY-2
  6
CONTINUOUS
 62
     2
 10
255.97499999999999
 20
577.72500000000002
 30
0.0
 11
255.97499999999999
 21
575.10000000000002
 31
0.0
  0
LINE
  5
590
  8
LAY-2
  6
CONTINUOUS
 62
     2
 10
255.97499999999999
 20
573.22500000000002
 30
0.0
 11
255.97499999999999
 21
570.97500000000002
 31
0.0
  0
LINE
  5
591
  8
LAY-2
  6
CONTINUOUS
 62
     2
 10
255.97499999999999
 20
569.10000000000002
 30
0.0
 11
255.97499999999999
 21
566.47500000000002
 31
0.0
  0
LINE
  5
592
  8
LAY-2
  6
CONTINUOUS
 62
     2
 10
248.55000000000001
 20
575.10000000000002
 30
0.0
 11
255.97499999999999
 21
575.10000000000002
 31
0.0
  0
LINE
  5
593
  8
LAY-2
  6
CONTINUOUS
 62
     2
 10
248.55000000000001
 20
570.97500000000002
 30
0.0
 11
248.55000000000001
 21
569.10000000000002
 31
0.0
  0
LINE
  5
594
  8
LAY-2
  6
CONTINUOUS
 62
     2
 10
245.92500000000001
 20
566.47500000000002
 30
0.0
 11
255.97499999999999
 21
566.47500000000002
 31
0.0
  0
LINE
  5
595
  8
LAY-2
  6
CONTINUOUS
 62
     2
 10
259.64999999999998
 20
574.45265400000005
 30
0.0
 11
259.64999999999998
 21
566.47500000000002
 31
0.0
  0
LINE
  5
596
  8
LAY-2
  6
CONTINUOUS
 62
     2
 10
257.10000000000002
 20
566.47500000000002
 30
0.0
 11
259.64999999999998
 21
566.47500000000002
 31
0.0
  0
LINE
  5
597
  8
LAY-2
  6
CONTINUOUS
 62
     2
 10
264.89999999999998
 20
566.47500000000002
 30
0.0
 11
267.44999999999999
 21
566.47500000000002
 31
0.0
  0
LINE
  5
598
  8
LAY-2
  6
CONTINUOUS
 62
     2
 10
264.89999999999998
 20
577.72500000000002
 30
0.0
 11
264.89999999999998
 21
569.74734599999999
 31
0.0
  0
LINE
  5
599
  8
LAY-2
  6
CONTINUOUS
 62
     2
 10
210.15000000000001
 20
575.10000000000002
 30
0.0
 11
215.40000000000001
 21
575.10000000000002
 31
0.0
  0
LINE
  5
59A
  8
LAY-2
  6
CONTINUOUS
 62
     2
 10
218.02500000000001
 20
575.10000000000002
 30
0.0
 11
220.709698
 21
575.10000000000002
 31
0.0
  0
LINE
  5
59B
  8
LAY-2
  6
CONTINUOUS
 62
     2
 10
237.09030200000001
 20
575.10000000000002
 30
0.0
 11
241.75728100000001
 21
575.10000000000002
 31
0.0
  0
LINE
  5
59C
  8
LAY-2
  6
CONTINUOUS
 62
     2
 10
235.56636499999999
 20
566.47500000000002
 30
0.0
 11
244.65000000000001
 21
566.47500000000002
 31
0.0
  0
LINE
  5
59D
  8
LAY-2
  6
CONTINUOUS
 62
     2
 10
248.55000000000001
 20
575.10000000000002
 30
0.0
 11
248.55000000000001
 21
573.22500000000002
 31
0.0
  0
TEXT
  5
59E
  8
LAY-2
  6
CONTINUOUS
 62
     7
 10
284.94999999999999
 20
562.34999999999991
 30
0.0
 40
20.0
  1
ＬＳコネクタ　５０ｍｍ偏心用（２山）
 41
0.9091639871382634
  7
EXCADSTD
 72
     5
 11
661.95000000000005
 21
562.34999999999991
 31
0.0
  0
TEXT
  5
5A0
  8
LAY-2
  6
CONTINUOUS
 62
     1
 10
238.05000200000001
 20
1.399999999999999
 30
0.0
 40
11.25
  1
スケールは１／１０となっています。必要に応じてサイズを１０倍して下さい。
 41
0.9927903163580246
  7
EXCADTTF1
 72
     5
 11
760.55000199999995
 21
1.399999999999999
 31
0.0
  0
ENDSEC
  0
EOF
