  0
SECTION
  2
HEADER
  9
$ACADVER
  1
AC1014
  9
$ACADMAINTVER
 70
     0
  9
$DWGCODEPAGE
  3
DOS932
  9
$INSBASE
 10
0.0
 20
0.0
 30
0.0
  9
$EXTMIN
 10
27.1
 20
-43.8
 30
0.0
  9
$EXTMAX
 10
561.350002
 20
672.8
 30
0.0
  9
$LIMMIN
 10
0.0
 20
0.0
  9
$LIMMAX
 10
594.0
 20
420.0
  9
$ORTHOMODE
 70
     0
  9
$REGENMODE
 70
     1
  9
$FILLMODE
 70
     1
  9
$QTEXTMODE
 70
     0
  9
$MIRRTEXT
 70
     1
  9
$DRAGMODE
 70
     2
  9
$LTSCALE
 40
1.0
  9
$OSMODE
 70
     0
  9
$ATTMODE
 70
     1
  9
$TEXTSIZE
 40
0.2
  9
$TRACEWID
 40
0.05
  9
$TEXTSTYLE
  7
STANDARD
  9
$CLAYER
  8
LAY-2
  9
$CELTYPE
  6
CONTINUOUS
  9
$CECOLOR
 62
   256
  9
$CELTSCALE
 40
1.0
  9
$DELOBJ
 70
     1
  9
$DISPSILH
 70
     0
  9
$DIMSCALE
 40
1.0
  9
$DIMASZ
 40
0.18
  9
$DIMEXO
 40
0.0625
  9
$DIMDLI
 40
0.38
  9
$DIMRND
 40
0.0
  9
$DIMDLE
 40
0.0
  9
$DIMEXE
 40
0.18
  9
$DIMTP
 40
0.0
  9
$DIMTM
 40
0.0
  9
$DIMTXT
 40
0.18
  9
$DIMCEN
 40
0.09
  9
$DIMTSZ
 40
0.0
  9
$DIMTOL
 70
     0
  9
$DIMLIM
 70
     0
  9
$DIMTIH
 70
     1
  9
$DIMTOH
 70
     1
  9
$DIMSE1
 70
     0
  9
$DIMSE2
 70
     0
  9
$DIMTAD
 70
     0
  9
$DIMZIN
 70
     0
  9
$DIMBLK
  1

  9
$DIMASO
 70
     1
  9
$DIMSHO
 70
     1
  9
$DIMPOST
  1

  9
$DIMAPOST
  1

  9
$DIMALT
 70
     0
  9
$DIMALTD
 70
     2
  9
$DIMALTF
 40
25.4
  9
$DIMLFAC
 40
1.0
  9
$DIMTOFL
 70
     0
  9
$DIMTVP
 40
0.0
  9
$DIMTIX
 70
     0
  9
$DIMSOXD
 70
     0
  9
$DIMSAH
 70
     0
  9
$DIMBLK1
  1

  9
$DIMBLK2
  1

  9
$DIMSTYLE
  2
STANDARD
  9
$DIMCLRD
 70
     0
  9
$DIMCLRE
 70
     0
  9
$DIMCLRT
 70
     0
  9
$DIMTFAC
 40
1.0
  9
$DIMGAP
 40
0.09
  9
$DIMJUST
 70
     0
  9
$DIMSD1
 70
     0
  9
$DIMSD2
 70
     0
  9
$DIMTOLJ
 70
     1
  9
$DIMTZIN
 70
     0
  9
$DIMALTZ
 70
     0
  9
$DIMALTTZ
 70
     0
  9
$DIMFIT
 70
     3
  9
$DIMUPT
 70
     0
  9
$DIMUNIT
 70
     2
  9
$DIMDEC
 70
     4
  9
$DIMTDEC
 70
     4
  9
$DIMALTU
 70
     2
  9
$DIMALTTD
 70
     2
  9
$DIMTXSTY
  7
STANDARD
  9
$DIMAUNIT
 70
     0
  9
$LUNITS
 70
     2
  9
$LUPREC
 70
     4
  9
$SKETCHINC
 40
0.1
  9
$FILLETRAD
 40
0.0
  9
$AUNITS
 70
     0
  9
$AUPREC
 70
     0
  9
$MENU
  1
acad
  9
$ELEVATION
 40
0.0
  9
$PELEVATION
 40
0.0
  9
$THICKNESS
 40
0.0
  9
$LIMCHECK
 70
     0
  9
$BLIPMODE
 70
     1
  9
$CHAMFERA
 40
0.0
  9
$CHAMFERB
 40
0.0
  9
$CHAMFERC
 40
0.0
  9
$CHAMFERD
 40
0.0
  9
$SKPOLY
 70
     0
  9
$TDCREATE
 40
2453457.967843345
  9
$TDUPDATE
 40
2453457.967843345
  9
$TDINDWG
 40
0.0000000000
  9
$TDUSRTIMER
 40
0.0000000000
  9
$USRTIMER
 70
     1
  9
$ANGBASE
 50
0.0
  9
$ANGDIR
 70
     0
  9
$PDMODE
 70
     0
  9
$PDSIZE
 40
0.0
  9
$PLINEWID
 40
0.0
  9
$COORDS
 70
     1
  9
$SPLFRAME
 70
     0
  9
$SPLINETYPE
 70
     6
  9
$SPLINESEGS
 70
     8
  9
$ATTDIA
 70
     0
  9
$ATTREQ
 70
     1
  9
$HANDLING
 70
     1
  9
$HANDSEED
  5
421
  9
$SURFTAB1
 70
     6
  9
$SURFTAB2
 70
     6
  9
$SURFTYPE
 70
     6
  9
$SURFU
 70
     6
  9
$SURFV
 70
     6
  9
$UCSNAME
  2

  9
$UCSORG
 10
0.0
 20
0.0
 30
0.0
  9
$UCSXDIR
 10
1.0
 20
0.0
 30
0.0
  9
$UCSYDIR
 10
0.0
 20
1.0
 30
0.0
  9
$PUCSNAME
  2

  9
$PUCSORG
 10
0.0
 20
0.0
 30
0.0
  9
$PUCSXDIR
 10
1.0
 20
0.0
 30
0.0
  9
$PUCSYDIR
 10
0.0
 20
1.0
 30
0.0
  9
$USERI1
 70
     0
  9
$USERI2
 70
     0
  9
$USERI3
 70
     0
  9
$USERI4
 70
     0
  9
$USERI5
 70
     0
  9
$USERR1
 40
0.0
  9
$USERR2
 40
0.0
  9
$USERR3
 40
0.0
  9
$USERR4
 40
0.0
  9
$USERR5
 40
0.0
  9
$WORLDVIEW
 70
     1
  9
$SHADEDGE
 70
     3
  9
$SHADEDIF
 70
    70
  9
$TILEMODE
 70
     1
  9
$MAXACTVP
 70
    16
  9
$PINSBASE
 10
0.0
 20
0.0
 30
0.0
  9
$PLIMCHECK
 70
     0
  9
$PEXTMIN
 10
1.000000E+20
 20
1.000000E+20
 30
1.000000E+20
  9
$PEXTMAX
 10
-1.000000E+20
 20
-1.000000E+20
 30
-1.000000E+20
  9
$PLIMMIN
 10
0.0
 20
0.0
  9
$PLIMMAX
 10
12.0
 20
9.0
  9
$UNITMODE
 70
     0
  9
$VISRETAIN
 70
     0
  9
$PLINEGEN
 70
     1
  9
$PSLTSCALE
 70
     0
  9
$TREEDEPTH
 70
  3020
  9
$PICKSTYLE
 70
     1
  9
$CMLSTYLE
  2
Standard
  9
$CMLJUST
 70
     0
  9
$CMLSCALE
 40
1.0
  9
$PROXYGRAPHICS
 70
     0
  9
$MEASUREMENT
 70
     0
  0
ENDSEC
  0
SECTION
  2
CLASSES
  0
CLASS
  1
LWPOLYLINE
  2
AcDbPolyline
  3
"AutoCAD"
 90
        0
280
     0
281
     1
  0
CLASS
  1
IMAGE
  2
AcDbRasterImage
  3
ISM
 90
      127
280
     0
281
     1
  0
CLASS
  1
OLE2FRAME
  2
AcDbOle2Frame
  3
""
 90
        0
280
     0
281
     1
  0
CLASS
  1
HATCH
  2
AcDbHatch
  3
"ACAD_SEDONA"
 90
        0
280
     0
281
     1
  0
CLASS
  1
DICTIONARYVAR
  2
AcDbDictionaryVar
  3
"AutoCAD"
 90
        0
280
     0
281
     0
  0
CLASS
  1
RASTERVARIABLES
  2
AcDbRasterVariables
  3
ISM
 90
        0
280
     0
281
     0
  0
CLASS
  1
IMAGEDEF
  2
AcDbRasterImageDef
  3
ISM
 90
        0
280
     0
281
     0
  0
CLASS
  1
IMAGEDEF_REACTOR
  2
AcDbRasterImageDefReactor
  3
ISM
 90
        1
280
     0
281
     0
  0
CLASS
  1
IDBUFFER
  2
AcDbIdBuffer
  3
"Acad"
 90
        0
280
     0
281
     0
  0
CLASS
  1
SPATIAL_FILTER
  2
AcDbSpatialFilter
  3
"Acad"
 90
        0
280
     0
281
     0
  0
CLASS
  1
XRECORD
  2
AcDbXrecord
  3
"<Built In>"
 90
        0
280
     0
281
     0
  0
CLASS
  1
SORTENTSTABLE
  2
AcDbSortentsTable
  3
"AutoCAD"
 90
        0
280
     0
281
     0
  0
CLASS
  1
LAYER_INDEX
  2
AcDbLayerIndex
  3
"Acad"
 90
        0
280
     0
281
     0
  0
CLASS
  1
SPATIAL_INDEX
  2
AcDbSpatialIndex
  3
"Acad"
 90
        0
280
     0
281
     0
  0
CLASS
  1
OBJECT_PTR
  2
CAseDLPNTableRecord
  3
"ASE-LPNTableRecord"
 90
        1
280
     0
281
     0
  0
CLASS
  1
LAYOUT
  2
AcDbLayout
  3
"AutoCAD 2000"
 90
        1
280
     0
281
     0
  0
CLASS
  1
PLOTSETTINGS
  2
AcDbPlotSettings
  3
"AutoCAD 2000"
 90
        1
280
     0
281
     0
  0
CLASS
  1
ACDBDICTIONARYWDFLT
  2
AcDbDictionaryWithDefault
  3
"AutoCAD 2000"
 90
        1
280
     0
281
     0
  0
CLASS
  1
ACDBPLACEHOLDER
  2
AcDbPlaceHolder
  3
"AutoCAD 2000"
 90
        1
280
     0
281
     0
  0
CLASS
  1
VBA_PROJECT
  2
AcDbVbaProject
  3
"acadvba"
 90
        1
280
     0
281
     0
  0
CLASS
  1
WIPEOUT
  2
AcDbWipeout
  3
WipeOut|AutoCAD Express Tool|expresstools@autodesk.com
 90
      127
280
     0
281
     1
  0
CLASS
  1
WIPEOUTVARIABLES
  2
AcDbWipeoutVariables
  3
WipeOut|AutoCAD Express Tool|expresstools@autodesk.com
 90
        0
280
     0
281
     0
  0
CLASS
  1
RTEXT
  2
RText
  3
RText|AutoCAD Express Tool|expresstools@autodesk.com
 90
        0
280
     0
281
     1
  0
CLASS
  1
ARCALIGNEDTEXT
  2
AcDbArcAlignedText
  3
ATEXT|AutoCAD Express Tool|expresstools@autodesk.com
 90
        0
280
     0
281
     1
  0
ENDSEC
  0
SECTION
  2
TABLES
  0
TABLE
  2
VPORT
  5
7
100
AcDbSymbolTable
 70
     1
  0
VPORT
  5
15
100
AcDbSymbolTableRecord
100
AcDbViewportTableRecord
  2
*ACTIVE
 70
     0
 10
0.0
 20
0.0
 11
1.0
 21
1.0
 12
294.225001
 22
314.5
 13
0.0
 23
0.0
 14
1.0
 24
1.0
 15
0.0
 25
0.0
 16
0.0
 26
0.0
 36
1.0
 17
0.0
 27
0.0
 37
0.0
 40
716.6
 41
1.722533
 42
50.0
 43
0.0
 44
0.0
 50
0.0
 51
0.0
 71
     0
 72
   100
 73
     1
 74
     1
 75
     0
 76
     0
 77
     0
 78
     0
  0
ENDTAB
  0
TABLE
  2
LTYPE
  5
4
100
AcDbSymbolTable
 70
     9
  0
LTYPE
  5
11
100
AcDbSymbolTableRecord
100
AcDbLinetypeTableRecord
  2
BYBLOCK
 70
    64
  3

 72
    65
 73
     0
 40
0.0
  0
LTYPE
  5
12
100
AcDbSymbolTableRecord
100
AcDbLinetypeTableRecord
  2
BYLAYER
 70
    64
  3

 72
    65
 73
     0
 40
0.0
  0
LTYPE
  5
13
100
AcDbSymbolTableRecord
100
AcDbLinetypeTableRecord
  2
CONTINUOUS
 70
    64
  3
実線
 72
    65
 73
     0
 40
0.0
  0
LTYPE
  5
1D
100
AcDbSymbolTableRecord
100
AcDbLinetypeTableRecord
  2
EXLTYPE1
 70
    64
  3
破線
 72
    65
 73
     2
 40
4.0
 49
3.0
 74
     0
 49
-1.0
 74
     0
  0
LTYPE
  5
1E
100
AcDbSymbolTableRecord
100
AcDbLinetypeTableRecord
  2
EXLTYPE2
 70
    64
  3
点線
 72
    65
 73
     2
 40
2.0
 49
1.0
 74
     0
 49
-1.0
 74
     0
  0
LTYPE
  5
1F
100
AcDbSymbolTableRecord
100
AcDbLinetypeTableRecord
  2
EXLTYPE3
 70
    64
  3
一点鎖線
 72
    65
 73
     4
 40
33.0
 49
30.0
 74
     0
 49
-1.0
 74
     0
 49
1.0
 74
     0
 49
-1.0
 74
     0
  0
LTYPE
  5
20
100
AcDbSymbolTableRecord
100
AcDbLinetypeTableRecord
  2
EXLTYPE4
 70
    64
  3
二点鎖線
 72
    65
 73
     6
 40
35.0
 49
30.0
 74
     0
 49
-1.0
 74
     0
 49
1.0
 74
     0
 49
-1.0
 74
     0
 49
1.0
 74
     0
 49
-1.0
 74
     0
  0
LTYPE
  5
21
100
AcDbSymbolTableRecord
100
AcDbLinetypeTableRecord
  2
EXLTYPE5
 70
    64
  3
三点鎖線
 72
    65
 73
     8
 40
37.0
 49
30.0
 74
     0
 49
-1.0
 74
     0
 49
1.0
 74
     0
 49
-1.0
 74
     0
 49
1.0
 74
     0
 49
-1.0
 74
     0
 49
1.0
 74
     0
 49
-1.0
 74
     0
  0
LTYPE
  5
22
100
AcDbSymbolTableRecord
100
AcDbLinetypeTableRecord
  2
EXLTYPE6
 70
    64
  3
四点鎖線
 72
    65
 73
    10
 40
39.0
 49
30.0
 74
     0
 49
-1.0
 74
     0
 49
1.0
 74
     0
 49
-1.0
 74
     0
 49
1.0
 74
     0
 49
-1.0
 74
     0
 49
1.0
 74
     0
 49
-1.0
 74
     0
 49
1.0
 74
     0
 49
-1.0
 74
     0
  0
ENDTAB
  0
TABLE
  2
LAYER
  5
2
100
AcDbSymbolTable
 70
     3
  0
LAYER
  5
14
100
AcDbSymbolTableRecord
100
AcDbLayerTableRecord
  2
0
 70
     0
 62
     7
  6
CONTINUOUS
  0
LAYER
  5
25
100
AcDbSymbolTableRecord
100
AcDbLayerTableRecord
  2
LAY-1
 70
    64
 62
     7
  6
CONTINUOUS
  0
LAYER
  5
26
100
AcDbSymbolTableRecord
100
AcDbLayerTableRecord
  2
LAY-2
 70
    64
 62
     7
  6
CONTINUOUS
  0
ENDTAB
  0
TABLE
  2
STYLE
  5
3
100
AcDbSymbolTable
 70
     4
  0
STYLE
  5
17
100
AcDbSymbolTableRecord
100
AcDbTextStyleTableRecord
  2
STANDARD
 70
     0
 40
0.0
 41
1.0
 50
0.0
 71
     0
 42
0.0
  3
monotxt
  4
extfont
  0
STYLE
  5
23
100
AcDbSymbolTableRecord
100
AcDbTextStyleTableRecord
  2
EXCADSTD
 70
    64
 40
0.0
 41
1.0
 50
0.0
 71
     0
 42
0.2
  3
monotxt
  4
extfont
  0
STYLE
  5
24
100
AcDbSymbolTableRecord
100
AcDbTextStyleTableRecord
  2
EXCADVERT
 70
    68
 40
0.0
 41
1.0
 50
0.0
 71
     0
 42
0.286885
  3
monotxt
  4
extfont
  0
STYLE
  5
41F
100
AcDbSymbolTableRecord
100
AcDbTextStyleTableRecord
  2
EXCADTTF1
 70
    64
 40
0.0
 41
1.0
 50
0.0
 71
     0
 42
0.2
  3
MS Gothic.ttf
  4

1001
ACAD
1000
MS Gothic
1071
    32817
  0
ENDTAB
  0
TABLE
  2
VIEW
  5
5
100
AcDbSymbolTable
 70
     0
  0
ENDTAB
  0
TABLE
  2
UCS
  5
6
100
AcDbSymbolTable
 70
     0
  0
ENDTAB
  0
TABLE
  2
APPID
  5
8
100
AcDbSymbolTable
 70
     1
  0
APPID
  5
16
100
AcDbSymbolTableRecord
100
AcDbRegAppTableRecord
  2
ACAD
 70
     0
  0
ENDTAB
  0
TABLE
  2
DIMSTYLE
  5
9
100
AcDbSymbolTable
 70
     1
  0
DIMSTYLE
105
18
100
AcDbSymbolTableRecord
100
AcDbDimStyleTableRecord
  2
STANDARD
 70
     0
  3

  4

  5

  6

  7

 40
1.0
 41
0.18
 42
0.0625
 43
0.38
 44
0.18
 45
0.0
 46
0.0
 47
0.0
 48
0.0
 71
     0
 72
     0
 73
     1
 74
     1
 75
     0
 76
     0
 77
     0
 78
     0
140
0.18
141
0.09
142
0.0
143
25.4
144
1.0
145
0.0
146
1.0
147
0.09
170
     0
171
     2
172
     0
173
     0
174
     0
175
     0
176
     0
177
     0
178
     0
270
     2
271
     4
272
     4
273
     2
274
     2
275
     0
280
     0
281
     0
282
     0
283
     1
284
     0
285
     0
286
     0
287
     0
288
     0
340
17
  0
ENDTAB
  0
TABLE
  2
BLOCK_RECORD
  5
1
100
AcDbSymbolTable
 70
    14
  0
BLOCK_RECORD
  5
A
100
AcDbSymbolTableRecord
100
AcDbBlockTableRecord
  2
*MODEL_SPACE
  0
BLOCK_RECORD
  5
B
100
AcDbSymbolTableRecord
100
AcDbBlockTableRecord
  2
*PAPER_SPACE
  0
BLOCK_RECORD
  5
27
100
AcDbSymbolTableRecord
100
AcDbBlockTableRecord
  2
_EX_NORM
  0
BLOCK_RECORD
  5
28
100
AcDbSymbolTableRecord
100
AcDbBlockTableRecord
  2
_EX_BNORM
  0
BLOCK_RECORD
  5
29
100
AcDbSymbolTableRecord
100
AcDbBlockTableRecord
  2
_EX_BCIR
  0
BLOCK_RECORD
  5
2A
100
AcDbSymbolTableRecord
100
AcDbBlockTableRecord
  2
_EX_RCIVIL
  0
BLOCK_RECORD
  5
2B
100
AcDbSymbolTableRecord
100
AcDbBlockTableRecord
  2
_EX_SLANT
  0
BLOCK_RECORD
  5
2C
100
AcDbSymbolTableRecord
100
AcDbBlockTableRecord
  2
_EX_NONE
  0
BLOCK_RECORD
  5
2D
100
AcDbSymbolTableRecord
100
AcDbBlockTableRecord
  2
_EX_CIVIL
  0
BLOCK_RECORD
  5
2E
100
AcDbSymbolTableRecord
100
AcDbBlockTableRecord
  2
_EX_WCIR
  0
BLOCK_RECORD
  5
2F
100
AcDbSymbolTableRecord
100
AcDbBlockTableRecord
  2
_EX_WCIR2
  0
BLOCK_RECORD
  5
30
100
AcDbSymbolTableRecord
100
AcDbBlockTableRecord
  2
_EX_WNORM
  0
BLOCK_RECORD
  5
31
100
AcDbSymbolTableRecord
100
AcDbBlockTableRecord
  2
_EX_NNORM
  0
BLOCK_RECORD
  5
32
100
AcDbSymbolTableRecord
100
AcDbBlockTableRecord
  2
_EX_BBOX
  0
BLOCK_RECORD
  5
33
100
AcDbSymbolTableRecord
100
AcDbBlockTableRecord
  2
_EX_WBOX
  0
BLOCK_RECORD
  5
34
100
AcDbSymbolTableRecord
100
AcDbBlockTableRecord
  2
_EX_INTEGRAL
  0
ENDTAB
  0
ENDSEC
  0
SECTION
  2
BLOCKS
  0
BLOCK
  5
D
100
AcDbEntity
  8
0
100
AcDbBlockBegin
  2
*MODEL_SPACE
 70
     0
 10
0.0
 20
0.0
 30
0.0
  3
*MODEL_SPACE
  1

  0
ENDBLK
  5
E
100
AcDbEntity
  8
0
100
AcDbBlockEnd
  0
BLOCK
  5
F
100
AcDbEntity
 67
     1
  8
0
100
AcDbBlockBegin
  2
*PAPER_SPACE
 70
     0
 10
0.0
 20
0.0
 30
0.0
  3
*PAPER_SPACE
  1

  0
ENDBLK
  5
10
100
AcDbEntity
 67
     1
  8
0
100
AcDbBlockEnd
  0
BLOCK
  5
35
100
AcDbEntity
  8
0
100
AcDbBlockBegin
  2
_EX_NORM
 70
     0
 10
0.0
 20
0.0
 30
0.0
  3
_EX_NORM
  1

  0
LINE
  5
36
100
AcDbEntity
  8
0
  6
CONTINUOUS
 62
     0
100
AcDbLine
 10
0.0
 20
0.0
 30
0.0
 11
-1.0
 21
0.0
 31
0.0
  0
LINE
  5
37
100
AcDbEntity
  8
0
  6
CONTINUOUS
 62
     0
100
AcDbLine
 10
0.0
 20
0.0
 30
0.0
 11
-1.0
 21
0.166667
 31
0.0
  0
LINE
  5
38
100
AcDbEntity
  8
0
  6
CONTINUOUS
 62
     0
100
AcDbLine
 10
0.0
 20
0.0
 30
0.0
 11
-1.0
 21
-0.166667
 31
0.0
  0
ENDBLK
  5
39
100
AcDbEntity
  8
0
100
AcDbBlockEnd
  0
BLOCK
  5
3A
100
AcDbEntity
  8
0
100
AcDbBlockBegin
  2
_EX_BNORM
 70
     0
 10
0.0
 20
0.0
 30
0.0
  3
_EX_BNORM
  1

  0
LINE
  5
3B
100
AcDbEntity
  8
0
  6
CONTINUOUS
 62
     0
100
AcDbLine
 10
0.0
 20
0.0
 30
0.0
 11
-1.0
 21
0.0
 31
0.0
  0
LINE
  5
3C
100
AcDbEntity
  8
0
  6
CONTINUOUS
 62
     0
100
AcDbLine
 10
0.0
 20
0.0
 30
0.0
 11
-1.0
 21
0.166667
 31
0.0
  0
LINE
  5
3D
100
AcDbEntity
  8
0
  6
CONTINUOUS
 62
     0
100
AcDbLine
 10
0.0
 20
0.0
 30
0.0
 11
-1.0
 21
-0.166667
 31
0.0
  0
LINE
  5
3E
100
AcDbEntity
  8
0
  6
CONTINUOUS
 62
     0
100
AcDbLine
 10
0.0
 20
0.0
 30
0.0
 11
-1.0
 21
0.083333
 31
0.0
  0
LINE
  5
3F
100
AcDbEntity
  8
0
  6
CONTINUOUS
 62
     0
100
AcDbLine
 10
0.0
 20
0.0
 30
0.0
 11
-1.0
 21
-0.083333
 31
0.0
  0
LINE
  5
40
100
AcDbEntity
  8
0
  6
CONTINUOUS
 62
     0
100
AcDbLine
 10
-1.0
 20
0.166667
 30
0.0
 11
-1.0
 21
-0.166667
 31
0.0
  0
ENDBLK
  5
41
100
AcDbEntity
  8
0
100
AcDbBlockEnd
  0
BLOCK
  5
42
100
AcDbEntity
  8
0
100
AcDbBlockBegin
  2
_EX_BCIR
 70
     0
 10
0.0
 20
0.0
 30
0.0
  3
_EX_BCIR
  1

  0
LINE
  5
43
100
AcDbEntity
  8
0
  6
CONTINUOUS
 62
     0
100
AcDbLine
 10
0.0
 20
0.0
 30
0.0
 11
-1.0
 21
0.0
 31
0.0
  0
CIRCLE
  5
44
100
AcDbEntity
  8
0
  6
CONTINUOUS
 62
     0
100
AcDbCircle
 10
0.0
 20
0.0
 30
0.0
 40
0.5
  0
CIRCLE
  5
45
100
AcDbEntity
  8
0
  6
CONTINUOUS
 62
     0
100
AcDbCircle
 10
0.0
 20
0.0
 30
0.0
 40
0.25
  0
ENDBLK
  5
46
100
AcDbEntity
  8
0
100
AcDbBlockEnd
  0
BLOCK
  5
47
100
AcDbEntity
  8
0
100
AcDbBlockBegin
  2
_EX_RCIVIL
 70
     0
 10
0.0
 20
0.0
 30
0.0
  3
_EX_RCIVIL
  1

  0
LINE
  5
48
100
AcDbEntity
  8
0
  6
CONTINUOUS
 62
     0
100
AcDbLine
 10
0.0
 20
0.0
 30
0.0
 11
-1.0
 21
0.0
 31
0.0
  0
LINE
  5
49
100
AcDbEntity
  8
0
  6
CONTINUOUS
 62
     0
100
AcDbLine
 10
-1.0
 20
-0.25
 30
0.0
 11
0.0
 21
-0.25
 31
0.0
  0
LINE
  5
4A
100
AcDbEntity
  8
0
  6
CONTINUOUS
 62
     0
100
AcDbLine
 10
-1.0
 20
-0.125
 30
0.0
 11
0.0
 21
-0.125
 31
0.0
  0
ENDBLK
  5
4B
100
AcDbEntity
  8
0
100
AcDbBlockEnd
  0
BLOCK
  5
4C
100
AcDbEntity
  8
0
100
AcDbBlockBegin
  2
_EX_SLANT
 70
     0
 10
0.0
 20
0.0
 30
0.0
  3
_EX_SLANT
  1

  0
LINE
  5
4D
100
AcDbEntity
  8
0
  6
CONTINUOUS
 62
     0
100
AcDbLine
 10
0.0
 20
0.0
 30
0.0
 11
-1.0
 21
0.0
 31
0.0
  0
LINE
  5
4E
100
AcDbEntity
  8
0
  6
CONTINUOUS
 62
     0
100
AcDbLine
 10
0.707107
 20
0.707107
 30
0.0
 11
-0.707107
 21
-0.707107
 31
0.0
  0
ENDBLK
  5
4F
100
AcDbEntity
  8
0
100
AcDbBlockEnd
  0
BLOCK
  5
50
100
AcDbEntity
  8
0
100
AcDbBlockBegin
  2
_EX_NONE
 70
     0
 10
0.0
 20
0.0
 30
0.0
  3
_EX_NONE
  1

  0
LINE
  5
51
100
AcDbEntity
  8
0
  6
CONTINUOUS
 62
     0
100
AcDbLine
 10
0.0
 20
0.0
 30
0.0
 11
-1.0
 21
0.0
 31
0.0
  0
ENDBLK
  5
52
100
AcDbEntity
  8
0
100
AcDbBlockEnd
  0
BLOCK
  5
53
100
AcDbEntity
  8
0
100
AcDbBlockBegin
  2
_EX_CIVIL
 70
     0
 10
0.0
 20
0.0
 30
0.0
  3
_EX_CIVIL
  1

  0
LINE
  5
54
100
AcDbEntity
  8
0
  6
CONTINUOUS
 62
     0
100
AcDbLine
 10
0.0
 20
0.0
 30
0.0
 11
-1.0
 21
0.0
 31
0.0
  0
LINE
  5
55
100
AcDbEntity
  8
0
  6
CONTINUOUS
 62
     0
100
AcDbLine
 10
-1.0
 20
0.25
 30
0.0
 11
0.0
 21
0.25
 31
0.0
  0
LINE
  5
56
100
AcDbEntity
  8
0
  6
CONTINUOUS
 62
     0
100
AcDbLine
 10
-1.0
 20
0.125
 30
0.0
 11
0.0
 21
0.125
 31
0.0
  0
ENDBLK
  5
57
100
AcDbEntity
  8
0
100
AcDbBlockEnd
  0
BLOCK
  5
58
100
AcDbEntity
  8
0
100
AcDbBlockBegin
  2
_EX_WCIR
 70
     0
 10
0.0
 20
0.0
 30
0.0
  3
_EX_WCIR
  1

  0
LINE
  5
59
100
AcDbEntity
  8
0
  6
CONTINUOUS
 62
     0
100
AcDbLine
 10
0.0
 20
0.0
 30
0.0
 11
-1.0
 21
0.0
 31
0.0
  0
CIRCLE
  5
5A
100
AcDbEntity
  8
0
  6
CONTINUOUS
 62
     0
100
AcDbCircle
 10
0.0
 20
0.0
 30
0.0
 40
0.5
  0
ENDBLK
  5
5B
100
AcDbEntity
  8
0
100
AcDbBlockEnd
  0
BLOCK
  5
5C
100
AcDbEntity
  8
0
100
AcDbBlockBegin
  2
_EX_WCIR2
 70
     0
 10
0.0
 20
0.0
 30
0.0
  3
_EX_WCIR2
  1

  0
LINE
  5
5D
100
AcDbEntity
  8
0
  6
CONTINUOUS
 62
     0
100
AcDbLine
 10
-0.5
 20
0.0
 30
0.0
 11
-1.0
 21
0.0
 31
0.0
  0
CIRCLE
  5
5E
100
AcDbEntity
  8
0
  6
CONTINUOUS
 62
     0
100
AcDbCircle
 10
0.0
 20
0.0
 30
0.0
 40
0.5
  0
ENDBLK
  5
5F
100
AcDbEntity
  8
0
100
AcDbBlockEnd
  0
BLOCK
  5
60
100
AcDbEntity
  8
0
100
AcDbBlockBegin
  2
_EX_WNORM
 70
     0
 10
0.0
 20
0.0
 30
0.0
  3
_EX_WNORM
  1

  0
LINE
  5
61
100
AcDbEntity
  8
0
  6
CONTINUOUS
 62
     0
100
AcDbLine
 10
-1.0
 20
0.0
 30
0.0
 11
-1.0
 21
0.0
 31
0.0
  0
LINE
  5
62
100
AcDbEntity
  8
0
  6
CONTINUOUS
 62
     0
100
AcDbLine
 10
0.0
 20
0.0
 30
0.0
 11
-1.0
 21
0.166667
 31
0.0
  0
LINE
  5
63
100
AcDbEntity
  8
0
  6
CONTINUOUS
 62
     0
100
AcDbLine
 10
0.0
 20
0.0
 30
0.0
 11
-1.0
 21
-0.166667
 31
0.0
  0
LINE
  5
64
100
AcDbEntity
  8
0
  6
CONTINUOUS
 62
     0
100
AcDbLine
 10
-1.0
 20
0.166667
 30
0.0
 11
-1.0
 21
-0.166667
 31
0.0
  0
ENDBLK
  5
65
100
AcDbEntity
  8
0
100
AcDbBlockEnd
  0
BLOCK
  5
66
100
AcDbEntity
  8
0
100
AcDbBlockBegin
  2
_EX_NNORM
 70
     0
 10
0.0
 20
0.0
 30
0.0
  3
_EX_NNORM
  1

  0
LINE
  5
67
100
AcDbEntity
  8
0
  6
CONTINUOUS
 62
     0
100
AcDbLine
 10
0.0
 20
0.0
 30
0.0
 11
-1.0
 21
0.0
 31
0.0
  0
LINE
  5
68
100
AcDbEntity
  8
0
  6
CONTINUOUS
 62
     0
100
AcDbLine
 10
0.0
 20
0.0
 30
0.0
 11
-1.0
 21
0.166667
 31
0.0
  0
LINE
  5
69
100
AcDbEntity
  8
0
  6
CONTINUOUS
 62
     0
100
AcDbLine
 10
0.0
 20
0.0
 30
0.0
 11
-1.0
 21
-0.166667
 31
0.0
  0
LINE
  5
6A
100
AcDbEntity
  8
0
  6
CONTINUOUS
 62
     0
100
AcDbLine
 10
-1.0
 20
0.166667
 30
0.0
 11
-1.0
 21
-0.166667
 31
0.0
  0
ENDBLK
  5
6B
100
AcDbEntity
  8
0
100
AcDbBlockEnd
  0
BLOCK
  5
6C
100
AcDbEntity
  8
0
100
AcDbBlockBegin
  2
_EX_BBOX
 70
     0
 10
0.0
 20
0.0
 30
0.0
  3
_EX_BBOX
  1

  0
LINE
  5
6D
100
AcDbEntity
  8
0
  6
CONTINUOUS
 62
     0
100
AcDbLine
 10
0.0
 20
0.0
 30
0.0
 11
-1.0
 21
0.0
 31
0.0
  0
LINE
  5
6E
100
AcDbEntity
  8
0
  6
CONTINUOUS
 62
     0
100
AcDbLine
 10
-0.5
 20
0.5
 30
0.0
 11
0.5
 21
0.5
 31
0.0
  0
LINE
  5
6F
100
AcDbEntity
  8
0
  6
CONTINUOUS
 62
     0
100
AcDbLine
 10
0.5
 20
0.5
 30
0.0
 11
0.5
 21
-0.5
 31
0.0
  0
LINE
  5
70
100
AcDbEntity
  8
0
  6
CONTINUOUS
 62
     0
100
AcDbLine
 10
0.5
 20
-0.5
 30
0.0
 11
-0.5
 21
-0.5
 31
0.0
  0
LINE
  5
71
100
AcDbEntity
  8
0
  6
CONTINUOUS
 62
     0
100
AcDbLine
 10
-0.5
 20
-0.5
 30
0.0
 11
-0.5
 21
0.5
 31
0.0
  0
LINE
  5
72
100
AcDbEntity
  8
0
  6
CONTINUOUS
 62
     0
100
AcDbLine
 10
-0.25
 20
0.25
 30
0.0
 11
0.25
 21
0.25
 31
0.0
  0
LINE
  5
73
100
AcDbEntity
  8
0
  6
CONTINUOUS
 62
     0
100
AcDbLine
 10
0.25
 20
0.25
 30
0.0
 11
0.25
 21
-0.25
 31
0.0
  0
LINE
  5
74
100
AcDbEntity
  8
0
  6
CONTINUOUS
 62
     0
100
AcDbLine
 10
0.25
 20
-0.25
 30
0.0
 11
-0.25
 21
-0.25
 31
0.0
  0
LINE
  5
75
100
AcDbEntity
  8
0
  6
CONTINUOUS
 62
     0
100
AcDbLine
 10
-0.25
 20
-0.25
 30
0.0
 11
-0.25
 21
0.25
 31
0.0
  0
ENDBLK
  5
76
100
AcDbEntity
  8
0
100
AcDbBlockEnd
  0
BLOCK
  5
77
100
AcDbEntity
  8
0
100
AcDbBlockBegin
  2
_EX_WBOX
 70
     0
 10
0.0
 20
0.0
 30
0.0
  3
_EX_WBOX
  1

  0
LINE
  5
78
100
AcDbEntity
  8
0
  6
CONTINUOUS
 62
     0
100
AcDbLine
 10
-0.5
 20
0.0
 30
0.0
 11
-1.0
 21
0.0
 31
0.0
  0
LINE
  5
79
100
AcDbEntity
  8
0
  6
CONTINUOUS
 62
     0
100
AcDbLine
 10
-0.5
 20
0.5
 30
0.0
 11
0.5
 21
0.5
 31
0.0
  0
LINE
  5
7A
100
AcDbEntity
  8
0
  6
CONTINUOUS
 62
     0
100
AcDbLine
 10
0.5
 20
0.5
 30
0.0
 11
0.5
 21
-0.5
 31
0.0
  0
LINE
  5
7B
100
AcDbEntity
  8
0
  6
CONTINUOUS
 62
     0
100
AcDbLine
 10
0.5
 20
-0.5
 30
0.0
 11
-0.5
 21
-0.5
 31
0.0
  0
LINE
  5
7C
100
AcDbEntity
  8
0
  6
CONTINUOUS
 62
     0
100
AcDbLine
 10
-0.5
 20
-0.5
 30
0.0
 11
-0.5
 21
0.5
 31
0.0
  0
ENDBLK
  5
7D
100
AcDbEntity
  8
0
100
AcDbBlockEnd
  0
BLOCK
  5
7E
100
AcDbEntity
  8
0
100
AcDbBlockBegin
  2
_EX_INTEGRAL
 70
     0
 10
0.0
 20
0.0
 30
0.0
  3
_EX_INTEGRAL
  1

  0
LINE
  5
7F
100
AcDbEntity
  8
0
  6
CONTINUOUS
 62
     0
100
AcDbLine
 10
0.0
 20
0.0
 30
0.0
 11
-1.0
 21
0.0
 31
0.0
  0
ARC
  5
80
100
AcDbEntity
  8
0
  6
CONTINUOUS
 62
     0
100
AcDbCircle
 10
0.0
 20
0.0
 30
0.0
 40
0.707107
100
AcDbArc
 50
90.0
 51
180.0
  0
ARC
  5
81
100
AcDbEntity
  8
0
  6
CONTINUOUS
 62
     0
100
AcDbCircle
 10
0.0
 20
0.0
 30
0.0
 40
0.707107
100
AcDbArc
 50
270.0
 51
0.0
  0
ENDBLK
  5
82
100
AcDbEntity
  8
0
100
AcDbBlockEnd
  0
ENDSEC
  0
SECTION
  2
ENTITIES
  0
LINE
  5
83
100
AcDbEntity
  8
LAY-2
  6
CONTINUOUS
 62
     2
100
AcDbLine
 10
218.310562
 20
392.675
 30
0.0
 11
220.489438
 21
392.675
 31
0.0
  0
LINE
  5
84
100
AcDbEntity
  8
LAY-2
  6
CONTINUOUS
 62
     2
100
AcDbLine
 10
216.763241
 20
392.3
 30
0.0
 11
222.036759
 21
392.3
 31
0.0
  0
LINE
  5
85
100
AcDbEntity
  8
LAY-2
  6
CONTINUOUS
 62
     2
100
AcDbLine
 10
215.873405
 20
391.925
 30
0.0
 11
222.926595
 21
391.925
 31
0.0
  0
LINE
  5
86
100
AcDbEntity
  8
LAY-2
  6
CONTINUOUS
 62
     2
100
AcDbLine
 10
215.2
 20
391.55
 30
0.0
 11
223.6
 21
391.55
 31
0.0
  0
LINE
  5
87
100
AcDbEntity
  8
LAY-2
  6
CONTINUOUS
 62
     2
100
AcDbLine
 10
214.650066
 20
391.175
 30
0.0
 11
224.149934
 21
391.175
 31
0.0
  0
LINE
  5
88
100
AcDbEntity
  8
LAY-2
  6
CONTINUOUS
 62
     2
100
AcDbLine
 10
214.184398
 20
390.8
 30
0.0
 11
224.615602
 21
390.8
 31
0.0
  0
LINE
  5
89
100
AcDbEntity
  8
LAY-2
  6
CONTINUOUS
 62
     2
100
AcDbLine
 10
200.65
 20
390.425
 30
0.0
 11
212.733635
 21
390.425
 31
0.0
  0
LINE
  5
8A
100
AcDbEntity
  8
LAY-2
  6
CONTINUOUS
 62
     2
100
AcDbLine
 10
213.782004
 20
390.425
 30
0.0
 11
225.017996
 21
390.425
 31
0.0
  0
LINE
  5
8B
100
AcDbEntity
  8
LAY-2
  6
CONTINUOUS
 62
     2
100
AcDbLine
 10
226.066365
 20
390.425
 30
0.0
 11
235.15
 21
390.425
 31
0.0
  0
LINE
  5
8C
100
AcDbEntity
  8
LAY-2
  6
CONTINUOUS
 62
     2
100
AcDbLine
 10
236.425
 20
390.425
 30
0.0
 11
246.475
 21
390.425
 31
0.0
  0
LINE
  5
8D
100
AcDbEntity
  8
LAY-2
  6
CONTINUOUS
 62
     2
100
AcDbLine
 10
247.6
 20
390.425
 30
0.0
 11
250.15
 21
390.425
 31
0.0
  0
LINE
  5
8E
100
AcDbEntity
  8
LAY-2
  6
CONTINUOUS
 62
     2
100
AcDbLine
 10
255.4
 20
390.425
 30
0.0
 11
257.95
 21
390.425
 31
0.0
  0
LINE
  5
8F
100
AcDbEntity
  8
LAY-2
  6
CONTINUOUS
 62
     2
100
AcDbLine
 10
200.65
 20
390.05
 30
0.0
 11
212.434474
 21
390.05
 31
0.0
  0
LINE
  5
90
100
AcDbEntity
  8
LAY-2
  6
CONTINUOUS
 62
     2
100
AcDbLine
 10
213.430075
 20
390.05
 30
0.0
 11
225.369925
 21
390.05
 31
0.0
  0
LINE
  5
91
100
AcDbEntity
  8
LAY-2
  6
CONTINUOUS
 62
     2
100
AcDbLine
 10
226.365526
 20
390.05
 30
0.0
 11
235.15
 21
390.05
 31
0.0
  0
LINE
  5
92
100
AcDbEntity
  8
LAY-2
  6
CONTINUOUS
 62
     2
100
AcDbLine
 10
236.425
 20
390.05
 30
0.0
 11
246.475
 21
390.05
 31
0.0
  0
LINE
  5
93
100
AcDbEntity
  8
LAY-2
  6
CONTINUOUS
 62
     2
100
AcDbLine
 10
247.6
 20
390.05
 30
0.0
 11
250.396783
 21
390.05
 31
0.0
  0
LINE
  5
94
100
AcDbEntity
  8
LAY-2
  6
CONTINUOUS
 62
     2
100
AcDbLine
 10
255.4
 20
390.05
 30
0.0
 11
257.95
 21
390.05
 31
0.0
  0
LINE
  5
95
100
AcDbEntity
  8
LAY-2
  6
CONTINUOUS
 62
     2
100
AcDbLine
 10
200.65
 20
389.675
 30
0.0
 11
212.16706
 21
389.675
 31
0.0
  0
LINE
  5
96
100
AcDbEntity
  8
LAY-2
  6
CONTINUOUS
 62
     2
100
AcDbLine
 10
213.120121
 20
389.675
 30
0.0
 11
217.451443
 21
389.675
 31
0.0
  0
LINE
  5
97
100
AcDbEntity
  8
LAY-2
  6
CONTINUOUS
 62
     2
100
AcDbLine
 10
221.348557
 20
389.675
 30
0.0
 11
225.679879
 21
389.675
 31
0.0
  0
LINE
  5
98
100
AcDbEntity
  8
LAY-2
  6
CONTINUOUS
 62
     2
100
AcDbLine
 10
226.63294
 20
389.675
 30
0.0
 11
235.15
 21
389.675
 31
0.0
  0
LINE
  5
99
100
AcDbEntity
  8
LAY-2
  6
CONTINUOUS
 62
     2
100
AcDbLine
 10
236.425
 20
389.675
 30
0.0
 11
246.475
 21
389.675
 31
0.0
  0
LINE
  5
9A
100
AcDbEntity
  8
LAY-2
  6
CONTINUOUS
 62
     2
100
AcDbLine
 10
247.6
 20
389.675
 30
0.0
 11
250.643566
 21
389.675
 31
0.0
  0
LINE
  5
9B
100
AcDbEntity
  8
LAY-2
  6
CONTINUOUS
 62
     2
100
AcDbLine
 10
255.4
 20
389.675
 30
0.0
 11
257.95
 21
389.675
 31
0.0
  0
LINE
  5
9C
100
AcDbEntity
  8
LAY-2
  6
CONTINUOUS
 62
     2
100
AcDbLine
 10
200.65
 20
389.3
 30
0.0
 11
211.927982
 21
389.3
 31
0.0
  0
LINE
  5
9D
100
AcDbEntity
  8
LAY-2
  6
CONTINUOUS
 62
     2
100
AcDbLine
 10
212.846184
 20
389.3
 30
0.0
 11
216.695837
 21
389.3
 31
0.0
  0
LINE
  5
9E
100
AcDbEntity
  8
LAY-2
  6
CONTINUOUS
 62
     2
100
AcDbLine
 10
222.104163
 20
389.3
 30
0.0
 11
225.953816
 21
389.3
 31
0.0
  0
LINE
  5
9F
100
AcDbEntity
  8
LAY-2
  6
CONTINUOUS
 62
     2
100
AcDbLine
 10
226.872018
 20
389.3
 30
0.0
 11
235.15
 21
389.3
 31
0.0
  0
LINE
  5
A0
100
AcDbEntity
  8
LAY-2
  6
CONTINUOUS
 62
     2
100
AcDbLine
 10
236.425
 20
389.3
 30
0.0
 11
246.475
 21
389.3
 31
0.0
  0
LINE
  5
A1
100
AcDbEntity
  8
LAY-2
  6
CONTINUOUS
 62
     2
100
AcDbLine
 10
247.6
 20
389.3
 30
0.0
 11
250.890349
 21
389.3
 31
0.0
  0
LINE
  5
A2
100
AcDbEntity
  8
LAY-2
  6
CONTINUOUS
 62
     2
100
AcDbLine
 10
255.4
 20
389.3
 30
0.0
 11
257.95
 21
389.3
 31
0.0
  0
LINE
  5
A3
100
AcDbEntity
  8
LAY-2
  6
CONTINUOUS
 62
     2
100
AcDbLine
 10
200.65
 20
388.925
 30
0.0
 11
211.714597
 21
388.925
 31
0.0
  0
LINE
  5
A4
100
AcDbEntity
  8
LAY-2
  6
CONTINUOUS
 62
     2
100
AcDbLine
 10
212.603907
 20
388.925
 30
0.0
 11
216.152405
 21
388.925
 31
0.0
  0
LINE
  5
A5
100
AcDbEntity
  8
LAY-2
  6
CONTINUOUS
 62
     2
100
AcDbLine
 10
222.647595
 20
388.925
 30
0.0
 11
226.196093
 21
388.925
 31
0.0
  0
LINE
  5
A6
100
AcDbEntity
  8
LAY-2
  6
CONTINUOUS
 62
     2
100
AcDbLine
 10
227.085403
 20
388.925
 30
0.0
 11
235.15
 21
388.925
 31
0.0
  0
LINE
  5
A7
100
AcDbEntity
  8
LAY-2
  6
CONTINUOUS
 62
     2
100
AcDbLine
 10
236.425
 20
388.925
 30
0.0
 11
246.475
 21
388.925
 31
0.0
  0
LINE
  5
A8
100
AcDbEntity
  8
LAY-2
  6
CONTINUOUS
 62
     2
100
AcDbLine
 10
247.6
 20
388.925
 30
0.0
 11
251.137132
 21
388.925
 31
0.0
  0
LINE
  5
A9
100
AcDbEntity
  8
LAY-2
  6
CONTINUOUS
 62
     2
100
AcDbLine
 10
255.4
 20
388.925
 30
0.0
 11
257.95
 21
388.925
 31
0.0
  0
LINE
  5
AA
100
AcDbEntity
  8
LAY-2
  6
CONTINUOUS
 62
     2
100
AcDbLine
 10
200.65
 20
388.55
 30
0.0
 11
211.524814
 21
388.55
 31
0.0
  0
LINE
  5
AB
100
AcDbEntity
  8
LAY-2
  6
CONTINUOUS
 62
     2
100
AcDbLine
 10
212.390007
 20
388.55
 30
0.0
 11
215.725765
 21
388.55
 31
0.0
  0
LINE
  5
AC
100
AcDbEntity
  8
LAY-2
  6
CONTINUOUS
 62
     2
100
AcDbLine
 10
218.08162
 20
388.55
 30
0.0
 11
220.71838
 21
388.55
 31
0.0
  0
LINE
  5
AD
100
AcDbEntity
  8
LAY-2
  6
CONTINUOUS
 62
     2
100
AcDbLine
 10
223.074235
 20
388.55
 30
0.0
 11
226.409993
 21
388.55
 31
0.0
  0
LINE
  5
AE
100
AcDbEntity
  8
LAY-2
  6
CONTINUOUS
 62
     2
100
AcDbLine
 10
227.275186
 20
388.55
 30
0.0
 11
235.15
 21
388.55
 31
0.0
  0
LINE
  5
AF
100
AcDbEntity
  8
LAY-2
  6
CONTINUOUS
 62
     2
100
AcDbLine
 10
236.425
 20
388.55
 30
0.0
 11
246.475
 21
388.55
 31
0.0
  0
LINE
  5
B0
100
AcDbEntity
  8
LAY-2
  6
CONTINUOUS
 62
     2
100
AcDbLine
 10
247.6
 20
388.55
 30
0.0
 11
251.383915
 21
388.55
 31
0.0
  0
LINE
  5
B1
100
AcDbEntity
  8
LAY-2
  6
CONTINUOUS
 62
     2
100
AcDbLine
 10
255.4
 20
388.55
 30
0.0
 11
257.95
 21
388.55
 31
0.0
  0
LINE
  5
B2
100
AcDbEntity
  8
LAY-2
  6
CONTINUOUS
 62
     2
100
AcDbLine
 10
200.65
 20
388.175
 30
0.0
 11
211.356964
 21
388.175
 31
0.0
  0
LINE
  5
B3
100
AcDbEntity
  8
LAY-2
  6
CONTINUOUS
 62
     2
100
AcDbLine
 10
212.201953
 20
388.175
 30
0.0
 11
215.378573
 21
388.175
 31
0.0
  0
LINE
  5
B4
100
AcDbEntity
  8
LAY-2
  6
CONTINUOUS
 62
     2
100
AcDbLine
 10
217.3
 20
388.175
 30
0.0
 11
221.5
 21
388.175
 31
0.0
  0
LINE
  5
B5
100
AcDbEntity
  8
LAY-2
  6
CONTINUOUS
 62
     2
100
AcDbLine
 10
223.421427
 20
388.175
 30
0.0
 11
226.598047
 21
388.175
 31
0.0
  0
LINE
  5
B6
100
AcDbEntity
  8
LAY-2
  6
CONTINUOUS
 62
     2
100
AcDbLine
 10
227.443036
 20
388.175
 30
0.0
 11
235.15
 21
388.175
 31
0.0
  0
LINE
  5
B7
100
AcDbEntity
  8
LAY-2
  6
CONTINUOUS
 62
     2
100
AcDbLine
 10
236.425
 20
388.175
 30
0.0
 11
246.475
 21
388.175
 31
0.0
  0
LINE
  5
B8
100
AcDbEntity
  8
LAY-2
  6
CONTINUOUS
 62
     2
100
AcDbLine
 10
247.6
 20
388.175
 30
0.0
 11
251.630699
 21
388.175
 31
0.0
  0
LINE
  5
B9
100
AcDbEntity
  8
LAY-2
  6
CONTINUOUS
 62
     2
100
AcDbLine
 10
255.4
 20
388.175
 30
0.0
 11
257.95
 21
388.175
 31
0.0
  0
LINE
  5
BA
100
AcDbEntity
  8
LAY-2
  6
CONTINUOUS
 62
     2
100
AcDbLine
 10
205.9
 20
387.8
 30
0.0
 11
208.525
 21
387.8
 31
0.0
  0
LINE
  5
BB
100
AcDbEntity
  8
LAY-2
  6
CONTINUOUS
 62
     2
100
AcDbLine
 10
212.037765
 20
387.8
 30
0.0
 11
215.091578
 21
387.8
 31
0.0
  0
LINE
  5
BC
100
AcDbEntity
  8
LAY-2
  6
CONTINUOUS
 62
     2
100
AcDbLine
 10
216.792199
 20
387.8
 30
0.0
 11
222.007801
 21
387.8
 31
0.0
  0
LINE
  5
BD
100
AcDbEntity
  8
LAY-2
  6
CONTINUOUS
 62
     2
100
AcDbLine
 10
223.708422
 20
387.8
 30
0.0
 11
226.762235
 21
387.8
 31
0.0
  0
LINE
  5
BE
100
AcDbEntity
  8
LAY-2
  6
CONTINUOUS
 62
     2
100
AcDbLine
 10
232.257281
 20
387.8
 30
0.0
 11
235.15
 21
387.8
 31
0.0
  0
LINE
  5
BF
100
AcDbEntity
  8
LAY-2
  6
CONTINUOUS
 62
     2
100
AcDbLine
 10
236.425
 20
387.8
 30
0.0
 11
239.05
 21
387.8
 31
0.0
  0
LINE
  5
C0
100
AcDbEntity
  8
LAY-2
  6
CONTINUOUS
 62
     2
100
AcDbLine
 10
247.6
 20
387.8
 30
0.0
 11
251.877482
 21
387.8
 31
0.0
  0
LINE
  5
C1
100
AcDbEntity
  8
LAY-2
  6
CONTINUOUS
 62
     2
100
AcDbLine
 10
255.4
 20
387.8
 30
0.0
 11
257.95
 21
387.8
 31
0.0
  0
LINE
  5
C2
100
AcDbEntity
  8
LAY-2
  6
CONTINUOUS
 62
     2
100
AcDbLine
 10
205.9
 20
387.425
 30
0.0
 11
208.525
 21
387.425
 31
0.0
  0
LINE
  5
C3
100
AcDbEntity
  8
LAY-2
  6
CONTINUOUS
 62
     2
100
AcDbLine
 10
211.895876
 20
387.425
 30
0.0
 11
214.853367
 21
387.425
 31
0.0
  0
LINE
  5
C4
100
AcDbEntity
  8
LAY-2
  6
CONTINUOUS
 62
     2
100
AcDbLine
 10
216.415038
 20
387.425
 30
0.0
 11
222.384962
 21
387.425
 31
0.0
  0
LINE
  5
C5
100
AcDbEntity
  8
LAY-2
  6
CONTINUOUS
 62
     2
100
AcDbLine
 10
223.946633
 20
387.425
 30
0.0
 11
226.904124
 21
387.425
 31
0.0
  0
LINE
  5
C6
100
AcDbEntity
  8
LAY-2
  6
CONTINUOUS
 62
     2
100
AcDbLine
 10
231.919218
 20
387.425
 30
0.0
 11
234.811938
 21
387.425
 31
0.0
  0
LINE
  5
C7
100
AcDbEntity
  8
LAY-2
  6
CONTINUOUS
 62
     2
100
AcDbLine
 10
236.425
 20
387.425
 30
0.0
 11
239.05
 21
387.425
 31
0.0
  0
LINE
  5
C8
100
AcDbEntity
  8
LAY-2
  6
CONTINUOUS
 62
     2
100
AcDbLine
 10
247.6
 20
387.425
 30
0.0
 11
252.124265
 21
387.425
 31
0.0
  0
LINE
  5
C9
100
AcDbEntity
  8
LAY-2
  6
CONTINUOUS
 62
     2
100
AcDbLine
 10
255.4
 20
387.425
 30
0.0
 11
257.95
 21
387.425
 31
0.0
  0
LINE
  5
CA
100
AcDbEntity
  8
LAY-2
  6
CONTINUOUS
 62
     2
100
AcDbLine
 10
205.9
 20
387.05
 30
0.0
 11
208.525
 21
387.05
 31
0.0
  0
LINE
  5
CB
100
AcDbEntity
  8
LAY-2
  6
CONTINUOUS
 62
     2
100
AcDbLine
 10
211.775041
 20
387.05
 30
0.0
 11
214.656584
 21
387.05
 31
0.0
  0
LINE
  5
CC
100
AcDbEntity
  8
LAY-2
  6
CONTINUOUS
 62
     2
100
AcDbLine
 10
216.123092
 20
387.05
 30
0.0
 11
222.676908
 21
387.05
 31
0.0
  0
LINE
  5
CD
100
AcDbEntity
  8
LAY-2
  6
CONTINUOUS
 62
     2
100
AcDbLine
 10
224.143416
 20
387.05
 30
0.0
 11
227.024959
 21
387.05
 31
0.0
  0
LINE
  5
CE
100
AcDbEntity
  8
LAY-2
  6
CONTINUOUS
 62
     2
100
AcDbLine
 10
231.581156
 20
387.05
 30
0.0
 11
234.473876
 21
387.05
 31
0.0
  0
LINE
  5
CF
100
AcDbEntity
  8
LAY-2
  6
CONTINUOUS
 62
     2
100
AcDbLine
 10
236.425
 20
387.05
 30
0.0
 11
239.05
 21
387.05
 31
0.0
  0
LINE
  5
D0
100
AcDbEntity
  8
LAY-2
  6
CONTINUOUS
 62
     2
100
AcDbLine
 10
247.6
 20
387.05
 30
0.0
 11
250.15
 21
387.05
 31
0.0
  0
LINE
  5
D1
100
AcDbEntity
  8
LAY-2
  6
CONTINUOUS
 62
     2
100
AcDbLine
 10
250.217555
 20
387.05
 30
0.0
 11
252.371048
 21
387.05
 31
0.0
  0
LINE
  5
D2
100
AcDbEntity
  8
LAY-2
  6
CONTINUOUS
 62
     2
100
AcDbLine
 10
255.4
 20
387.05
 30
0.0
 11
257.95
 21
387.05
 31
0.0
  0
LINE
  5
D3
100
AcDbEntity
  8
LAY-2
  6
CONTINUOUS
 62
     2
100
AcDbLine
 10
205.9
 20
386.675
 30
0.0
 11
208.525
 21
386.675
 31
0.0
  0
LINE
  5
D4
100
AcDbEntity
  8
LAY-2
  6
CONTINUOUS
 62
     2
100
AcDbLine
 10
211.674272
 20
386.675
 30
0.0
 11
214.496239
 21
386.675
 31
0.0
  0
LINE
  5
D5
100
AcDbEntity
  8
LAY-2
  6
CONTINUOUS
 62
     2
100
AcDbLine
 10
215.895004
 20
386.675
 30
0.0
 11
222.904996
 21
386.675
 31
0.0
  0
LINE
  5
D6
100
AcDbEntity
  8
LAY-2
  6
CONTINUOUS
 62
     2
100
AcDbLine
 10
224.303761
 20
386.675
 30
0.0
 11
227.125728
 21
386.675
 31
0.0
  0
LINE
  5
D7
100
AcDbEntity
  8
LAY-2
  6
CONTINUOUS
 62
     2
100
AcDbLine
 10
231.243094
 20
386.675
 30
0.0
 11
234.135814
 21
386.675
 31
0.0
  0
LINE
  5
D8
100
AcDbEntity
  8
LAY-2
  6
CONTINUOUS
 62
     2
100
AcDbLine
 10
236.425
 20
386.675
 30
0.0
 11
239.05
 21
386.675
 31
0.0
  0
LINE
  5
D9
100
AcDbEntity
  8
LAY-2
  6
CONTINUOUS
 62
     2
100
AcDbLine
 10
247.6
 20
386.675
 30
0.0
 11
250.15
 21
386.675
 31
0.0
  0
LINE
  5
DA
100
AcDbEntity
  8
LAY-2
  6
CONTINUOUS
 62
     2
100
AcDbLine
 10
250.464338
 20
386.675
 30
0.0
 11
252.617831
 21
386.675
 31
0.0
  0
LINE
  5
DB
100
AcDbEntity
  8
LAY-2
  6
CONTINUOUS
 62
     2
100
AcDbLine
 10
255.4
 20
386.675
 30
0.0
 11
257.95
 21
386.675
 31
0.0
  0
LINE
  5
DC
100
AcDbEntity
  8
LAY-2
  6
CONTINUOUS
 62
     2
100
AcDbLine
 10
205.9
 20
386.3
 30
0.0
 11
208.525
 21
386.3
 31
0.0
  0
LINE
  5
DD
100
AcDbEntity
  8
LAY-2
  6
CONTINUOUS
 62
     2
100
AcDbLine
 10
211.592792
 20
386.3
 30
0.0
 11
214.368847
 21
386.3
 31
0.0
  0
LINE
  5
DE
100
AcDbEntity
  8
LAY-2
  6
CONTINUOUS
 62
     2
100
AcDbLine
 10
215.718883
 20
386.3
 30
0.0
 11
223.081117
 21
386.3
 31
0.0
  0
LINE
  5
DF
100
AcDbEntity
  8
LAY-2
  6
CONTINUOUS
 62
     2
100
AcDbLine
 10
224.431153
 20
386.3
 30
0.0
 11
227.207208
 21
386.3
 31
0.0
  0
LINE
  5
E0
100
AcDbEntity
  8
LAY-2
  6
CONTINUOUS
 62
     2
100
AcDbLine
 10
230.905032
 20
386.3
 30
0.0
 11
233.797752
 21
386.3
 31
0.0
  0
LINE
  5
E1
100
AcDbEntity
  8
LAY-2
  6
CONTINUOUS
 62
     2
100
AcDbLine
 10
236.425
 20
386.3
 30
0.0
 11
239.05
 21
386.3
 31
0.0
  0
LINE
  5
E2
100
AcDbEntity
  8
LAY-2
  6
CONTINUOUS
 62
     2
100
AcDbLine
 10
247.6
 20
386.3
 30
0.0
 11
250.15
 21
386.3
 31
0.0
  0
LINE
  5
E3
100
AcDbEntity
  8
LAY-2
  6
CONTINUOUS
 62
     2
100
AcDbLine
 10
250.711121
 20
386.3
 30
0.0
 11
252.864614
 21
386.3
 31
0.0
  0
LINE
  5
E4
100
AcDbEntity
  8
LAY-2
  6
CONTINUOUS
 62
     2
100
AcDbLine
 10
255.4
 20
386.3
 30
0.0
 11
257.95
 21
386.3
 31
0.0
  0
LINE
  5
E5
100
AcDbEntity
  8
LAY-2
  6
CONTINUOUS
 62
     2
100
AcDbLine
 10
205.9
 20
385.925
 30
0.0
 11
208.525
 21
385.925
 31
0.0
  0
LINE
  5
E6
100
AcDbEntity
  8
LAY-2
  6
CONTINUOUS
 62
     2
100
AcDbLine
 10
211.530002
 20
385.925
 30
0.0
 11
214.271952
 21
385.925
 31
0.0
  0
LINE
  5
E7
100
AcDbEntity
  8
LAY-2
  6
CONTINUOUS
 62
     2
100
AcDbLine
 10
215.58752
 20
385.925
 30
0.0
 11
223.21248
 21
385.925
 31
0.0
  0
LINE
  5
E8
100
AcDbEntity
  8
LAY-2
  6
CONTINUOUS
 62
     2
100
AcDbLine
 10
224.528048
 20
385.925
 30
0.0
 11
227.269998
 21
385.925
 31
0.0
  0
LINE
  5
E9
100
AcDbEntity
  8
LAY-2
  6
CONTINUOUS
 62
     2
100
AcDbLine
 10
230.56697
 20
385.925
 30
0.0
 11
233.45969
 21
385.925
 31
0.0
  0
LINE
  5
EA
100
AcDbEntity
  8
LAY-2
  6
CONTINUOUS
 62
     2
100
AcDbLine
 10
236.425
 20
385.925
 30
0.0
 11
246.475
 21
385.925
 31
0.0
  0
LINE
  5
EB
100
AcDbEntity
  8
LAY-2
  6
CONTINUOUS
 62
     2
100
AcDbLine
 10
247.6
 20
385.925
 30
0.0
 11
250.15
 21
385.925
 31
0.0
  0
LINE
  5
EC
100
AcDbEntity
  8
LAY-2
  6
CONTINUOUS
 62
     2
100
AcDbLine
 10
250.957904
 20
385.925
 30
0.0
 11
253.111397
 21
385.925
 31
0.0
  0
LINE
  5
ED
100
AcDbEntity
  8
LAY-2
  6
CONTINUOUS
 62
     2
100
AcDbLine
 10
255.4
 20
385.925
 30
0.0
 11
257.95
 21
385.925
 31
0.0
  0
LINE
  5
EE
100
AcDbEntity
  8
LAY-2
  6
CONTINUOUS
 62
     2
100
AcDbLine
 10
205.9
 20
385.55
 30
0.0
 11
208.525
 21
385.55
 31
0.0
  0
LINE
  5
EF
100
AcDbEntity
  8
LAY-2
  6
CONTINUOUS
 62
     2
100
AcDbLine
 10
211.485456
 20
385.55
 30
0.0
 11
214.203848
 21
385.55
 31
0.0
  0
LINE
  5
F0
100
AcDbEntity
  8
LAY-2
  6
CONTINUOUS
 62
     2
100
AcDbLine
 10
215.496396
 20
385.55
 30
0.0
 11
223.303604
 21
385.55
 31
0.0
  0
LINE
  5
F1
100
AcDbEntity
  8
LAY-2
  6
CONTINUOUS
 62
     2
100
AcDbLine
 10
224.596152
 20
385.55
 30
0.0
 11
227.314544
 21
385.55
 31
0.0
  0
LINE
  5
F2
100
AcDbEntity
  8
LAY-2
  6
CONTINUOUS
 62
     2
100
AcDbLine
 10
230.228908
 20
385.55
 30
0.0
 11
233.121627
 21
385.55
 31
0.0
  0
LINE
  5
F3
100
AcDbEntity
  8
LAY-2
  6
CONTINUOUS
 62
     2
100
AcDbLine
 10
236.425
 20
385.55
 30
0.0
 11
246.475
 21
385.55
 31
0.0
  0
LINE
  5
F4
100
AcDbEntity
  8
LAY-2
  6
CONTINUOUS
 62
     2
100
AcDbLine
 10
247.6
 20
385.55
 30
0.0
 11
250.15
 21
385.55
 31
0.0
  0
LINE
  5
F5
100
AcDbEntity
  8
LAY-2
  6
CONTINUOUS
 62
     2
100
AcDbLine
 10
251.204687
 20
385.55
 30
0.0
 11
253.35818
 21
385.55
 31
0.0
  0
LINE
  5
F6
100
AcDbEntity
  8
LAY-2
  6
CONTINUOUS
 62
     2
100
AcDbLine
 10
255.4
 20
385.55
 30
0.0
 11
257.95
 21
385.55
 31
0.0
  0
LINE
  5
F7
100
AcDbEntity
  8
LAY-2
  6
CONTINUOUS
 62
     2
100
AcDbLine
 10
205.9
 20
385.175
 30
0.0
 11
208.525
 21
385.175
 31
0.0
  0
LINE
  5
F8
100
AcDbEntity
  8
LAY-2
  6
CONTINUOUS
 62
     2
100
AcDbLine
 10
211.458849
 20
385.175
 30
0.0
 11
214.16341
 21
385.175
 31
0.0
  0
LINE
  5
F9
100
AcDbEntity
  8
LAY-2
  6
CONTINUOUS
 62
     2
100
AcDbLine
 10
215.442728
 20
385.175
 30
0.0
 11
223.357272
 21
385.175
 31
0.0
  0
LINE
  5
FA
100
AcDbEntity
  8
LAY-2
  6
CONTINUOUS
 62
     2
100
AcDbLine
 10
224.63659
 20
385.175
 30
0.0
 11
227.341151
 21
385.175
 31
0.0
  0
LINE
  5
FB
100
AcDbEntity
  8
LAY-2
  6
CONTINUOUS
 62
     2
100
AcDbLine
 10
229.890846
 20
385.175
 30
0.0
 11
232.783565
 21
385.175
 31
0.0
  0
LINE
  5
FC
100
AcDbEntity
  8
LAY-2
  6
CONTINUOUS
 62
     2
100
AcDbLine
 10
236.425
 20
385.175
 30
0.0
 11
246.475
 21
385.175
 31
0.0
  0
LINE
  5
FD
100
AcDbEntity
  8
LAY-2
  6
CONTINUOUS
 62
     2
100
AcDbLine
 10
247.6
 20
385.175
 30
0.0
 11
250.15
 21
385.175
 31
0.0
  0
LINE
  5
FE
100
AcDbEntity
  8
LAY-2
  6
CONTINUOUS
 62
     2
100
AcDbLine
 10
251.451471
 20
385.175
 30
0.0
 11
253.604963
 21
385.175
 31
0.0
  0
LINE
  5
FF
100
AcDbEntity
  8
LAY-2
  6
CONTINUOUS
 62
     2
100
AcDbLine
 10
255.4
 20
385.175
 30
0.0
 11
257.95
 21
385.175
 31
0.0
  0
LINE
  5
100
100
AcDbEntity
  8
LAY-2
  6
CONTINUOUS
 62
     2
100
AcDbLine
 10
205.9
 20
384.8
 30
0.0
 11
208.525
 21
384.8
 31
0.0
  0
LINE
  5
101
100
AcDbEntity
  8
LAY-2
  6
CONTINUOUS
 62
     2
100
AcDbLine
 10
211.45
 20
384.8
 30
0.0
 11
214.15
 21
384.8
 31
0.0
  0
LINE
  5
102
100
AcDbEntity
  8
LAY-2
  6
CONTINUOUS
 62
     2
100
AcDbLine
 10
215.425
 20
384.8
 30
0.0
 11
223.375
 21
384.8
 31
0.0
  0
LINE
  5
103
100
AcDbEntity
  8
LAY-2
  6
CONTINUOUS
 62
     2
100
AcDbLine
 10
224.65
 20
384.8
 30
0.0
 11
227.35
 21
384.8
 31
0.0
  0
LINE
  5
104
100
AcDbEntity
  8
LAY-2
  6
CONTINUOUS
 62
     2
100
AcDbLine
 10
229.552784
 20
384.8
 30
0.0
 11
232.445503
 21
384.8
 31
0.0
  0
LINE
  5
105
100
AcDbEntity
  8
LAY-2
  6
CONTINUOUS
 62
     2
100
AcDbLine
 10
236.425
 20
384.8
 30
0.0
 11
246.475
 21
384.8
 31
0.0
  0
LINE
  5
106
100
AcDbEntity
  8
LAY-2
  6
CONTINUOUS
 62
     2
100
AcDbLine
 10
247.6
 20
384.8
 30
0.0
 11
250.15
 21
384.8
 31
0.0
  0
LINE
  5
107
100
AcDbEntity
  8
LAY-2
  6
CONTINUOUS
 62
     2
100
AcDbLine
 10
251.698254
 20
384.8
 30
0.0
 11
253.851746
 21
384.8
 31
0.0
  0
LINE
  5
108
100
AcDbEntity
  8
LAY-2
  6
CONTINUOUS
 62
     2
100
AcDbLine
 10
255.4
 20
384.8
 30
0.0
 11
257.95
 21
384.8
 31
0.0
  0
LINE
  5
109
100
AcDbEntity
  8
LAY-2
  6
CONTINUOUS
 62
     2
100
AcDbLine
 10
205.9
 20
384.425
 30
0.0
 11
208.525
 21
384.425
 31
0.0
  0
LINE
  5
10A
100
AcDbEntity
  8
LAY-2
  6
CONTINUOUS
 62
     2
100
AcDbLine
 10
211.458849
 20
384.425
 30
0.0
 11
214.16341
 21
384.425
 31
0.0
  0
LINE
  5
10B
100
AcDbEntity
  8
LAY-2
  6
CONTINUOUS
 62
     2
100
AcDbLine
 10
215.442728
 20
384.425
 30
0.0
 11
223.357272
 21
384.425
 31
0.0
  0
LINE
  5
10C
100
AcDbEntity
  8
LAY-2
  6
CONTINUOUS
 62
     2
100
AcDbLine
 10
224.63659
 20
384.425
 30
0.0
 11
227.341151
 21
384.425
 31
0.0
  0
LINE
  5
10D
100
AcDbEntity
  8
LAY-2
  6
CONTINUOUS
 62
     2
100
AcDbLine
 10
229.214722
 20
384.425
 30
0.0
 11
232.107441
 21
384.425
 31
0.0
  0
LINE
  5
10E
100
AcDbEntity
  8
LAY-2
  6
CONTINUOUS
 62
     2
100
AcDbLine
 10
236.425
 20
384.425
 30
0.0
 11
246.475
 21
384.425
 31
0.0
  0
LINE
  5
10F
100
AcDbEntity
  8
LAY-2
  6
CONTINUOUS
 62
     2
100
AcDbLine
 10
247.6
 20
384.425
 30
0.0
 11
250.15
 21
384.425
 31
0.0
  0
LINE
  5
110
100
AcDbEntity
  8
LAY-2
  6
CONTINUOUS
 62
     2
100
AcDbLine
 10
251.945037
 20
384.425
 30
0.0
 11
254.098529
 21
384.425
 31
0.0
  0
LINE
  5
111
100
AcDbEntity
  8
LAY-2
  6
CONTINUOUS
 62
     2
100
AcDbLine
 10
255.4
 20
384.425
 30
0.0
 11
257.95
 21
384.425
 31
0.0
  0
LINE
  5
112
100
AcDbEntity
  8
LAY-2
  6
CONTINUOUS
 62
     2
100
AcDbLine
 10
205.9
 20
384.05
 30
0.0
 11
208.525
 21
384.05
 31
0.0
  0
LINE
  5
113
100
AcDbEntity
  8
LAY-2
  6
CONTINUOUS
 62
     2
100
AcDbLine
 10
211.485456
 20
384.05
 30
0.0
 11
214.203848
 21
384.05
 31
0.0
  0
LINE
  5
114
100
AcDbEntity
  8
LAY-2
  6
CONTINUOUS
 62
     2
100
AcDbLine
 10
215.496396
 20
384.05
 30
0.0
 11
223.303604
 21
384.05
 31
0.0
  0
LINE
  5
115
100
AcDbEntity
  8
LAY-2
  6
CONTINUOUS
 62
     2
100
AcDbLine
 10
224.596152
 20
384.05
 30
0.0
 11
227.314544
 21
384.05
 31
0.0
  0
LINE
  5
116
100
AcDbEntity
  8
LAY-2
  6
CONTINUOUS
 62
     2
100
AcDbLine
 10
228.87666
 20
384.05
 30
0.0
 11
231.769379
 21
384.05
 31
0.0
  0
LINE
  5
117
100
AcDbEntity
  8
LAY-2
  6
CONTINUOUS
 62
     2
100
AcDbLine
 10
236.425
 20
384.05
 30
0.0
 11
246.475
 21
384.05
 31
0.0
  0
LINE
  5
118
100
AcDbEntity
  8
LAY-2
  6
CONTINUOUS
 62
     2
100
AcDbLine
 10
247.6
 20
384.05
 30
0.0
 11
250.15
 21
384.05
 31
0.0
  0
LINE
  5
119
100
AcDbEntity
  8
LAY-2
  6
CONTINUOUS
 62
     2
100
AcDbLine
 10
252.19182
 20
384.05
 30
0.0
 11
254.345312
 21
384.05
 31
0.0
  0
LINE
  5
11A
100
AcDbEntity
  8
LAY-2
  6
CONTINUOUS
 62
     2
100
AcDbLine
 10
255.4
 20
384.05
 30
0.0
 11
257.95
 21
384.05
 31
0.0
  0
LINE
  5
11B
100
AcDbEntity
  8
LAY-2
  6
CONTINUOUS
 62
     2
100
AcDbLine
 10
205.9
 20
383.675
 30
0.0
 11
208.525
 21
383.675
 31
0.0
  0
LINE
  5
11C
100
AcDbEntity
  8
LAY-2
  6
CONTINUOUS
 62
     2
100
AcDbLine
 10
211.530002
 20
383.675
 30
0.0
 11
214.271952
 21
383.675
 31
0.0
  0
LINE
  5
11D
100
AcDbEntity
  8
LAY-2
  6
CONTINUOUS
 62
     2
100
AcDbLine
 10
215.58752
 20
383.675
 30
0.0
 11
223.21248
 21
383.675
 31
0.0
  0
LINE
  5
11E
100
AcDbEntity
  8
LAY-2
  6
CONTINUOUS
 62
     2
100
AcDbLine
 10
224.528048
 20
383.675
 30
0.0
 11
227.269998
 21
383.675
 31
0.0
  0
LINE
  5
11F
100
AcDbEntity
  8
LAY-2
  6
CONTINUOUS
 62
     2
100
AcDbLine
 10
228.538597
 20
383.675
 30
0.0
 11
231.431317
 21
383.675
 31
0.0
  0
LINE
  5
120
100
AcDbEntity
  8
LAY-2
  6
CONTINUOUS
 62
     2
100
AcDbLine
 10
236.425
 20
383.675
 30
0.0
 11
239.05
 21
383.675
 31
0.0
  0
LINE
  5
121
100
AcDbEntity
  8
LAY-2
  6
CONTINUOUS
 62
     2
100
AcDbLine
 10
247.6
 20
383.675
 30
0.0
 11
250.15
 21
383.675
 31
0.0
  0
LINE
  5
122
100
AcDbEntity
  8
LAY-2
  6
CONTINUOUS
 62
     2
100
AcDbLine
 10
252.438603
 20
383.675
 30
0.0
 11
254.592096
 21
383.675
 31
0.0
  0
LINE
  5
123
100
AcDbEntity
  8
LAY-2
  6
CONTINUOUS
 62
     2
100
AcDbLine
 10
255.4
 20
383.675
 30
0.0
 11
257.95
 21
383.675
 31
0.0
  0
LINE
  5
124
100
AcDbEntity
  8
LAY-2
  6
CONTINUOUS
 62
     2
100
AcDbLine
 10
205.9
 20
383.3
 30
0.0
 11
208.525
 21
383.3
 31
0.0
  0
LINE
  5
125
100
AcDbEntity
  8
LAY-2
  6
CONTINUOUS
 62
     2
100
AcDbLine
 10
211.592792
 20
383.3
 30
0.0
 11
214.368847
 21
383.3
 31
0.0
  0
LINE
  5
126
100
AcDbEntity
  8
LAY-2
  6
CONTINUOUS
 62
     2
100
AcDbLine
 10
215.718883
 20
383.3
 30
0.0
 11
223.081117
 21
383.3
 31
0.0
  0
LINE
  5
127
100
AcDbEntity
  8
LAY-2
  6
CONTINUOUS
 62
     2
100
AcDbLine
 10
224.431153
 20
383.3
 30
0.0
 11
227.207208
 21
383.3
 31
0.0
  0
LINE
  5
128
100
AcDbEntity
  8
LAY-2
  6
CONTINUOUS
 62
     2
100
AcDbLine
 10
228.200535
 20
383.3
 30
0.0
 11
231.093255
 21
383.3
 31
0.0
  0
LINE
  5
129
100
AcDbEntity
  8
LAY-2
  6
CONTINUOUS
 62
     2
100
AcDbLine
 10
236.425
 20
383.3
 30
0.0
 11
239.05
 21
383.3
 31
0.0
  0
LINE
  5
12A
100
AcDbEntity
  8
LAY-2
  6
CONTINUOUS
 62
     2
100
AcDbLine
 10
247.6
 20
383.3
 30
0.0
 11
250.15
 21
383.3
 31
0.0
  0
LINE
  5
12B
100
AcDbEntity
  8
LAY-2
  6
CONTINUOUS
 62
     2
100
AcDbLine
 10
252.685386
 20
383.3
 30
0.0
 11
254.838879
 21
383.3
 31
0.0
  0
LINE
  5
12C
100
AcDbEntity
  8
LAY-2
  6
CONTINUOUS
 62
     2
100
AcDbLine
 10
255.4
 20
383.3
 30
0.0
 11
257.95
 21
383.3
 31
0.0
  0
LINE
  5
12D
100
AcDbEntity
  8
LAY-2
  6
CONTINUOUS
 62
     2
100
AcDbLine
 10
205.9
 20
382.925
 30
0.0
 11
208.525
 21
382.925
 31
0.0
  0
LINE
  5
12E
100
AcDbEntity
  8
LAY-2
  6
CONTINUOUS
 62
     2
100
AcDbLine
 10
211.674272
 20
382.925
 30
0.0
 11
214.496239
 21
382.925
 31
0.0
  0
LINE
  5
12F
100
AcDbEntity
  8
LAY-2
  6
CONTINUOUS
 62
     2
100
AcDbLine
 10
215.895004
 20
382.925
 30
0.0
 11
222.904996
 21
382.925
 31
0.0
  0
LINE
  5
130
100
AcDbEntity
  8
LAY-2
  6
CONTINUOUS
 62
     2
100
AcDbLine
 10
224.303761
 20
382.925
 30
0.0
 11
227.125728
 21
382.925
 31
0.0
  0
LINE
  5
131
100
AcDbEntity
  8
LAY-2
  6
CONTINUOUS
 62
     2
100
AcDbLine
 10
227.918534
 20
382.925
 30
0.0
 11
230.755193
 21
382.925
 31
0.0
  0
LINE
  5
132
100
AcDbEntity
  8
LAY-2
  6
CONTINUOUS
 62
     2
100
AcDbLine
 10
236.425
 20
382.925
 30
0.0
 11
239.05
 21
382.925
 31
0.0
  0
LINE
  5
133
100
AcDbEntity
  8
LAY-2
  6
CONTINUOUS
 62
     2
100
AcDbLine
 10
247.6
 20
382.925
 30
0.0
 11
250.15
 21
382.925
 31
0.0
  0
LINE
  5
134
100
AcDbEntity
  8
LAY-2
  6
CONTINUOUS
 62
     2
100
AcDbLine
 10
252.932169
 20
382.925
 30
0.0
 11
255.085662
 21
382.925
 31
0.0
  0
LINE
  5
135
100
AcDbEntity
  8
LAY-2
  6
CONTINUOUS
 62
     2
100
AcDbLine
 10
255.4
 20
382.925
 30
0.0
 11
257.95
 21
382.925
 31
0.0
  0
LINE
  5
136
100
AcDbEntity
  8
LAY-2
  6
CONTINUOUS
 62
     2
100
AcDbLine
 10
205.9
 20
382.55
 30
0.0
 11
208.525
 21
382.55
 31
0.0
  0
LINE
  5
137
100
AcDbEntity
  8
LAY-2
  6
CONTINUOUS
 62
     2
100
AcDbLine
 10
211.775041
 20
382.55
 30
0.0
 11
214.656584
 21
382.55
 31
0.0
  0
LINE
  5
138
100
AcDbEntity
  8
LAY-2
  6
CONTINUOUS
 62
     2
100
AcDbLine
 10
216.123092
 20
382.55
 30
0.0
 11
222.676908
 21
382.55
 31
0.0
  0
LINE
  5
139
100
AcDbEntity
  8
LAY-2
  6
CONTINUOUS
 62
     2
100
AcDbLine
 10
224.143416
 20
382.55
 30
0.0
 11
227.024959
 21
382.55
 31
0.0
  0
LINE
  5
13A
100
AcDbEntity
  8
LAY-2
  6
CONTINUOUS
 62
     2
100
AcDbLine
 10
227.82725
 20
382.55
 30
0.0
 11
230.417131
 21
382.55
 31
0.0
  0
LINE
  5
13B
100
AcDbEntity
  8
LAY-2
  6
CONTINUOUS
 62
     2
100
AcDbLine
 10
236.425
 20
382.55
 30
0.0
 11
239.05
 21
382.55
 31
0.0
  0
LINE
  5
13C
100
AcDbEntity
  8
LAY-2
  6
CONTINUOUS
 62
     2
100
AcDbLine
 10
247.6
 20
382.55
 30
0.0
 11
250.15
 21
382.55
 31
0.0
  0
LINE
  5
13D
100
AcDbEntity
  8
LAY-2
  6
CONTINUOUS
 62
     2
100
AcDbLine
 10
253.178952
 20
382.55
 30
0.0
 11
255.332445
 21
382.55
 31
0.0
  0
LINE
  5
13E
100
AcDbEntity
  8
LAY-2
  6
CONTINUOUS
 62
     2
100
AcDbLine
 10
255.4
 20
382.55
 30
0.0
 11
257.95
 21
382.55
 31
0.0
  0
LINE
  5
13F
100
AcDbEntity
  8
LAY-2
  6
CONTINUOUS
 62
     2
100
AcDbLine
 10
205.9
 20
382.175
 30
0.0
 11
208.525
 21
382.175
 31
0.0
  0
LINE
  5
140
100
AcDbEntity
  8
LAY-2
  6
CONTINUOUS
 62
     2
100
AcDbLine
 10
211.895876
 20
382.175
 30
0.0
 11
214.853367
 21
382.175
 31
0.0
  0
LINE
  5
141
100
AcDbEntity
  8
LAY-2
  6
CONTINUOUS
 62
     2
100
AcDbLine
 10
216.415038
 20
382.175
 30
0.0
 11
222.384962
 21
382.175
 31
0.0
  0
LINE
  5
142
100
AcDbEntity
  8
LAY-2
  6
CONTINUOUS
 62
     2
100
AcDbLine
 10
223.946633
 20
382.175
 30
0.0
 11
226.904124
 21
382.175
 31
0.0
  0
LINE
  5
143
100
AcDbEntity
  8
LAY-2
  6
CONTINUOUS
 62
     2
100
AcDbLine
 10
227.718078
 20
382.175
 30
0.0
 11
230.079069
 21
382.175
 31
0.0
  0
LINE
  5
144
100
AcDbEntity
  8
LAY-2
  6
CONTINUOUS
 62
     2
100
AcDbLine
 10
236.425
 20
382.175
 30
0.0
 11
239.05
 21
382.175
 31
0.0
  0
LINE
  5
145
100
AcDbEntity
  8
LAY-2
  6
CONTINUOUS
 62
     2
100
AcDbLine
 10
247.6
 20
382.175
 30
0.0
 11
250.15
 21
382.175
 31
0.0
  0
LINE
  5
146
100
AcDbEntity
  8
LAY-2
  6
CONTINUOUS
 62
     2
100
AcDbLine
 10
253.425735
 20
382.175
 30
0.0
 11
257.95
 21
382.175
 31
0.0
  0
LINE
  5
147
100
AcDbEntity
  8
LAY-2
  6
CONTINUOUS
 62
     2
100
AcDbLine
 10
205.9
 20
381.8
 30
0.0
 11
208.525
 21
381.8
 31
0.0
  0
LINE
  5
148
100
AcDbEntity
  8
LAY-2
  6
CONTINUOUS
 62
     2
100
AcDbLine
 10
212.037765
 20
381.8
 30
0.0
 11
215.091578
 21
381.8
 31
0.0
  0
LINE
  5
149
100
AcDbEntity
  8
LAY-2
  6
CONTINUOUS
 62
     2
100
AcDbLine
 10
216.792199
 20
381.8
 30
0.0
 11
222.007801
 21
381.8
 31
0.0
  0
LINE
  5
14A
100
AcDbEntity
  8
LAY-2
  6
CONTINUOUS
 62
     2
100
AcDbLine
 10
223.708422
 20
381.8
 30
0.0
 11
226.762235
 21
381.8
 31
0.0
  0
LINE
  5
14B
100
AcDbEntity
  8
LAY-2
  6
CONTINUOUS
 62
     2
100
AcDbLine
 10
227.590302
 20
381.8
 30
0.0
 11
235.15
 21
381.8
 31
0.0
  0
LINE
  5
14C
100
AcDbEntity
  8
LAY-2
  6
CONTINUOUS
 62
     2
100
AcDbLine
 10
236.425
 20
381.8
 30
0.0
 11
246.475
 21
381.8
 31
0.0
  0
LINE
  5
14D
100
AcDbEntity
  8
LAY-2
  6
CONTINUOUS
 62
     2
100
AcDbLine
 10
247.6
 20
381.8
 30
0.0
 11
250.15
 21
381.8
 31
0.0
  0
LINE
  5
14E
100
AcDbEntity
  8
LAY-2
  6
CONTINUOUS
 62
     2
100
AcDbLine
 10
253.672518
 20
381.8
 30
0.0
 11
257.95
 21
381.8
 31
0.0
  0
LINE
  5
14F
100
AcDbEntity
  8
LAY-2
  6
CONTINUOUS
 62
     2
100
AcDbLine
 10
205.9
 20
381.425
 30
0.0
 11
208.525
 21
381.425
 31
0.0
  0
LINE
  5
150
100
AcDbEntity
  8
LAY-2
  6
CONTINUOUS
 62
     2
100
AcDbLine
 10
212.201953
 20
381.425
 30
0.0
 11
215.378573
 21
381.425
 31
0.0
  0
LINE
  5
151
100
AcDbEntity
  8
LAY-2
  6
CONTINUOUS
 62
     2
100
AcDbLine
 10
217.3
 20
381.425
 30
0.0
 11
221.5
 21
381.425
 31
0.0
  0
LINE
  5
152
100
AcDbEntity
  8
LAY-2
  6
CONTINUOUS
 62
     2
100
AcDbLine
 10
223.421427
 20
381.425
 30
0.0
 11
226.598047
 21
381.425
 31
0.0
  0
LINE
  5
153
100
AcDbEntity
  8
LAY-2
  6
CONTINUOUS
 62
     2
100
AcDbLine
 10
227.443036
 20
381.425
 30
0.0
 11
235.15
 21
381.425
 31
0.0
  0
LINE
  5
154
100
AcDbEntity
  8
LAY-2
  6
CONTINUOUS
 62
     2
100
AcDbLine
 10
236.425
 20
381.425
 30
0.0
 11
246.475
 21
381.425
 31
0.0
  0
LINE
  5
155
100
AcDbEntity
  8
LAY-2
  6
CONTINUOUS
 62
     2
100
AcDbLine
 10
247.6
 20
381.425
 30
0.0
 11
250.15
 21
381.425
 31
0.0
  0
LINE
  5
156
100
AcDbEntity
  8
LAY-2
  6
CONTINUOUS
 62
     2
100
AcDbLine
 10
253.919301
 20
381.425
 30
0.0
 11
257.95
 21
381.425
 31
0.0
  0
LINE
  5
157
100
AcDbEntity
  8
LAY-2
  6
CONTINUOUS
 62
     2
100
AcDbLine
 10
205.9
 20
381.05
 30
0.0
 11
208.525
 21
381.05
 31
0.0
  0
LINE
  5
158
100
AcDbEntity
  8
LAY-2
  6
CONTINUOUS
 62
     2
100
AcDbLine
 10
212.390007
 20
381.05
 30
0.0
 11
215.725765
 21
381.05
 31
0.0
  0
LINE
  5
159
100
AcDbEntity
  8
LAY-2
  6
CONTINUOUS
 62
     2
100
AcDbLine
 10
218.08162
 20
381.05
 30
0.0
 11
220.71838
 21
381.05
 31
0.0
  0
LINE
  5
15A
100
AcDbEntity
  8
LAY-2
  6
CONTINUOUS
 62
     2
100
AcDbLine
 10
223.074235
 20
381.05
 30
0.0
 11
226.409993
 21
381.05
 31
0.0
  0
LINE
  5
15B
100
AcDbEntity
  8
LAY-2
  6
CONTINUOUS
 62
     2
100
AcDbLine
 10
227.275186
 20
381.05
 30
0.0
 11
235.15
 21
381.05
 31
0.0
  0
LINE
  5
15C
100
AcDbEntity
  8
LAY-2
  6
CONTINUOUS
 62
     2
100
AcDbLine
 10
236.425
 20
381.05
 30
0.0
 11
246.475
 21
381.05
 31
0.0
  0
LINE
  5
15D
100
AcDbEntity
  8
LAY-2
  6
CONTINUOUS
 62
     2
100
AcDbLine
 10
247.6
 20
381.05
 30
0.0
 11
250.15
 21
381.05
 31
0.0
  0
LINE
  5
15E
100
AcDbEntity
  8
LAY-2
  6
CONTINUOUS
 62
     2
100
AcDbLine
 10
254.166085
 20
381.05
 30
0.0
 11
257.95
 21
381.05
 31
0.0
  0
LINE
  5
15F
100
AcDbEntity
  8
LAY-2
  6
CONTINUOUS
 62
     2
100
AcDbLine
 10
205.9
 20
380.675
 30
0.0
 11
208.525
 21
380.675
 31
0.0
  0
LINE
  5
160
100
AcDbEntity
  8
LAY-2
  6
CONTINUOUS
 62
     2
100
AcDbLine
 10
212.603907
 20
380.675
 30
0.0
 11
216.152405
 21
380.675
 31
0.0
  0
LINE
  5
161
100
AcDbEntity
  8
LAY-2
  6
CONTINUOUS
 62
     2
100
AcDbLine
 10
222.647595
 20
380.675
 30
0.0
 11
226.196093
 21
380.675
 31
0.0
  0
LINE
  5
162
100
AcDbEntity
  8
LAY-2
  6
CONTINUOUS
 62
     2
100
AcDbLine
 10
227.085403
 20
380.675
 30
0.0
 11
235.15
 21
380.675
 31
0.0
  0
LINE
  5
163
100
AcDbEntity
  8
LAY-2
  6
CONTINUOUS
 62
     2
100
AcDbLine
 10
236.425
 20
380.675
 30
0.0
 11
246.475
 21
380.675
 31
0.0
  0
LINE
  5
164
100
AcDbEntity
  8
LAY-2
  6
CONTINUOUS
 62
     2
100
AcDbLine
 10
247.6
 20
380.675
 30
0.0
 11
250.15
 21
380.675
 31
0.0
  0
LINE
  5
165
100
AcDbEntity
  8
LAY-2
  6
CONTINUOUS
 62
     2
100
AcDbLine
 10
254.412868
 20
380.675
 30
0.0
 11
257.95
 21
380.675
 31
0.0
  0
LINE
  5
166
100
AcDbEntity
  8
LAY-2
  6
CONTINUOUS
 62
     2
100
AcDbLine
 10
205.9
 20
380.3
 30
0.0
 11
208.525
 21
380.3
 31
0.0
  0
LINE
  5
167
100
AcDbEntity
  8
LAY-2
  6
CONTINUOUS
 62
     2
100
AcDbLine
 10
212.846184
 20
380.3
 30
0.0
 11
216.695837
 21
380.3
 31
0.0
  0
LINE
  5
168
100
AcDbEntity
  8
LAY-2
  6
CONTINUOUS
 62
     2
100
AcDbLine
 10
222.104163
 20
380.3
 30
0.0
 11
225.953816
 21
380.3
 31
0.0
  0
LINE
  5
169
100
AcDbEntity
  8
LAY-2
  6
CONTINUOUS
 62
     2
100
AcDbLine
 10
226.872018
 20
380.3
 30
0.0
 11
235.15
 21
380.3
 31
0.0
  0
LINE
  5
16A
100
AcDbEntity
  8
LAY-2
  6
CONTINUOUS
 62
     2
100
AcDbLine
 10
236.425
 20
380.3
 30
0.0
 11
246.475
 21
380.3
 31
0.0
  0
LINE
  5
16B
100
AcDbEntity
  8
LAY-2
  6
CONTINUOUS
 62
     2
100
AcDbLine
 10
247.6
 20
380.3
 30
0.0
 11
250.15
 21
380.3
 31
0.0
  0
LINE
  5
16C
100
AcDbEntity
  8
LAY-2
  6
CONTINUOUS
 62
     2
100
AcDbLine
 10
254.659651
 20
380.3
 30
0.0
 11
257.95
 21
380.3
 31
0.0
  0
LINE
  5
16D
100
AcDbEntity
  8
LAY-2
  6
CONTINUOUS
 62
     2
100
AcDbLine
 10
205.9
 20
379.925
 30
0.0
 11
208.525
 21
379.925
 31
0.0
  0
LINE
  5
16E
100
AcDbEntity
  8
LAY-2
  6
CONTINUOUS
 62
     2
100
AcDbLine
 10
213.120121
 20
379.925
 30
0.0
 11
217.451443
 21
379.925
 31
0.0
  0
LINE
  5
16F
100
AcDbEntity
  8
LAY-2
  6
CONTINUOUS
 62
     2
100
AcDbLine
 10
221.348557
 20
379.925
 30
0.0
 11
225.679879
 21
379.925
 31
0.0
  0
LINE
  5
170
100
AcDbEntity
  8
LAY-2
  6
CONTINUOUS
 62
     2
100
AcDbLine
 10
226.63294
 20
379.925
 30
0.0
 11
235.15
 21
379.925
 31
0.0
  0
LINE
  5
171
100
AcDbEntity
  8
LAY-2
  6
CONTINUOUS
 62
     2
100
AcDbLine
 10
236.425
 20
379.925
 30
0.0
 11
246.475
 21
379.925
 31
0.0
  0
LINE
  5
172
100
AcDbEntity
  8
LAY-2
  6
CONTINUOUS
 62
     2
100
AcDbLine
 10
247.6
 20
379.925
 30
0.0
 11
250.15
 21
379.925
 31
0.0
  0
LINE
  5
173
100
AcDbEntity
  8
LAY-2
  6
CONTINUOUS
 62
     2
100
AcDbLine
 10
254.906434
 20
379.925
 30
0.0
 11
257.95
 21
379.925
 31
0.0
  0
LINE
  5
174
100
AcDbEntity
  8
LAY-2
  6
CONTINUOUS
 62
     2
100
AcDbLine
 10
205.9
 20
379.55
 30
0.0
 11
208.525
 21
379.55
 31
0.0
  0
LINE
  5
175
100
AcDbEntity
  8
LAY-2
  6
CONTINUOUS
 62
     2
100
AcDbLine
 10
213.430075
 20
379.55
 30
0.0
 11
225.369925
 21
379.55
 31
0.0
  0
LINE
  5
176
100
AcDbEntity
  8
LAY-2
  6
CONTINUOUS
 62
     2
100
AcDbLine
 10
226.365526
 20
379.55
 30
0.0
 11
235.15
 21
379.55
 31
0.0
  0
LINE
  5
177
100
AcDbEntity
  8
LAY-2
  6
CONTINUOUS
 62
     2
100
AcDbLine
 10
236.425
 20
379.55
 30
0.0
 11
246.475
 21
379.55
 31
0.0
  0
LINE
  5
178
100
AcDbEntity
  8
LAY-2
  6
CONTINUOUS
 62
     2
100
AcDbLine
 10
247.6
 20
379.55
 30
0.0
 11
250.15
 21
379.55
 31
0.0
  0
LINE
  5
179
100
AcDbEntity
  8
LAY-2
  6
CONTINUOUS
 62
     2
100
AcDbLine
 10
255.153217
 20
379.55
 30
0.0
 11
257.95
 21
379.55
 31
0.0
  0
LINE
  5
17A
100
AcDbEntity
  8
LAY-2
  6
CONTINUOUS
 62
     2
100
AcDbLine
 10
213.782004
 20
379.175
 30
0.0
 11
225.017996
 21
379.175
 31
0.0
  0
LINE
  5
17B
100
AcDbEntity
  8
LAY-2
  6
CONTINUOUS
 62
     2
100
AcDbLine
 10
214.184398
 20
378.8
 30
0.0
 11
224.615602
 21
378.8
 31
0.0
  0
LINE
  5
17C
100
AcDbEntity
  8
LAY-2
  6
CONTINUOUS
 62
     2
100
AcDbLine
 10
214.650066
 20
378.425
 30
0.0
 11
224.149934
 21
378.425
 31
0.0
  0
LINE
  5
17D
100
AcDbEntity
  8
LAY-2
  6
CONTINUOUS
 62
     2
100
AcDbLine
 10
215.2
 20
378.05
 30
0.0
 11
223.6
 21
378.05
 31
0.0
  0
LINE
  5
17E
100
AcDbEntity
  8
LAY-2
  6
CONTINUOUS
 62
     2
100
AcDbLine
 10
215.873405
 20
377.675
 30
0.0
 11
222.926595
 21
377.675
 31
0.0
  0
LINE
  5
17F
100
AcDbEntity
  8
LAY-2
  6
CONTINUOUS
 62
     2
100
AcDbLine
 10
216.763241
 20
377.3
 30
0.0
 11
222.036759
 21
377.3
 31
0.0
  0
LINE
  5
180
100
AcDbEntity
  8
LAY-2
  6
CONTINUOUS
 62
     2
100
AcDbLine
 10
218.310562
 20
376.925
 30
0.0
 11
220.489438
 21
376.925
 31
0.0
  0
LINE
  5
181
100
AcDbEntity
  8
LAY-2
  6
CONTINUOUS
 62
     3
100
AcDbLine
 10
221.891233
 20
699.8
 30
0.0
 11
220.685426
 21
699.8
 31
0.0
  0
LINE
  5
182
100
AcDbEntity
  8
LAY-2
  6
CONTINUOUS
 62
     3
100
AcDbLine
 10
122.45
 20
313.824392
 30
0.0
 11
122.45
 21
305.824392
 31
0.0
  0
LINE
  5
183
100
AcDbEntity
  8
LAY-2
  6
CONTINUOUS
 62
     3
100
AcDbLine
 10
104.45
 20
297.824392
 30
0.0
 11
112.45
 21
297.824392
 31
0.0
  0
LINE
  5
184
100
AcDbEntity
  8
LAY-2
  6
CONTINUOUS
 62
     3
100
AcDbLine
 10
101.7
 20
298.824392
 30
0.0
 11
115.2
 21
298.824392
 31
0.0
  0
LINE
  5
185
100
AcDbEntity
  8
LAY-2
  6
CONTINUOUS
 62
     3
100
AcDbLine
 10
121.45
 20
316.574392
 30
0.0
 11
121.45
 21
303.074392
 31
0.0
  0
LINE
  5
186
100
AcDbEntity
  8
LAY-2
  6
CONTINUOUS
 62
     3
100
AcDbLine
 10
119.85
 20
316.574392
 30
0.0
 11
119.85
 21
303.074392
 31
0.0
  0
LINE
  5
187
100
AcDbEntity
  8
LAY-2
  6
CONTINUOUS
 62
     3
100
AcDbLine
 10
101.7
 20
300.424392
 30
0.0
 11
115.2
 21
300.424392
 31
0.0
  0
LINE
  5
188
100
AcDbEntity
  8
LAY-2
  6
CONTINUOUS
 62
     3
100
AcDbLine
 10
101.7
 20
300.424392
 30
0.0
 11
101.7
 21
298.824392
 31
0.0
  0
LINE
  5
189
100
AcDbEntity
  8
LAY-2
  6
CONTINUOUS
 62
     3
100
AcDbLine
 10
115.2
 20
300.424392
 30
0.0
 11
115.2
 21
298.824392
 31
0.0
  0
LINE
  5
18A
100
AcDbEntity
  8
LAY-2
  6
CONTINUOUS
 62
     3
100
AcDbLine
 10
119.85
 20
316.574392
 30
0.0
 11
121.45
 21
316.574392
 31
0.0
  0
LINE
  5
18B
100
AcDbEntity
  8
LAY-2
  6
CONTINUOUS
 62
     3
100
AcDbLine
 10
119.85
 20
303.074392
 30
0.0
 11
121.45
 21
303.074392
 31
0.0
  0
LINE
  5
18C
100
AcDbEntity
  8
LAY-2
  6
CONTINUOUS
 62
     3
100
AcDbLine
 10
121.45
 20
313.824392
 30
0.0
 11
122.45
 21
313.824392
 31
0.0
  0
LINE
  5
18D
100
AcDbEntity
  8
LAY-2
  6
CONTINUOUS
 62
     3
100
AcDbLine
 10
121.45
 20
305.824392
 30
0.0
 11
122.45
 21
305.824392
 31
0.0
  0
LINE
  5
18E
100
AcDbEntity
  8
LAY-2
  6
CONTINUOUS
 62
     3
100
AcDbLine
 10
112.45
 20
298.824392
 30
0.0
 11
112.45
 21
297.824392
 31
0.0
  0
LINE
  5
18F
100
AcDbEntity
  8
LAY-2
  6
CONTINUOUS
 62
     3
100
AcDbLine
 10
104.45
 20
298.824392
 30
0.0
 11
104.45
 21
297.824392
 31
0.0
  0
LINE
  5
190
100
AcDbEntity
  8
LAY-2
  6
CONTINUOUS
 62
     3
100
AcDbLine
 10
119.35
 20
312.324392
 30
0.0
 11
119.35
 21
307.324392
 31
0.0
  0
LINE
  5
191
100
AcDbEntity
  8
LAY-2
  6
CONTINUOUS
 62
     3
100
AcDbLine
 10
119.85
 20
312.824392
 30
0.0
 11
119.35
 21
312.324392
 31
0.0
  0
LINE
  5
192
100
AcDbEntity
  8
LAY-2
  6
CONTINUOUS
 62
     3
100
AcDbLine
 10
105.45
 20
300.424392
 30
0.0
 11
105.95
 21
300.924392
 31
0.0
  0
LINE
  5
193
100
AcDbEntity
  8
LAY-2
  6
CONTINUOUS
 62
     3
100
AcDbLine
 10
119.85
 20
306.824392
 30
0.0
 11
119.35
 21
307.324392
 31
0.0
  0
LINE
  5
194
100
AcDbEntity
  8
LAY-2
  6
CONTINUOUS
 62
     3
100
AcDbLine
 10
111.45
 20
300.424392
 30
0.0
 11
110.95
 21
300.924392
 31
0.0
  0
LINE
  5
195
100
AcDbEntity
  8
LAY-2
  6
CONTINUOUS
 62
     3
100
AcDbLine
 10
117.85
 20
312.455625
 30
0.0
 11
117.85
 21
307.193159
 31
0.0
  0
LINE
  5
196
100
AcDbEntity
  8
LAY-2
  6
CONTINUOUS
 62
     3
100
AcDbLine
 10
116.85
 20
312.455625
 30
0.0
 11
116.85
 21
307.193159
 31
0.0
  0
LINE
  5
197
100
AcDbEntity
  8
LAY-2
  6
CONTINUOUS
 62
     3
100
AcDbLine
 10
117.062908
 20
312.824392
 30
0.0
 11
117.637092
 21
312.824392
 31
0.0
  0
LINE
  5
198
100
AcDbEntity
  8
LAY-2
  6
CONTINUOUS
 62
     3
100
AcDbLine
 10
117.062908
 20
306.824392
 30
0.0
 11
117.637092
 21
306.824392
 31
0.0
  0
LINE
  5
199
100
AcDbEntity
  8
LAY-2
  6
CONTINUOUS
 62
     3
100
AcDbLine
 10
117.85
 20
307.193159
 30
0.0
 11
119.35
 21
307.324392
 31
0.0
  0
LINE
  5
19A
100
AcDbEntity
  8
LAY-2
  6
CONTINUOUS
 62
     3
100
AcDbLine
 10
117.85
 20
312.455625
 30
0.0
 11
117.637092
 21
312.824392
 31
0.0
  0
LINE
  5
19B
100
AcDbEntity
  8
LAY-2
  6
CONTINUOUS
 62
     3
100
AcDbLine
 10
117.85
 20
312.455625
 30
0.0
 11
119.35
 21
312.324392
 31
0.0
  0
LINE
  5
19C
100
AcDbEntity
  8
LAY-2
  6
CONTINUOUS
 62
     3
100
AcDbLine
 10
116.85
 20
312.455625
 30
0.0
 11
117.062908
 21
312.824392
 31
0.0
  0
LINE
  5
19D
100
AcDbEntity
  8
LAY-2
  6
CONTINUOUS
 62
     3
100
AcDbLine
 10
117.85
 20
307.193159
 30
0.0
 11
117.637092
 21
306.824392
 31
0.0
  0
LINE
  5
19E
100
AcDbEntity
  8
LAY-2
  6
CONTINUOUS
 62
     3
100
AcDbLine
 10
116.85
 20
307.193159
 30
0.0
 11
117.062908
 21
306.824392
 31
0.0
  0
LINE
  5
19F
100
AcDbEntity
  8
LAY-2
  6
CONTINUOUS
 62
     3
100
AcDbLine
 10
117.637092
 20
306.824392
 30
0.0
 11
117.637092
 21
312.824392
 31
0.0
  0
LINE
  5
1A0
100
AcDbEntity
  8
LAY-2
  6
CONTINUOUS
 62
     3
100
AcDbLine
 10
117.062908
 20
312.824392
 30
0.0
 11
117.062908
 21
306.824392
 31
0.0
  0
LINE
  5
1A1
100
AcDbEntity
  8
LAY-2
  6
CONTINUOUS
 62
     3
100
AcDbLine
 10
116.85
 20
312.455625
 30
0.0
 11
114.85
 21
312.455625
 31
0.0
  0
LINE
  5
1A2
100
AcDbEntity
  8
LAY-2
  6
CONTINUOUS
 62
     3
100
AcDbLine
 10
116.85
 20
307.193159
 30
0.0
 11
114.85
 21
307.193159
 31
0.0
  0
LINE
  5
1A3
100
AcDbEntity
  8
LAY-2
  6
CONTINUOUS
 62
     3
100
AcDbLine
 10
114.85
 20
312.455625
 30
0.0
 11
114.85
 21
307.193159
 31
0.0
  0
LINE
  5
1A4
100
AcDbEntity
  8
LAY-2
  6
CONTINUOUS
 62
     3
100
AcDbLine
 10
114.85
 20
312.455625
 30
0.0
 11
114.341233
 21
312.964392
 31
0.0
  0
LINE
  5
1A5
100
AcDbEntity
  8
LAY-2
  6
CONTINUOUS
 62
     3
100
AcDbLine
 10
114.85
 20
307.193159
 30
0.0
 11
114.481233
 21
306.824392
 31
0.0
  0
LINE
  5
1A6
100
AcDbEntity
  8
LAY-2
  6
CONTINUOUS
 62
     3
100
AcDbLine
 10
114.341233
 20
312.964392
 30
0.0
 11
114.341233
 21
306.824392
 31
0.0
  0
LINE
  5
1A7
100
AcDbEntity
  8
LAY-2
  6
CONTINUOUS
 62
     3
100
AcDbLine
 10
110.95
 20
300.924392
 30
0.0
 11
105.95
 21
300.924392
 31
0.0
  0
LINE
  5
1A8
100
AcDbEntity
  8
LAY-2
  6
CONTINUOUS
 62
     3
100
AcDbLine
 10
111.081233
 20
302.424392
 30
0.0
 11
111.45
 21
302.637299
 31
0.0
  0
LINE
  5
1A9
100
AcDbEntity
  8
LAY-2
  6
CONTINUOUS
 62
     3
100
AcDbLine
 10
111.081233
 20
302.424392
 30
0.0
 11
110.95
 21
300.924392
 31
0.0
  0
LINE
  5
1AA
100
AcDbEntity
  8
LAY-2
  6
CONTINUOUS
 62
     3
100
AcDbLine
 10
111.081233
 20
303.424392
 30
0.0
 11
111.45
 21
303.211484
 31
0.0
  0
LINE
  5
1AB
100
AcDbEntity
  8
LAY-2
  6
CONTINUOUS
 62
     3
100
AcDbLine
 10
111.45
 20
303.211484
 30
0.0
 11
111.45
 21
302.637299
 31
0.0
  0
LINE
  5
1AC
100
AcDbEntity
  8
LAY-2
  6
CONTINUOUS
 62
     3
100
AcDbLine
 10
111.081233
 20
302.424392
 30
0.0
 11
105.818767
 21
302.424392
 31
0.0
  0
LINE
  5
1AD
100
AcDbEntity
  8
LAY-2
  6
CONTINUOUS
 62
     3
100
AcDbLine
 10
105.818767
 20
302.424392
 30
0.0
 11
105.95
 21
300.924392
 31
0.0
  0
LINE
  5
1AE
100
AcDbEntity
  8
LAY-2
  6
CONTINUOUS
 62
     3
100
AcDbLine
 10
111.081233
 20
303.424392
 30
0.0
 11
105.818767
 21
303.424392
 31
0.0
  0
LINE
  5
1AF
100
AcDbEntity
  8
LAY-2
  6
CONTINUOUS
 62
     3
100
AcDbLine
 10
105.818767
 20
302.424392
 30
0.0
 11
105.45
 21
302.637299
 31
0.0
  0
LINE
  5
1B0
100
AcDbEntity
  8
LAY-2
  6
CONTINUOUS
 62
     3
100
AcDbLine
 10
105.818767
 20
303.424392
 30
0.0
 11
105.45
 21
303.211484
 31
0.0
  0
LINE
  5
1B1
100
AcDbEntity
  8
LAY-2
  6
CONTINUOUS
 62
     3
100
AcDbLine
 10
105.45
 20
303.211484
 30
0.0
 11
105.45
 21
302.637299
 31
0.0
  0
LINE
  5
1B2
100
AcDbEntity
  8
LAY-2
  6
CONTINUOUS
 62
     3
100
AcDbLine
 10
105.45
 20
302.637299
 30
0.0
 11
111.45
 21
302.637299
 31
0.0
  0
LINE
  5
1B3
100
AcDbEntity
  8
LAY-2
  6
CONTINUOUS
 62
     3
100
AcDbLine
 10
111.45
 20
303.211484
 30
0.0
 11
105.45
 21
303.211484
 31
0.0
  0
LINE
  5
1B4
100
AcDbEntity
  8
LAY-2
  6
CONTINUOUS
 62
     3
100
AcDbLine
 10
111.081233
 20
303.724392
 30
0.0
 11
105.818767
 21
303.724392
 31
0.0
  0
LINE
  5
1B5
100
AcDbEntity
  8
LAY-2
  6
CONTINUOUS
 62
     3
100
AcDbLine
 10
111.081233
 20
303.724392
 30
0.0
 11
111.59
 21
304.233159
 31
0.0
  0
LINE
  5
1B6
100
AcDbEntity
  8
LAY-2
  6
CONTINUOUS
 62
     3
100
AcDbLine
 10
111.081233
 20
303.424392
 30
0.0
 11
111.081233
 21
303.724392
 31
0.0
  0
LINE
  5
1B7
100
AcDbEntity
  8
LAY-2
  6
CONTINUOUS
 62
     3
100
AcDbLine
 10
105.818767
 20
303.424392
 30
0.0
 11
105.818767
 21
303.724392
 31
0.0
  0
LINE
  5
1B8
100
AcDbEntity
  8
LAY-2
  6
CONTINUOUS
 62
     3
100
AcDbLine
 10
111.59
 20
304.233159
 30
0.0
 11
105.45
 21
304.233159
 31
0.0
  0
LINE
  5
1B9
100
AcDbEntity
  8
LAY-2
  6
CONTINUOUS
 62
     3
100
AcDbLine
 10
114.481233
 20
306.824392
 30
0.0
 11
112.297107
 21
306.824392
 31
0.0
  0
LINE
  5
1BA
100
AcDbEntity
  8
LAY-2
  6
CONTINUOUS
 62
     3
100
AcDbLine
 10
114.341233
 20
312.964392
 30
0.0
 11
113.135426
 21
312.964392
 31
0.0
  0
ARC
  5
1BB
100
AcDbEntity
  8
LAY-2
  6
CONTINUOUS
 62
     3
100
AcDbCircle
 10
109.455053
 20
308.959339
 30
0.0
 40
4.005053
100
AcDbArc
 50
255.466488
 51
255.927803
  0
ARC
  5
1BC
100
AcDbEntity
  8
LAY-2
  6
CONTINUOUS
 62
     3
100
AcDbCircle
 10
109.455053
 20
308.959339
 30
0.0
 40
4.005053
100
AcDbArc
 50
12.245542
 51
12.473637
  0
LINE
  5
1BD
100
AcDbEntity
  8
LAY-2
  6
CONTINUOUS
 62
     3
100
AcDbLine
 10
111.59
 20
306.117285
 30
0.0
 11
107.044982
 21
310.662303
 31
0.0
  0
LINE
  5
1BE
100
AcDbEntity
  8
LAY-2
  6
CONTINUOUS
 62
     3
100
AcDbLine
 10
112.297107
 20
306.824392
 30
0.0
 11
107.763553
 21
311.357945
 31
0.0
  0
LINE
  5
1BF
100
AcDbEntity
  8
LAY-2
  6
CONTINUOUS
 62
     3
100
AcDbLine
 10
105.45
 20
304.233159
 30
0.0
 11
105.818767
 21
303.724392
 31
0.0
  0
ARC
  5
1C0
100
AcDbEntity
  8
LAY-2
  6
CONTINUOUS
 62
     3
100
AcDbCircle
 10
112.308713
 20
305.944025
 30
0.0
 40
7.068876
100
AcDbArc
 50
83.283819
 51
130.014535
  0
LINE
  5
1C1
100
AcDbEntity
  8
LAY-2
  6
CONTINUOUS
 62
     3
100
AcDbLine
 10
107.583432
 20
311.461938
 30
0.0
 11
106.941889
 21
310.840866
 31
0.0
  0
LINE
  5
1C2
100
AcDbEntity
  8
LAY-2
  6
CONTINUOUS
 62
     3
100
AcDbLine
 10
112.408556
 20
306.631355
 30
0.0
 11
111.770121
 21
306.013292
 31
0.0
  0
LINE
  5
1C3
100
AcDbEntity
  8
LAY-2
  6
CONTINUOUS
 62
     3
100
AcDbLine
 10
112.297107
 20
306.824392
 30
0.0
 11
112.408556
 21
306.631355
 31
0.0
  0
LINE
  5
1C4
100
AcDbEntity
  8
LAY-2
  6
CONTINUOUS
 62
     3
100
AcDbLine
 10
111.59
 20
306.117285
 30
0.0
 11
111.770121
 21
306.013292
 31
0.0
  0
LINE
  5
1C5
100
AcDbEntity
  8
LAY-2
  6
CONTINUOUS
 62
     3
100
AcDbLine
 10
111.73144
 20
305.975845
 30
0.0
 11
111.72911
 21
305.97359
 31
0.0
  0
LINE
  5
1C6
100
AcDbEntity
  8
LAY-2
  6
CONTINUOUS
 62
     3
100
AcDbLine
 10
107.763553
 20
311.357945
 30
0.0
 11
107.583432
 21
311.461938
 31
0.0
  0
LINE
  5
1C7
100
AcDbEntity
  8
LAY-2
  6
CONTINUOUS
 62
     3
100
AcDbLine
 10
107.044982
 20
310.662303
 30
0.0
 11
106.941889
 21
310.840866
 31
0.0
  0
ARC
  5
1C8
100
AcDbEntity
  8
LAY-2
  6
CONTINUOUS
 62
     3
100
AcDbCircle
 10
112.308713
 20
305.944025
 30
0.0
 40
7.068876
100
AcDbArc
 50
138.127737
 51
194.00627
  0
LINE
  5
1C9
100
AcDbEntity
  8
LAY-2
  6
CONTINUOUS
 62
     3
100
AcDbLine
 10
111.770121
 20
306.013292
 30
0.0
 11
106.941889
 21
310.840866
 31
0.0
  0
LINE
  5
1CA
100
AcDbEntity
  8
LAY-2
  6
CONTINUOUS
 62
     3
100
AcDbLine
 10
107.583432
 20
311.461938
 30
0.0
 11
112.408556
 21
306.631355
 31
0.0
  0
ARC
  5
1CB
100
AcDbEntity
  8
LAY-2
  6
CONTINUOUS
 62
     3
100
AcDbCircle
 10
103.986364
 20
305.094392
 30
0.0
 40
7.662053
100
AcDbArc
 50
353.555458
 51
7.760723
  0
LINE
  5
1CC
100
AcDbEntity
  8
LAY-2
  6
CONTINUOUS
 62
     3
100
AcDbLine
 10
229.15
 20
313.9
 30
0.0
 11
229.15
 21
305.9
 31
0.0
  0
LINE
  5
1CD
100
AcDbEntity
  8
LAY-2
  6
CONTINUOUS
 62
     3
100
AcDbLine
 10
211.15
 20
297.9
 30
0.0
 11
219.15
 21
297.9
 31
0.0
  0
LINE
  5
1CE
100
AcDbEntity
  8
LAY-2
  6
CONTINUOUS
 62
     3
100
AcDbLine
 10
208.15
 20
298.9
 30
0.0
 11
222.15
 21
298.9
 31
0.0
  0
LINE
  5
1CF
100
AcDbEntity
  8
LAY-2
  6
CONTINUOUS
 62
     3
100
AcDbLine
 10
228.15
 20
316.9
 30
0.0
 11
228.15
 21
302.9
 31
0.0
  0
LINE
  5
1D0
100
AcDbEntity
  8
LAY-2
  6
CONTINUOUS
 62
     3
100
AcDbLine
 10
226.55
 20
316.9
 30
0.0
 11
226.55
 21
302.9
 31
0.0
  0
LINE
  5
1D1
100
AcDbEntity
  8
LAY-2
  6
CONTINUOUS
 62
     3
100
AcDbLine
 10
208.15
 20
300.5
 30
0.0
 11
222.15
 21
300.5
 31
0.0
  0
LINE
  5
1D2
100
AcDbEntity
  8
LAY-2
  6
CONTINUOUS
 62
     3
100
AcDbLine
 10
208.15
 20
300.5
 30
0.0
 11
208.15
 21
298.9
 31
0.0
  0
LINE
  5
1D3
100
AcDbEntity
  8
LAY-2
  6
CONTINUOUS
 62
     3
100
AcDbLine
 10
222.15
 20
300.5
 30
0.0
 11
222.15
 21
298.9
 31
0.0
  0
LINE
  5
1D4
100
AcDbEntity
  8
LAY-2
  6
CONTINUOUS
 62
     3
100
AcDbLine
 10
226.55
 20
316.9
 30
0.0
 11
228.15
 21
316.9
 31
0.0
  0
LINE
  5
1D5
100
AcDbEntity
  8
LAY-2
  6
CONTINUOUS
 62
     3
100
AcDbLine
 10
226.55
 20
302.9
 30
0.0
 11
228.15
 21
302.9
 31
0.0
  0
LINE
  5
1D6
100
AcDbEntity
  8
LAY-2
  6
CONTINUOUS
 62
     3
100
AcDbLine
 10
228.15
 20
313.9
 30
0.0
 11
229.15
 21
313.9
 31
0.0
  0
LINE
  5
1D7
100
AcDbEntity
  8
LAY-2
  6
CONTINUOUS
 62
     3
100
AcDbLine
 10
228.15
 20
305.9
 30
0.0
 11
229.15
 21
305.9
 31
0.0
  0
LINE
  5
1D8
100
AcDbEntity
  8
LAY-2
  6
CONTINUOUS
 62
     3
100
AcDbLine
 10
219.15
 20
298.9
 30
0.0
 11
219.15
 21
297.9
 31
0.0
  0
LINE
  5
1D9
100
AcDbEntity
  8
LAY-2
  6
CONTINUOUS
 62
     3
100
AcDbLine
 10
211.15
 20
298.9
 30
0.0
 11
211.15
 21
297.9
 31
0.0
  0
LINE
  5
1DA
100
AcDbEntity
  8
LAY-2
  6
CONTINUOUS
 62
     3
100
AcDbLine
 10
226.05
 20
312.4
 30
0.0
 11
226.05
 21
307.4
 31
0.0
  0
LINE
  5
1DB
100
AcDbEntity
  8
LAY-2
  6
CONTINUOUS
 62
     3
100
AcDbLine
 10
226.55
 20
312.9
 30
0.0
 11
226.05
 21
312.4
 31
0.0
  0
LINE
  5
1DC
100
AcDbEntity
  8
LAY-2
  6
CONTINUOUS
 62
     3
100
AcDbLine
 10
212.15
 20
300.5
 30
0.0
 11
212.65
 21
301.0
 31
0.0
  0
LINE
  5
1DD
100
AcDbEntity
  8
LAY-2
  6
CONTINUOUS
 62
     3
100
AcDbLine
 10
226.55
 20
306.9
 30
0.0
 11
226.05
 21
307.4
 31
0.0
  0
LINE
  5
1DE
100
AcDbEntity
  8
LAY-2
  6
CONTINUOUS
 62
     3
100
AcDbLine
 10
218.15
 20
300.5
 30
0.0
 11
217.65
 21
301.0
 31
0.0
  0
LINE
  5
1DF
100
AcDbEntity
  8
LAY-2
  6
CONTINUOUS
 62
     3
100
AcDbLine
 10
224.55
 20
312.531233
 30
0.0
 11
224.55
 21
307.268767
 31
0.0
  0
LINE
  5
1E0
100
AcDbEntity
  8
LAY-2
  6
CONTINUOUS
 62
     3
100
AcDbLine
 10
223.55
 20
312.531233
 30
0.0
 11
223.55
 21
307.268767
 31
0.0
  0
LINE
  5
1E1
100
AcDbEntity
  8
LAY-2
  6
CONTINUOUS
 62
     3
100
AcDbLine
 10
223.762908
 20
312.9
 30
0.0
 11
224.337092
 21
312.9
 31
0.0
  0
LINE
  5
1E2
100
AcDbEntity
  8
LAY-2
  6
CONTINUOUS
 62
     3
100
AcDbLine
 10
223.762908
 20
306.9
 30
0.0
 11
224.337092
 21
306.9
 31
0.0
  0
LINE
  5
1E3
100
AcDbEntity
  8
LAY-2
  6
CONTINUOUS
 62
     3
100
AcDbLine
 10
224.55
 20
307.268767
 30
0.0
 11
226.05
 21
307.4
 31
0.0
  0
LINE
  5
1E4
100
AcDbEntity
  8
LAY-2
  6
CONTINUOUS
 62
     3
100
AcDbLine
 10
224.55
 20
312.531233
 30
0.0
 11
224.337092
 21
312.9
 31
0.0
  0
LINE
  5
1E5
100
AcDbEntity
  8
LAY-2
  6
CONTINUOUS
 62
     3
100
AcDbLine
 10
224.55
 20
312.531233
 30
0.0
 11
226.05
 21
312.4
 31
0.0
  0
LINE
  5
1E6
100
AcDbEntity
  8
LAY-2
  6
CONTINUOUS
 62
     3
100
AcDbLine
 10
223.55
 20
312.531233
 30
0.0
 11
223.762908
 21
312.9
 31
0.0
  0
LINE
  5
1E7
100
AcDbEntity
  8
LAY-2
  6
CONTINUOUS
 62
     3
100
AcDbLine
 10
224.55
 20
307.268767
 30
0.0
 11
224.337092
 21
306.9
 31
0.0
  0
LINE
  5
1E8
100
AcDbEntity
  8
LAY-2
  6
CONTINUOUS
 62
     3
100
AcDbLine
 10
223.55
 20
307.268767
 30
0.0
 11
223.762908
 21
306.9
 31
0.0
  0
LINE
  5
1E9
100
AcDbEntity
  8
LAY-2
  6
CONTINUOUS
 62
     3
100
AcDbLine
 10
224.337092
 20
306.9
 30
0.0
 11
224.337092
 21
312.9
 31
0.0
  0
LINE
  5
1EA
100
AcDbEntity
  8
LAY-2
  6
CONTINUOUS
 62
     3
100
AcDbLine
 10
223.762908
 20
312.9
 30
0.0
 11
223.762908
 21
306.9
 31
0.0
  0
LINE
  5
1EB
100
AcDbEntity
  8
LAY-2
  6
CONTINUOUS
 62
     3
100
AcDbLine
 10
223.55
 20
312.531233
 30
0.0
 11
221.55
 21
312.531233
 31
0.0
  0
LINE
  5
1EC
100
AcDbEntity
  8
LAY-2
  6
CONTINUOUS
 62
     3
100
AcDbLine
 10
223.55
 20
307.268767
 30
0.0
 11
221.55
 21
307.268767
 31
0.0
  0
LINE
  5
1ED
100
AcDbEntity
  8
LAY-2
  6
CONTINUOUS
 62
     3
100
AcDbLine
 10
221.55
 20
312.531233
 30
0.0
 11
221.55
 21
307.268767
 31
0.0
  0
LINE
  5
1EE
100
AcDbEntity
  8
LAY-2
  6
CONTINUOUS
 62
     3
100
AcDbLine
 10
221.55
 20
312.531233
 30
0.0
 11
221.041233
 21
313.04
 31
0.0
  0
LINE
  5
1EF
100
AcDbEntity
  8
LAY-2
  6
CONTINUOUS
 62
     3
100
AcDbLine
 10
221.55
 20
307.268767
 30
0.0
 11
221.181233
 21
306.9
 31
0.0
  0
LINE
  5
1F0
100
AcDbEntity
  8
LAY-2
  6
CONTINUOUS
 62
     3
100
AcDbLine
 10
221.041233
 20
313.04
 30
0.0
 11
221.041233
 21
306.9
 31
0.0
  0
LINE
  5
1F1
100
AcDbEntity
  8
LAY-2
  6
CONTINUOUS
 62
     3
100
AcDbLine
 10
217.65
 20
301.0
 30
0.0
 11
212.65
 21
301.0
 31
0.0
  0
LINE
  5
1F2
100
AcDbEntity
  8
LAY-2
  6
CONTINUOUS
 62
     3
100
AcDbLine
 10
217.781233
 20
302.5
 30
0.0
 11
218.15
 21
302.712908
 31
0.0
  0
LINE
  5
1F3
100
AcDbEntity
  8
LAY-2
  6
CONTINUOUS
 62
     3
100
AcDbLine
 10
217.781233
 20
302.5
 30
0.0
 11
217.65
 21
301.0
 31
0.0
  0
LINE
  5
1F4
100
AcDbEntity
  8
LAY-2
  6
CONTINUOUS
 62
     3
100
AcDbLine
 10
217.781233
 20
303.5
 30
0.0
 11
218.15
 21
303.287092
 31
0.0
  0
LINE
  5
1F5
100
AcDbEntity
  8
LAY-2
  6
CONTINUOUS
 62
     3
100
AcDbLine
 10
218.15
 20
303.287092
 30
0.0
 11
218.15
 21
302.712908
 31
0.0
  0
LINE
  5
1F6
100
AcDbEntity
  8
LAY-2
  6
CONTINUOUS
 62
     3
100
AcDbLine
 10
217.781233
 20
302.5
 30
0.0
 11
212.518767
 21
302.5
 31
0.0
  0
LINE
  5
1F7
100
AcDbEntity
  8
LAY-2
  6
CONTINUOUS
 62
     3
100
AcDbLine
 10
212.518767
 20
302.5
 30
0.0
 11
212.65
 21
301.0
 31
0.0
  0
LINE
  5
1F8
100
AcDbEntity
  8
LAY-2
  6
CONTINUOUS
 62
     3
100
AcDbLine
 10
217.781233
 20
303.5
 30
0.0
 11
212.518767
 21
303.5
 31
0.0
  0
LINE
  5
1F9
100
AcDbEntity
  8
LAY-2
  6
CONTINUOUS
 62
     3
100
AcDbLine
 10
212.518767
 20
302.5
 30
0.0
 11
212.15
 21
302.712908
 31
0.0
  0
LINE
  5
1FA
100
AcDbEntity
  8
LAY-2
  6
CONTINUOUS
 62
     3
100
AcDbLine
 10
212.518767
 20
303.5
 30
0.0
 11
212.15
 21
303.287092
 31
0.0
  0
LINE
  5
1FB
100
AcDbEntity
  8
LAY-2
  6
CONTINUOUS
 62
     3
100
AcDbLine
 10
212.15
 20
303.287092
 30
0.0
 11
212.15
 21
302.712908
 31
0.0
  0
LINE
  5
1FC
100
AcDbEntity
  8
LAY-2
  6
CONTINUOUS
 62
     3
100
AcDbLine
 10
212.15
 20
302.712908
 30
0.0
 11
218.15
 21
302.712908
 31
0.0
  0
LINE
  5
1FD
100
AcDbEntity
  8
LAY-2
  6
CONTINUOUS
 62
     3
100
AcDbLine
 10
218.15
 20
303.287092
 30
0.0
 11
212.15
 21
303.287092
 31
0.0
  0
LINE
  5
1FE
100
AcDbEntity
  8
LAY-2
  6
CONTINUOUS
 62
     3
100
AcDbLine
 10
217.781233
 20
303.8
 30
0.0
 11
212.518767
 21
303.8
 31
0.0
  0
LINE
  5
1FF
100
AcDbEntity
  8
LAY-2
  6
CONTINUOUS
 62
     3
100
AcDbLine
 10
217.781233
 20
303.8
 30
0.0
 11
218.29
 21
304.308767
 31
0.0
  0
LINE
  5
200
100
AcDbEntity
  8
LAY-2
  6
CONTINUOUS
 62
     3
100
AcDbLine
 10
217.781233
 20
303.5
 30
0.0
 11
217.781233
 21
303.8
 31
0.0
  0
LINE
  5
201
100
AcDbEntity
  8
LAY-2
  6
CONTINUOUS
 62
     3
100
AcDbLine
 10
212.518767
 20
303.5
 30
0.0
 11
212.518767
 21
303.8
 31
0.0
  0
LINE
  5
202
100
AcDbEntity
  8
LAY-2
  6
CONTINUOUS
 62
     3
100
AcDbLine
 10
218.29
 20
304.308767
 30
0.0
 11
212.15
 21
304.308767
 31
0.0
  0
LINE
  5
203
100
AcDbEntity
  8
LAY-2
  6
CONTINUOUS
 62
     3
100
AcDbLine
 10
221.181233
 20
306.9
 30
0.0
 11
218.997107
 21
306.9
 31
0.0
  0
LINE
  5
204
100
AcDbEntity
  8
LAY-2
  6
CONTINUOUS
 62
     3
100
AcDbLine
 10
221.041233
 20
313.04
 30
0.0
 11
219.835426
 21
313.04
 31
0.0
  0
ARC
  5
205
100
AcDbEntity
  8
LAY-2
  6
CONTINUOUS
 62
     3
100
AcDbCircle
 10
216.155053
 20
309.034947
 30
0.0
 40
4.005053
100
AcDbArc
 50
255.466488
 51
255.927803
  0
ARC
  5
206
100
AcDbEntity
  8
LAY-2
  6
CONTINUOUS
 62
     3
100
AcDbCircle
 10
216.155053
 20
309.034947
 30
0.0
 40
4.005053
100
AcDbArc
 50
12.245542
 51
12.473637
  0
LINE
  5
207
100
AcDbEntity
  8
LAY-2
  6
CONTINUOUS
 62
     3
100
AcDbLine
 10
218.29
 20
306.192893
 30
0.0
 11
213.744982
 21
310.737911
 31
0.0
  0
LINE
  5
208
100
AcDbEntity
  8
LAY-2
  6
CONTINUOUS
 62
     3
100
AcDbLine
 10
218.997107
 20
306.9
 30
0.0
 11
214.463553
 21
311.433553
 31
0.0
  0
LINE
  5
209
100
AcDbEntity
  8
LAY-2
  6
CONTINUOUS
 62
     3
100
AcDbLine
 10
212.15
 20
304.308767
 30
0.0
 11
212.518767
 21
303.8
 31
0.0
  0
ARC
  5
20A
100
AcDbEntity
  8
LAY-2
  6
CONTINUOUS
 62
     3
100
AcDbCircle
 10
219.008713
 20
306.019633
 30
0.0
 40
7.068876
100
AcDbArc
 50
83.283819
 51
130.014535
  0
LINE
  5
20B
100
AcDbEntity
  8
LAY-2
  6
CONTINUOUS
 62
     3
100
AcDbLine
 10
214.283432
 20
311.537546
 30
0.0
 11
213.641889
 21
310.916474
 31
0.0
  0
LINE
  5
20C
100
AcDbEntity
  8
LAY-2
  6
CONTINUOUS
 62
     3
100
AcDbLine
 10
219.108556
 20
306.706964
 30
0.0
 11
218.470121
 21
306.0889
 31
0.0
  0
LINE
  5
20D
100
AcDbEntity
  8
LAY-2
  6
CONTINUOUS
 62
     3
100
AcDbLine
 10
218.997107
 20
306.9
 30
0.0
 11
219.108556
 21
306.706964
 31
0.0
  0
LINE
  5
20E
100
AcDbEntity
  8
LAY-2
  6
CONTINUOUS
 62
     3
100
AcDbLine
 10
218.29
 20
306.192893
 30
0.0
 11
218.470121
 21
306.0889
 31
0.0
  0
LINE
  5
20F
100
AcDbEntity
  8
LAY-2
  6
CONTINUOUS
 62
     3
100
AcDbLine
 10
218.43144
 20
306.051453
 30
0.0
 11
218.42911
 21
306.049198
 31
0.0
  0
LINE
  5
210
100
AcDbEntity
  8
LAY-2
  6
CONTINUOUS
 62
     3
100
AcDbLine
 10
214.463553
 20
311.433553
 30
0.0
 11
214.283432
 21
311.537546
 31
0.0
  0
LINE
  5
211
100
AcDbEntity
  8
LAY-2
  6
CONTINUOUS
 62
     3
100
AcDbLine
 10
213.744982
 20
310.737911
 30
0.0
 11
213.641889
 21
310.916474
 31
0.0
  0
ARC
  5
212
100
AcDbEntity
  8
LAY-2
  6
CONTINUOUS
 62
     3
100
AcDbCircle
 10
219.008713
 20
306.019633
 30
0.0
 40
7.068876
100
AcDbArc
 50
138.127737
 51
194.00627
  0
LINE
  5
213
100
AcDbEntity
  8
LAY-2
  6
CONTINUOUS
 62
     3
100
AcDbLine
 10
218.470121
 20
306.0889
 30
0.0
 11
213.641889
 21
310.916474
 31
0.0
  0
LINE
  5
214
100
AcDbEntity
  8
LAY-2
  6
CONTINUOUS
 62
     3
100
AcDbLine
 10
214.283432
 20
311.537546
 30
0.0
 11
219.108556
 21
306.706964
 31
0.0
  0
ARC
  5
215
100
AcDbEntity
  8
LAY-2
  6
CONTINUOUS
 62
     3
100
AcDbCircle
 10
210.686364
 20
305.17
 30
0.0
 40
7.662053
100
AcDbArc
 50
353.555458
 51
7.760723
  0
LINE
  5
216
100
AcDbEntity
  8
LAY-2
  6
CONTINUOUS
 62
     3
100
AcDbLine
 10
325.49
 20
304.308767
 30
0.0
 11
318.335734
 21
304.308767
 31
0.0
  0
LINE
  5
217
100
AcDbEntity
  8
LAY-2
  6
CONTINUOUS
 62
     3
100
AcDbLine
 10
325.471769
 20
305.711124
 30
0.0
 11
323.137083
 21
308.04581
 31
0.0
  0
LINE
  5
218
100
AcDbEntity
  8
LAY-2
  6
CONTINUOUS
 62
     3
100
AcDbLine
 10
326.197107
 20
306.4
 30
0.0
 11
323.857394
 21
308.739713
 31
0.0
  0
LINE
  5
219
100
AcDbEntity
  8
LAY-2
  6
CONTINUOUS
 62
     3
100
AcDbLine
 10
320.630122
 20
311.891256
 30
0.0
 11
326.303191
 21
306.21177
 31
0.0
  0
LINE
  5
21A
100
AcDbEntity
  8
LAY-2
  6
CONTINUOUS
 62
     3
100
AcDbLine
 10
335.85
 20
314.7
 30
0.0
 11
335.85
 21
305.1
 31
0.0
  0
LINE
  5
21B
100
AcDbEntity
  8
LAY-2
  6
CONTINUOUS
 62
     3
100
AcDbLine
 10
317.05
 20
297.9
 30
0.0
 11
326.65
 21
297.9
 31
0.0
  0
LINE
  5
21C
100
AcDbEntity
  8
LAY-2
  6
CONTINUOUS
 62
     3
100
AcDbLine
 10
334.85
 20
314.7
 30
0.0
 11
335.85
 21
314.7
 31
0.0
  0
LINE
  5
21D
100
AcDbEntity
  8
LAY-2
  6
CONTINUOUS
 62
     3
100
AcDbLine
 10
334.85
 20
305.1
 30
0.0
 11
335.85
 21
305.1
 31
0.0
  0
LINE
  5
21E
100
AcDbEntity
  8
LAY-2
  6
CONTINUOUS
 62
     3
100
AcDbLine
 10
326.65
 20
298.9
 30
0.0
 11
326.65
 21
297.9
 31
0.0
  0
LINE
  5
21F
100
AcDbEntity
  8
LAY-2
  6
CONTINUOUS
 62
     3
100
AcDbLine
 10
317.05
 20
298.9
 30
0.0
 11
317.05
 21
297.9
 31
0.0
  0
LINE
  5
220
100
AcDbEntity
  8
LAY-2
  6
CONTINUOUS
 62
     3
100
AcDbLine
 10
332.75
 20
312.9
 30
0.0
 11
332.75
 21
306.9
 31
0.0
  0
LINE
  5
221
100
AcDbEntity
  8
LAY-2
  6
CONTINUOUS
 62
     3
100
AcDbLine
 10
333.25
 20
313.4
 30
0.0
 11
332.75
 21
312.9
 31
0.0
  0
LINE
  5
222
100
AcDbEntity
  8
LAY-2
  6
CONTINUOUS
 62
     3
100
AcDbLine
 10
318.35
 20
300.5
 30
0.0
 11
318.85
 21
301.0
 31
0.0
  0
LINE
  5
223
100
AcDbEntity
  8
LAY-2
  6
CONTINUOUS
 62
     3
100
AcDbLine
 10
333.25
 20
306.4
 30
0.0
 11
332.75
 21
306.9
 31
0.0
  0
LINE
  5
224
100
AcDbEntity
  8
LAY-2
  6
CONTINUOUS
 62
     3
100
AcDbLine
 10
325.35
 20
300.5
 30
0.0
 11
324.85
 21
301.0
 31
0.0
  0
LINE
  5
225
100
AcDbEntity
  8
LAY-2
  6
CONTINUOUS
 62
     3
100
AcDbLine
 10
331.25
 20
313.031233
 30
0.0
 11
331.25
 21
306.768767
 31
0.0
  0
LINE
  5
226
100
AcDbEntity
  8
LAY-2
  6
CONTINUOUS
 62
     3
100
AcDbLine
 10
330.25
 20
313.031233
 30
0.0
 11
330.25
 21
306.768767
 31
0.0
  0
LINE
  5
227
100
AcDbEntity
  8
LAY-2
  6
CONTINUOUS
 62
     3
100
AcDbLine
 10
330.462908
 20
313.4
 30
0.0
 11
331.037092
 21
313.4
 31
0.0
  0
LINE
  5
228
100
AcDbEntity
  8
LAY-2
  6
CONTINUOUS
 62
     3
100
AcDbLine
 10
330.462908
 20
306.4
 30
0.0
 11
331.037092
 21
306.4
 31
0.0
  0
LINE
  5
229
100
AcDbEntity
  8
LAY-2
  6
CONTINUOUS
 62
     3
100
AcDbLine
 10
331.25
 20
306.768767
 30
0.0
 11
332.75
 21
306.9
 31
0.0
  0
LINE
  5
22A
100
AcDbEntity
  8
LAY-2
  6
CONTINUOUS
 62
     3
100
AcDbLine
 10
331.25
 20
313.031233
 30
0.0
 11
331.037092
 21
313.4
 31
0.0
  0
LINE
  5
22B
100
AcDbEntity
  8
LAY-2
  6
CONTINUOUS
 62
     3
100
AcDbLine
 10
331.25
 20
313.031233
 30
0.0
 11
332.75
 21
312.9
 31
0.0
  0
LINE
  5
22C
100
AcDbEntity
  8
LAY-2
  6
CONTINUOUS
 62
     3
100
AcDbLine
 10
330.25
 20
313.031233
 30
0.0
 11
330.462908
 21
313.4
 31
0.0
  0
LINE
  5
22D
100
AcDbEntity
  8
LAY-2
  6
CONTINUOUS
 62
     3
100
AcDbLine
 10
331.25
 20
306.768767
 30
0.0
 11
331.037092
 21
306.4
 31
0.0
  0
LINE
  5
22E
100
AcDbEntity
  8
LAY-2
  6
CONTINUOUS
 62
     3
100
AcDbLine
 10
330.25
 20
306.768767
 30
0.0
 11
330.462908
 21
306.4
 31
0.0
  0
LINE
  5
22F
100
AcDbEntity
  8
LAY-2
  6
CONTINUOUS
 62
     3
100
AcDbLine
 10
331.037092
 20
306.4
 30
0.0
 11
331.037092
 21
313.4
 31
0.0
  0
LINE
  5
230
100
AcDbEntity
  8
LAY-2
  6
CONTINUOUS
 62
     3
100
AcDbLine
 10
330.462908
 20
313.4
 30
0.0
 11
330.462908
 21
306.4
 31
0.0
  0
LINE
  5
231
100
AcDbEntity
  8
LAY-2
  6
CONTINUOUS
 62
     3
100
AcDbLine
 10
330.25
 20
313.031233
 30
0.0
 11
328.25
 21
313.031233
 31
0.0
  0
LINE
  5
232
100
AcDbEntity
  8
LAY-2
  6
CONTINUOUS
 62
     3
100
AcDbLine
 10
330.25
 20
306.768767
 30
0.0
 11
328.25
 21
306.768767
 31
0.0
  0
LINE
  5
233
100
AcDbEntity
  8
LAY-2
  6
CONTINUOUS
 62
     3
100
AcDbLine
 10
328.25
 20
313.031233
 30
0.0
 11
328.25
 21
306.768767
 31
0.0
  0
LINE
  5
234
100
AcDbEntity
  8
LAY-2
  6
CONTINUOUS
 62
     3
100
AcDbLine
 10
328.25
 20
313.031233
 30
0.0
 11
327.741233
 21
313.54
 31
0.0
  0
LINE
  5
235
100
AcDbEntity
  8
LAY-2
  6
CONTINUOUS
 62
     3
100
AcDbLine
 10
327.741233
 20
313.54
 30
0.0
 11
327.741233
 21
306.4
 31
0.0
  0
LINE
  5
236
100
AcDbEntity
  8
LAY-2
  6
CONTINUOUS
 62
     3
100
AcDbLine
 10
324.85
 20
301.0
 30
0.0
 11
318.85
 21
301.0
 31
0.0
  0
LINE
  5
237
100
AcDbEntity
  8
LAY-2
  6
CONTINUOUS
 62
     3
100
AcDbLine
 10
324.981233
 20
302.5
 30
0.0
 11
325.35
 21
302.712908
 31
0.0
  0
LINE
  5
238
100
AcDbEntity
  8
LAY-2
  6
CONTINUOUS
 62
     3
100
AcDbLine
 10
324.981233
 20
302.5
 30
0.0
 11
324.85
 21
301.0
 31
0.0
  0
LINE
  5
239
100
AcDbEntity
  8
LAY-2
  6
CONTINUOUS
 62
     3
100
AcDbLine
 10
324.981233
 20
303.5
 30
0.0
 11
325.35
 21
303.287092
 31
0.0
  0
LINE
  5
23A
100
AcDbEntity
  8
LAY-2
  6
CONTINUOUS
 62
     3
100
AcDbLine
 10
325.35
 20
303.287092
 30
0.0
 11
325.35
 21
302.712908
 31
0.0
  0
LINE
  5
23B
100
AcDbEntity
  8
LAY-2
  6
CONTINUOUS
 62
     3
100
AcDbLine
 10
324.981233
 20
302.5
 30
0.0
 11
318.718767
 21
302.5
 31
0.0
  0
LINE
  5
23C
100
AcDbEntity
  8
LAY-2
  6
CONTINUOUS
 62
     3
100
AcDbLine
 10
318.718767
 20
302.5
 30
0.0
 11
318.85
 21
301.0
 31
0.0
  0
LINE
  5
23D
100
AcDbEntity
  8
LAY-2
  6
CONTINUOUS
 62
     3
100
AcDbLine
 10
324.981233
 20
303.5
 30
0.0
 11
318.718767
 21
303.5
 31
0.0
  0
LINE
  5
23E
100
AcDbEntity
  8
LAY-2
  6
CONTINUOUS
 62
     3
100
AcDbLine
 10
318.718767
 20
302.5
 30
0.0
 11
318.35
 21
302.712908
 31
0.0
  0
LINE
  5
23F
100
AcDbEntity
  8
LAY-2
  6
CONTINUOUS
 62
     3
100
AcDbLine
 10
318.718767
 20
303.5
 30
0.0
 11
318.35
 21
303.287092
 31
0.0
  0
LINE
  5
240
100
AcDbEntity
  8
LAY-2
  6
CONTINUOUS
 62
     3
100
AcDbLine
 10
318.35
 20
303.287092
 30
0.0
 11
318.35
 21
302.712908
 31
0.0
  0
LINE
  5
241
100
AcDbEntity
  8
LAY-2
  6
CONTINUOUS
 62
     3
100
AcDbLine
 10
318.35
 20
302.712908
 30
0.0
 11
325.35
 21
302.712908
 31
0.0
  0
LINE
  5
242
100
AcDbEntity
  8
LAY-2
  6
CONTINUOUS
 62
     3
100
AcDbLine
 10
325.35
 20
303.287092
 30
0.0
 11
318.35
 21
303.287092
 31
0.0
  0
LINE
  5
243
100
AcDbEntity
  8
LAY-2
  6
CONTINUOUS
 62
     3
100
AcDbLine
 10
324.981233
 20
303.8
 30
0.0
 11
318.718767
 21
303.8
 31
0.0
  0
LINE
  5
244
100
AcDbEntity
  8
LAY-2
  6
CONTINUOUS
 62
     3
100
AcDbLine
 10
324.981233
 20
303.8
 30
0.0
 11
325.49
 21
304.308767
 31
0.0
  0
LINE
  5
245
100
AcDbEntity
  8
LAY-2
  6
CONTINUOUS
 62
     3
100
AcDbLine
 10
324.981233
 20
303.5
 30
0.0
 11
324.981233
 21
303.8
 31
0.0
  0
LINE
  5
246
100
AcDbEntity
  8
LAY-2
  6
CONTINUOUS
 62
     3
100
AcDbLine
 10
318.718767
 20
303.5
 30
0.0
 11
318.718767
 21
303.8
 31
0.0
  0
ARC
  5
247
100
AcDbEntity
  8
LAY-2
  6
CONTINUOUS
 62
     3
100
AcDbCircle
 10
322.855053
 20
309.034947
 30
0.0
 40
4.005053
100
AcDbArc
 50
255.466488
 51
255.927803
  0
ARC
  5
248
100
AcDbEntity
  8
LAY-2
  6
CONTINUOUS
 62
     3
100
AcDbCircle
 10
322.855053
 20
309.034947
 30
0.0
 40
4.005053
100
AcDbArc
 50
12.245542
 51
12.473637
  0
LINE
  5
249
100
AcDbEntity
  8
LAY-2
  6
CONTINUOUS
 62
     3
100
AcDbLine
 10
323.857394
 20
308.739713
 30
0.0
 11
322.697107
 21
309.9
 31
0.0
  0
LINE
  5
24A
100
AcDbEntity
  8
LAY-2
  6
CONTINUOUS
 62
     3
100
AcDbLine
 10
325.13144
 20
306.051453
 30
0.0
 11
325.12911
 21
306.049198
 31
0.0
  0
LINE
  5
24B
100
AcDbEntity
  8
LAY-2
  6
CONTINUOUS
 62
     3
100
AcDbLine
 10
325.665064
 20
305.594025
 30
0.0
 11
321.358501
 21
309.9
 31
0.0
  0
LINE
  5
24C
100
AcDbEntity
  8
LAY-2
  6
CONTINUOUS
 62
     3
100
AcDbLine
 10
333.25
 20
317.65
 30
0.0
 11
334.85
 21
317.65
 31
0.0
  0
LINE
  5
24D
100
AcDbEntity
  8
LAY-2
  6
CONTINUOUS
 62
     3
100
AcDbLine
 10
333.25
 20
302.15
 30
0.0
 11
334.85
 21
302.15
 31
0.0
  0
LINE
  5
24E
100
AcDbEntity
  8
LAY-2
  6
CONTINUOUS
 62
     3
100
AcDbLine
 10
334.85
 20
317.65
 30
0.0
 11
334.85
 21
302.15
 31
0.0
  0
LINE
  5
24F
100
AcDbEntity
  8
LAY-2
  6
CONTINUOUS
 62
     3
100
AcDbLine
 10
333.25
 20
317.65
 30
0.0
 11
333.25
 21
302.15
 31
0.0
  0
LINE
  5
250
100
AcDbEntity
  8
LAY-2
  6
CONTINUOUS
 62
     3
100
AcDbLine
 10
329.6
 20
300.5
 30
0.0
 11
329.6
 21
298.9
 31
0.0
  0
LINE
  5
251
100
AcDbEntity
  8
LAY-2
  6
CONTINUOUS
 62
     3
100
AcDbLine
 10
314.1
 20
300.5
 30
0.0
 11
314.1
 21
298.9
 31
0.0
  0
LINE
  5
252
100
AcDbEntity
  8
LAY-2
  6
CONTINUOUS
 62
     3
100
AcDbLine
 10
314.1
 20
298.9
 30
0.0
 11
329.6
 21
298.9
 31
0.0
  0
LINE
  5
253
100
AcDbEntity
  8
LAY-2
  6
CONTINUOUS
 62
     3
100
AcDbLine
 10
314.1
 20
300.5
 30
0.0
 11
329.6
 21
300.5
 31
0.0
  0
ARC
  5
254
100
AcDbEntity
  8
LAY-2
  6
CONTINUOUS
 62
     3
100
AcDbCircle
 10
325.708713
 20
306.019633
 30
0.0
 40
7.568876
100
AcDbArc
 50
137.920933
 51
193.064023
  0
ARC
  5
255
100
AcDbEntity
  8
LAY-2
  6
CONTINUOUS
 62
     3
100
AcDbCircle
 10
325.708713
 20
306.019633
 30
0.0
 40
7.568876
100
AcDbArc
 50
83.283819
 51
130.344628
  0
LINE
  5
256
100
AcDbEntity
  8
LAY-2
  6
CONTINUOUS
 62
     3
100
AcDbLine
 10
327.741233
 20
306.4
 30
0.0
 11
326.197107
 21
306.4
 31
0.0
  0
LINE
  5
257
100
AcDbEntity
  8
LAY-2
  6
CONTINUOUS
 62
     3
100
AcDbLine
 10
327.741233
 20
313.54
 30
0.0
 11
326.541569
 21
313.542547
 31
0.0
  0
LINE
  5
258
100
AcDbEntity
  8
LAY-2
  6
CONTINUOUS
 62
     3
100
AcDbLine
 10
327.741233
 20
306.4
 30
0.0
 11
328.25
 21
306.768767
 31
0.0
  0
LINE
  5
259
100
AcDbEntity
  8
LAY-2
  6
CONTINUOUS
 62
     3
100
AcDbLine
 10
320.635657
 20
311.896785
 30
0.0
 11
319.988264
 21
311.27005
 31
0.0
  0
LINE
  5
25A
100
AcDbEntity
  8
LAY-2
  6
CONTINUOUS
 62
     3
100
AcDbLine
 10
320.808747
 20
311.78836
 30
0.0
 11
320.630122
 21
311.891256
 31
0.0
  0
LINE
  5
25B
100
AcDbEntity
  8
LAY-2
  6
CONTINUOUS
 62
     3
100
AcDbLine
 10
319.988264
 20
311.27005
 30
0.0
 11
320.090936
 21
311.091957
 31
0.0
  0
LINE
  5
25C
100
AcDbEntity
  8
LAY-2
  6
CONTINUOUS
 62
     3
100
AcDbLine
 10
318.718767
 20
303.8
 30
0.0
 11
318.335734
 21
304.308767
 31
0.0
  0
LINE
  5
25D
100
AcDbEntity
  8
LAY-2
  6
CONTINUOUS
 62
     3
100
AcDbLine
 10
321.358501
 20
309.9
 30
0.0
 11
319.988264
 21
311.27005
 31
0.0
  0
LINE
  5
25E
100
AcDbEntity
  8
LAY-2
  6
CONTINUOUS
 62
     3
100
AcDbLine
 10
323.137083
 20
308.04581
 30
0.0
 11
321.85
 21
309.332893
 31
0.0
  0
LINE
  5
25F
100
AcDbEntity
  8
LAY-2
  6
CONTINUOUS
 62
     3
100
AcDbLine
 10
321.85
 20
309.332893
 30
0.0
 11
321.282893
 21
309.9
 31
0.0
  0
LINE
  5
260
100
AcDbEntity
  8
LAY-2
  6
CONTINUOUS
 62
     3
100
AcDbLine
 10
326.295442
 20
306.20403
 30
0.0
 11
325.657007
 21
305.585966
 31
0.0
  0
LINE
  5
261
100
AcDbEntity
  8
LAY-2
  6
CONTINUOUS
 62
     3
100
AcDbLine
 10
322.697107
 20
309.9
 30
0.0
 11
321.85
 21
310.747107
 31
0.0
  0
LINE
  5
262
100
AcDbEntity
  8
LAY-2
  6
CONTINUOUS
 62
     3
100
AcDbLine
 10
321.282893
 20
309.9
 30
0.0
 11
320.090936
 21
311.091957
 31
0.0
  0
LINE
  5
263
100
AcDbEntity
  8
LAY-2
  6
CONTINUOUS
 62
     3
100
AcDbLine
 10
326.197107
 20
306.4
 30
0.0
 11
326.305134
 21
306.212892
 31
0.0
  0
LINE
  5
264
100
AcDbEntity
  8
LAY-2
  6
CONTINUOUS
 62
     3
100
AcDbLine
 10
325.471769
 20
305.711124
 30
0.0
 11
325.665064
 21
305.594025
 31
0.0
  0
ARC
  5
265
100
AcDbEntity
  8
LAY-2
  6
CONTINUOUS
 62
     3
100
AcDbCircle
 10
322.058895
 20
305.122707
 30
0.0
 40
3.526327
100
AcDbArc
 50
346.654765
 51
8.897253
  0
LINE
  5
266
100
AcDbEntity
  8
LAY-2
  6
CONTINUOUS
 62
     3
100
AcDbLine
 10
321.85
 20
310.747107
 30
0.0
 11
320.828553
 21
311.768553
 31
0.0
  0
ARC
  5
267
100
AcDbEntity
  8
LAY-2
  6
CONTINUOUS
 62
     3
100
AcDbCircle
 10
429.555053
 20
309.034947
 30
0.0
 40
4.005053
100
AcDbArc
 50
255.466488
 51
255.927803
  0
ARC
  5
268
100
AcDbEntity
  8
LAY-2
  6
CONTINUOUS
 62
     3
100
AcDbCircle
 10
430.555053
 20
309.034947
 30
0.0
 40
4.005053
100
AcDbArc
 50
12.245542
 51
12.473637
  0
LINE
  5
269
100
AcDbEntity
  8
LAY-2
  6
CONTINUOUS
 62
     3
100
AcDbLine
 10
431.83144
 20
306.051453
 30
0.0
 11
431.82911
 21
306.049198
 31
0.0
  0
LINE
  5
26A
100
AcDbEntity
  8
LAY-2
  6
CONTINUOUS
 62
     3
100
AcDbLine
 10
441.75
 20
318.65
 30
0.0
 11
443.55
 21
318.65
 31
0.0
  0
LINE
  5
26B
100
AcDbEntity
  8
LAY-2
  6
CONTINUOUS
 62
     3
100
AcDbLine
 10
441.75
 20
301.15
 30
0.0
 11
443.55
 21
301.15
 31
0.0
  0
LINE
  5
26C
100
AcDbEntity
  8
LAY-2
  6
CONTINUOUS
 62
     3
100
AcDbLine
 10
437.3
 20
298.7
 30
0.0
 11
437.3
 21
296.9
 31
0.0
  0
LINE
  5
26D
100
AcDbEntity
  8
LAY-2
  6
CONTINUOUS
 62
     3
100
AcDbLine
 10
419.8
 20
298.7
 30
0.0
 11
419.8
 21
296.9
 31
0.0
  0
LINE
  5
26E
100
AcDbEntity
  8
LAY-2
  6
CONTINUOUS
 62
     3
100
AcDbLine
 10
443.55
 20
315.65
 30
0.0
 11
444.55
 21
315.65
 31
0.0
  0
LINE
  5
26F
100
AcDbEntity
  8
LAY-2
  6
CONTINUOUS
 62
     3
100
AcDbLine
 10
443.55
 20
304.15
 30
0.0
 11
444.55
 21
304.15
 31
0.0
  0
LINE
  5
270
100
AcDbEntity
  8
LAY-2
  6
CONTINUOUS
 62
     3
100
AcDbLine
 10
444.55
 20
315.65
 30
0.0
 11
444.55
 21
304.15
 31
0.0
  0
LINE
  5
271
100
AcDbEntity
  8
LAY-2
  6
CONTINUOUS
 62
     3
100
AcDbLine
 10
443.55
 20
318.65
 30
0.0
 11
443.55
 21
301.15
 31
0.0
  0
LINE
  5
272
100
AcDbEntity
  8
LAY-2
  6
CONTINUOUS
 62
     3
100
AcDbLine
 10
434.3
 20
296.9
 30
0.0
 11
434.3
 21
295.9
 31
0.0
  0
LINE
  5
273
100
AcDbEntity
  8
LAY-2
  6
CONTINUOUS
 62
     3
100
AcDbLine
 10
422.8
 20
296.9
 30
0.0
 11
422.8
 21
295.9
 31
0.0
  0
LINE
  5
274
100
AcDbEntity
  8
LAY-2
  6
CONTINUOUS
 62
     3
100
AcDbLine
 10
422.8
 20
295.9
 30
0.0
 11
434.3
 21
295.9
 31
0.0
  0
LINE
  5
275
100
AcDbEntity
  8
LAY-2
  6
CONTINUOUS
 62
     3
100
AcDbLine
 10
419.8
 20
296.9
 30
0.0
 11
437.3
 21
296.9
 31
0.0
  0
LINE
  5
276
100
AcDbEntity
  8
LAY-2
  6
CONTINUOUS
 62
     3
100
AcDbLine
 10
441.75
 20
314.15
 30
0.0
 11
441.25
 21
313.65
 31
0.0
  0
LINE
  5
277
100
AcDbEntity
  8
LAY-2
  6
CONTINUOUS
 62
     3
100
AcDbLine
 10
438.462908
 20
314.15
 30
0.0
 11
439.037092
 21
314.15
 31
0.0
  0
LINE
  5
278
100
AcDbEntity
  8
LAY-2
  6
CONTINUOUS
 62
     3
100
AcDbLine
 10
439.25
 20
313.781233
 30
0.0
 11
439.037092
 21
314.15
 31
0.0
  0
LINE
  5
279
100
AcDbEntity
  8
LAY-2
  6
CONTINUOUS
 62
     3
100
AcDbLine
 10
439.25
 20
313.781233
 30
0.0
 11
441.25
 21
313.65
 31
0.0
  0
LINE
  5
27A
100
AcDbEntity
  8
LAY-2
  6
CONTINUOUS
 62
     3
100
AcDbLine
 10
438.25
 20
313.781233
 30
0.0
 11
438.462908
 21
314.15
 31
0.0
  0
LINE
  5
27B
100
AcDbEntity
  8
LAY-2
  6
CONTINUOUS
 62
     3
100
AcDbLine
 10
438.25
 20
313.781233
 30
0.0
 11
435.95
 21
313.781233
 31
0.0
  0
LINE
  5
27C
100
AcDbEntity
  8
LAY-2
  6
CONTINUOUS
 62
     3
100
AcDbLine
 10
435.95
 20
313.781233
 30
0.0
 11
435.441233
 21
314.29
 31
0.0
  0
LINE
  5
27D
100
AcDbEntity
  8
LAY-2
  6
CONTINUOUS
 62
     3
100
AcDbLine
 10
441.75
 20
305.65
 30
0.0
 11
441.25
 21
306.15
 31
0.0
  0
LINE
  5
27E
100
AcDbEntity
  8
LAY-2
  6
CONTINUOUS
 62
     3
100
AcDbLine
 10
438.462908
 20
305.65
 30
0.0
 11
439.037092
 21
305.65
 31
0.0
  0
LINE
  5
27F
100
AcDbEntity
  8
LAY-2
  6
CONTINUOUS
 62
     3
100
AcDbLine
 10
439.25
 20
306.018767
 30
0.0
 11
441.25
 21
306.15
 31
0.0
  0
LINE
  5
280
100
AcDbEntity
  8
LAY-2
  6
CONTINUOUS
 62
     3
100
AcDbLine
 10
439.25
 20
306.018767
 30
0.0
 11
439.037092
 21
305.65
 31
0.0
  0
LINE
  5
281
100
AcDbEntity
  8
LAY-2
  6
CONTINUOUS
 62
     3
100
AcDbLine
 10
438.25
 20
306.018767
 30
0.0
 11
438.462908
 21
305.65
 31
0.0
  0
LINE
  5
282
100
AcDbEntity
  8
LAY-2
  6
CONTINUOUS
 62
     3
100
AcDbLine
 10
438.25
 20
306.018767
 30
0.0
 11
435.95
 21
306.018767
 31
0.0
  0
LINE
  5
283
100
AcDbEntity
  8
LAY-2
  6
CONTINUOUS
 62
     3
100
AcDbLine
 10
441.25
 20
313.65
 30
0.0
 11
441.25
 21
306.15
 31
0.0
  0
LINE
  5
284
100
AcDbEntity
  8
LAY-2
  6
CONTINUOUS
 62
     3
100
AcDbLine
 10
439.25
 20
313.781233
 30
0.0
 11
439.25
 21
306.018767
 31
0.0
  0
LINE
  5
285
100
AcDbEntity
  8
LAY-2
  6
CONTINUOUS
 62
     3
100
AcDbLine
 10
438.25
 20
313.781233
 30
0.0
 11
438.25
 21
306.018767
 31
0.0
  0
LINE
  5
286
100
AcDbEntity
  8
LAY-2
  6
CONTINUOUS
 62
     3
100
AcDbLine
 10
439.037092
 20
305.65
 30
0.0
 11
439.037092
 21
314.15
 31
0.0
  0
LINE
  5
287
100
AcDbEntity
  8
LAY-2
  6
CONTINUOUS
 62
     3
100
AcDbLine
 10
438.462908
 20
314.15
 30
0.0
 11
438.462908
 21
305.65
 31
0.0
  0
LINE
  5
288
100
AcDbEntity
  8
LAY-2
  6
CONTINUOUS
 62
     3
100
AcDbLine
 10
435.95
 20
313.781233
 30
0.0
 11
435.95
 21
306.018767
 31
0.0
  0
LINE
  5
289
100
AcDbEntity
  8
LAY-2
  6
CONTINUOUS
 62
     3
100
AcDbLine
 10
435.441233
 20
314.29
 30
0.0
 11
435.441233
 21
305.65
 31
0.0
  0
LINE
  5
28A
100
AcDbEntity
  8
LAY-2
  6
CONTINUOUS
 62
     3
100
AcDbLine
 10
441.75
 20
318.65
 30
0.0
 11
441.75
 21
301.15
 31
0.0
  0
LINE
  5
28B
100
AcDbEntity
  8
LAY-2
  6
CONTINUOUS
 62
     3
100
AcDbLine
 10
432.8
 20
298.7
 30
0.0
 11
432.3
 21
299.2
 31
0.0
  0
LINE
  5
28C
100
AcDbEntity
  8
LAY-2
  6
CONTINUOUS
 62
     3
100
AcDbLine
 10
432.431233
 20
301.0
 30
0.0
 11
432.8
 21
301.212908
 31
0.0
  0
LINE
  5
28D
100
AcDbEntity
  8
LAY-2
  6
CONTINUOUS
 62
     3
100
AcDbLine
 10
432.431233
 20
301.0
 30
0.0
 11
432.3
 21
299.2
 31
0.0
  0
LINE
  5
28E
100
AcDbEntity
  8
LAY-2
  6
CONTINUOUS
 62
     3
100
AcDbLine
 10
432.431233
 20
302.0
 30
0.0
 11
432.8
 21
301.787092
 31
0.0
  0
LINE
  5
28F
100
AcDbEntity
  8
LAY-2
  6
CONTINUOUS
 62
     3
100
AcDbLine
 10
432.8
 20
301.787092
 30
0.0
 11
432.8
 21
301.212908
 31
0.0
  0
LINE
  5
290
100
AcDbEntity
  8
LAY-2
  6
CONTINUOUS
 62
     3
100
AcDbLine
 10
432.431233
 20
302.8
 30
0.0
 11
432.94
 21
303.308767
 31
0.0
  0
LINE
  5
291
100
AcDbEntity
  8
LAY-2
  6
CONTINUOUS
 62
     3
100
AcDbLine
 10
432.431233
 20
302.0
 30
0.0
 11
432.431233
 21
302.8
 31
0.0
  0
LINE
  5
292
100
AcDbEntity
  8
LAY-2
  6
CONTINUOUS
 62
     3
100
AcDbLine
 10
424.3
 20
298.7
 30
0.0
 11
424.8
 21
299.2
 31
0.0
  0
LINE
  5
293
100
AcDbEntity
  8
LAY-2
  6
CONTINUOUS
 62
     3
100
AcDbLine
 10
424.668767
 20
301.0
 30
0.0
 11
424.8
 21
299.2
 31
0.0
  0
LINE
  5
294
100
AcDbEntity
  8
LAY-2
  6
CONTINUOUS
 62
     3
100
AcDbLine
 10
424.668767
 20
301.0
 30
0.0
 11
424.3
 21
301.212908
 31
0.0
  0
LINE
  5
295
100
AcDbEntity
  8
LAY-2
  6
CONTINUOUS
 62
     3
100
AcDbLine
 10
424.668767
 20
302.0
 30
0.0
 11
424.3
 21
301.787092
 31
0.0
  0
LINE
  5
296
100
AcDbEntity
  8
LAY-2
  6
CONTINUOUS
 62
     3
100
AcDbLine
 10
424.3
 20
301.787092
 30
0.0
 11
424.3
 21
301.212908
 31
0.0
  0
LINE
  5
297
100
AcDbEntity
  8
LAY-2
  6
CONTINUOUS
 62
     3
100
AcDbLine
 10
424.668767
 20
302.0
 30
0.0
 11
424.668767
 21
302.8
 31
0.0
  0
LINE
  5
298
100
AcDbEntity
  8
LAY-2
  6
CONTINUOUS
 62
     3
100
AcDbLine
 10
432.3
 20
299.2
 30
0.0
 11
424.8
 21
299.2
 31
0.0
  0
LINE
  5
299
100
AcDbEntity
  8
LAY-2
  6
CONTINUOUS
 62
     3
100
AcDbLine
 10
432.431233
 20
301.0
 30
0.0
 11
424.668767
 21
301.0
 31
0.0
  0
LINE
  5
29A
100
AcDbEntity
  8
LAY-2
  6
CONTINUOUS
 62
     3
100
AcDbLine
 10
432.431233
 20
302.0
 30
0.0
 11
424.668767
 21
302.0
 31
0.0
  0
LINE
  5
29B
100
AcDbEntity
  8
LAY-2
  6
CONTINUOUS
 62
     3
100
AcDbLine
 10
424.3
 20
301.212908
 30
0.0
 11
432.8
 21
301.212908
 31
0.0
  0
LINE
  5
29C
100
AcDbEntity
  8
LAY-2
  6
CONTINUOUS
 62
     3
100
AcDbLine
 10
432.8
 20
301.787092
 30
0.0
 11
424.3
 21
301.787092
 31
0.0
  0
LINE
  5
29D
100
AcDbEntity
  8
LAY-2
  6
CONTINUOUS
 62
     3
100
AcDbLine
 10
432.431233
 20
302.8
 30
0.0
 11
424.668767
 21
302.8
 31
0.0
  0
LINE
  5
29E
100
AcDbEntity
  8
LAY-2
  6
CONTINUOUS
 62
     3
100
AcDbLine
 10
419.8
 20
298.7
 30
0.0
 11
437.3
 21
298.7
 31
0.0
  0
LINE
  5
29F
100
AcDbEntity
  8
LAY-2
  6
CONTINUOUS
 62
     3
100
AcDbLine
 10
435.441233
 20
305.65
 30
0.0
 11
435.95
 21
306.018767
 31
0.0
  0
LINE
  5
2A0
100
AcDbEntity
  8
LAY-2
  6
CONTINUOUS
 62
     3
100
AcDbLine
 10
426.870888
 20
312.490722
 30
0.0
 11
426.223496
 21
311.863987
 31
0.0
  0
ARC
  5
2A1
100
AcDbEntity
  8
LAY-2
  6
CONTINUOUS
 62
     3
100
AcDbCircle
 10
433.311935
 20
303.227638
 30
0.0
 40
11.094822
100
AcDbArc
 50
85.616154
 51
124.398428
  0
LINE
  5
2A2
100
AcDbEntity
  8
LAY-2
  6
CONTINUOUS
 62
     3
100
AcDbLine
 10
427.043978
 20
312.382297
 30
0.0
 11
426.865354
 21
312.485193
 31
0.0
  0
LINE
  5
2A3
100
AcDbEntity
  8
LAY-2
  6
CONTINUOUS
 62
     3
100
AcDbLine
 10
426.223496
 20
311.863987
 30
0.0
 11
426.326168
 21
311.685894
 31
0.0
  0
LINE
  5
2A4
100
AcDbEntity
  8
LAY-2
  6
CONTINUOUS
 62
     3
100
AcDbLine
 10
424.668767
 20
302.8
 30
0.0
 11
424.285734
 21
303.308767
 31
0.0
  0
ARC
  5
2A5
100
AcDbEntity
  8
LAY-2
  6
CONTINUOUS
 62
     3
100
AcDbCircle
 10
435.39187
 20
305.040682
 30
0.0
 40
11.240365
100
AcDbArc
 50
143.758373
 51
188.863444
  0
LINE
  5
2A6
100
AcDbEntity
  8
LAY-2
  6
CONTINUOUS
 62
     3
100
AcDbLine
 10
432.94
 20
303.308767
 30
0.0
 11
424.285734
 21
303.308767
 31
0.0
  0
LINE
  5
2A7
100
AcDbEntity
  8
LAY-2
  6
CONTINUOUS
 62
     3
100
AcDbLine
 10
431.69
 20
306.192893
 30
0.0
 11
431.678237
 21
306.204656
 31
0.0
  0
LINE
  5
2A8
100
AcDbEntity
  8
LAY-2
  6
CONTINUOUS
 62
     3
100
AcDbLine
 10
435.441233
 20
314.29
 30
0.0
 11
434.16
 21
314.29
 31
0.0
  0
LINE
  5
2A9
100
AcDbEntity
  8
LAY-2
  6
CONTINUOUS
 62
     3
100
AcDbLine
 10
433.860225
 20
305.338702
 30
0.0
 11
433.85876
 21
305.337284
 31
0.0
  0
LINE
  5
2AA
100
AcDbEntity
  8
LAY-2
  6
CONTINUOUS
 62
     3
100
AcDbLine
 10
435.43
 20
305.63
 30
0.0
 11
433.643493
 21
305.63
 31
0.0
  0
LINE
  5
2AB
100
AcDbEntity
  8
LAY-2
  6
CONTINUOUS
 62
     3
100
AcDbLine
 10
433.71821
 20
305.479585
 30
0.0
 11
433.077708
 21
304.859521
 31
0.0
  0
LINE
  5
2AC
100
AcDbEntity
  8
LAY-2
  6
CONTINUOUS
 62
     3
100
AcDbLine
 10
433.85876
 20
305.337284
 30
0.0
 11
433.864846
 21
305.331064
 31
0.0
  0
LINE
  5
2AD
100
AcDbEntity
  8
LAY-2
  6
CONTINUOUS
 62
     3
100
AcDbLine
 10
433.643
 20
305.631
 30
0.0
 11
433.716
 21
305.483
 31
0.0
  0
LINE
  5
2AE
100
AcDbEntity
  8
LAY-2
  6
CONTINUOUS
 62
     3
100
AcDbLine
 10
428.110219
 20
309.9
 30
0.0
 11
428.085232
 21
309.92683
 31
0.0
  0
LINE
  5
2AF
100
AcDbEntity
  8
LAY-2
  6
CONTINUOUS
 62
     3
100
AcDbLine
 10
433.7158
 20
305.483405
 30
0.0
 11
433.719175
 21
305.479955
 31
0.0
  0
LINE
  5
2B0
100
AcDbEntity
  8
LAY-2
  6
CONTINUOUS
 62
     3
100
AcDbLine
 10
433.7158
 20
305.483405
 30
0.0
 11
426.865354
 21
312.485193
 31
0.0
  0
LINE
  5
2B1
100
AcDbEntity
  8
LAY-2
  6
CONTINUOUS
 62
     3
100
AcDbLine
 10
433.076756
 20
304.858173
 30
0.0
 11
426.226309
 21
311.859961
 31
0.0
  0
LINE
  5
2B2
100
AcDbEntity
  8
LAY-2
  6
CONTINUOUS
 62
     3
100
AcDbLine
 10
427.043978
 20
312.382297
 30
0.0
 11
433.643493
 21
305.63
 31
0.0
  0
LINE
  5
2B3
100
AcDbEntity
  8
LAY-2
  6
CONTINUOUS
 62
     3
100
AcDbLine
 10
426.326168
 20
311.685894
 30
0.0
 11
432.936
 21
304.916984
 31
0.0
  0
LINE
  5
2B4
100
AcDbEntity
  8
LAY-2
  6
CONTINUOUS
 62
     3
100
AcDbLine
 10
432.936
 20
304.916984
 30
0.0
 11
433.08
 21
304.85
 31
0.0
  0
ARC
  5
2B5
100
AcDbEntity
  8
LAY-2
  6
CONTINUOUS
 62
     3
100
AcDbCircle
 10
422.403835
 20
304.059384
 30
0.0
 40
10.562869
100
AcDbArc
 50
355.925024
 51
4.682329
  0
ARC
  5
2B6
100
AcDbEntity
  8
LAY-2
  6
CONTINUOUS
 62
     3
100
AcDbCircle
 10
543.409058
 20
303.972988
 30
0.0
 40
12.959244
100
AcDbArc
 50
143.375583
 51
184.266984
  0
ARC
  5
2B7
100
AcDbEntity
  8
LAY-2
  6
CONTINUOUS
 62
     3
100
AcDbCircle
 10
542.479823
 20
297.932441
 30
0.0
 40
16.909146
100
AcDbArc
 50
94.476707
 51
121.171516
  0
ARC
  5
2B8
100
AcDbEntity
  8
LAY-2
  6
CONTINUOUS
 62
     3
100
AcDbCircle
 10
536.255053
 20
309.034947
 30
0.0
 40
4.005053
100
AcDbArc
 50
255.466488
 51
255.927803
  0
ARC
  5
2B9
100
AcDbEntity
  8
LAY-2
  6
CONTINUOUS
 62
     3
100
AcDbCircle
 10
537.555053
 20
309.034947
 30
0.0
 40
4.005053
100
AcDbArc
 50
12.245542
 51
12.473637
  0
LINE
  5
2BA
100
AcDbEntity
  8
LAY-2
  6
CONTINUOUS
 62
     3
100
AcDbLine
 10
538.53144
 20
306.051453
 30
0.0
 11
538.52911
 21
306.049198
 31
0.0
  0
LINE
  5
2BB
100
AcDbEntity
  8
LAY-2
  6
CONTINUOUS
 62
     3
100
AcDbLine
 10
549.45
 20
319.15
 30
0.0
 11
551.25
 21
319.15
 31
0.0
  0
LINE
  5
2BC
100
AcDbEntity
  8
LAY-2
  6
CONTINUOUS
 62
     3
100
AcDbLine
 10
549.45
 20
300.65
 30
0.0
 11
551.25
 21
300.65
 31
0.0
  0
LINE
  5
2BD
100
AcDbEntity
  8
LAY-2
  6
CONTINUOUS
 62
     3
100
AcDbLine
 10
544.5
 20
297.7
 30
0.0
 11
544.5
 21
295.9
 31
0.0
  0
LINE
  5
2BE
100
AcDbEntity
  8
LAY-2
  6
CONTINUOUS
 62
     3
100
AcDbLine
 10
526.0
 20
297.7
 30
0.0
 11
526.0
 21
295.9
 31
0.0
  0
LINE
  5
2BF
100
AcDbEntity
  8
LAY-2
  6
CONTINUOUS
 62
     3
100
AcDbLine
 10
551.25
 20
316.15
 30
0.0
 11
552.25
 21
316.15
 31
0.0
  0
LINE
  5
2C0
100
AcDbEntity
  8
LAY-2
  6
CONTINUOUS
 62
     3
100
AcDbLine
 10
551.25
 20
303.65
 30
0.0
 11
552.25
 21
303.65
 31
0.0
  0
LINE
  5
2C1
100
AcDbEntity
  8
LAY-2
  6
CONTINUOUS
 62
     3
100
AcDbLine
 10
552.25
 20
316.15
 30
0.0
 11
552.25
 21
303.65
 31
0.0
  0
LINE
  5
2C2
100
AcDbEntity
  8
LAY-2
  6
CONTINUOUS
 62
     3
100
AcDbLine
 10
551.25
 20
319.15
 30
0.0
 11
551.25
 21
300.65
 31
0.0
  0
LINE
  5
2C3
100
AcDbEntity
  8
LAY-2
  6
CONTINUOUS
 62
     3
100
AcDbLine
 10
541.5
 20
295.9
 30
0.0
 11
541.5
 21
294.9
 31
0.0
  0
LINE
  5
2C4
100
AcDbEntity
  8
LAY-2
  6
CONTINUOUS
 62
     3
100
AcDbLine
 10
529.0
 20
295.9
 30
0.0
 11
529.0
 21
294.9
 31
0.0
  0
LINE
  5
2C5
100
AcDbEntity
  8
LAY-2
  6
CONTINUOUS
 62
     3
100
AcDbLine
 10
529.0
 20
294.9
 30
0.0
 11
541.5
 21
294.9
 31
0.0
  0
LINE
  5
2C6
100
AcDbEntity
  8
LAY-2
  6
CONTINUOUS
 62
     3
100
AcDbLine
 10
526.0
 20
295.9
 30
0.0
 11
544.5
 21
295.9
 31
0.0
  0
LINE
  5
2C7
100
AcDbEntity
  8
LAY-2
  6
CONTINUOUS
 62
     3
100
AcDbLine
 10
549.45
 20
314.65
 30
0.0
 11
548.95
 21
314.15
 31
0.0
  0
LINE
  5
2C8
100
AcDbEntity
  8
LAY-2
  6
CONTINUOUS
 62
     3
100
AcDbLine
 10
545.862908
 20
314.65
 30
0.0
 11
546.637092
 21
314.65
 31
0.0
  0
LINE
  5
2C9
100
AcDbEntity
  8
LAY-2
  6
CONTINUOUS
 62
     3
100
AcDbLine
 10
546.85
 20
314.281233
 30
0.0
 11
546.637092
 21
314.65
 31
0.0
  0
LINE
  5
2CA
100
AcDbEntity
  8
LAY-2
  6
CONTINUOUS
 62
     3
100
AcDbLine
 10
546.85
 20
314.281233
 30
0.0
 11
548.95
 21
314.15
 31
0.0
  0
LINE
  5
2CB
100
AcDbEntity
  8
LAY-2
  6
CONTINUOUS
 62
     3
100
AcDbLine
 10
545.65
 20
314.281233
 30
0.0
 11
545.862908
 21
314.65
 31
0.0
  0
LINE
  5
2CC
100
AcDbEntity
  8
LAY-2
  6
CONTINUOUS
 62
     3
100
AcDbLine
 10
545.65
 20
314.281233
 30
0.0
 11
542.95
 21
314.281233
 31
0.0
  0
LINE
  5
2CD
100
AcDbEntity
  8
LAY-2
  6
CONTINUOUS
 62
     3
100
AcDbLine
 10
542.95
 20
314.281233
 30
0.0
 11
542.441233
 21
314.79
 31
0.0
  0
LINE
  5
2CE
100
AcDbEntity
  8
LAY-2
  6
CONTINUOUS
 62
     3
100
AcDbLine
 10
549.45
 20
305.15
 30
0.0
 11
548.95
 21
305.65
 31
0.0
  0
LINE
  5
2CF
100
AcDbEntity
  8
LAY-2
  6
CONTINUOUS
 62
     3
100
AcDbLine
 10
545.862908
 20
305.15
 30
0.0
 11
546.637092
 21
305.15
 31
0.0
  0
LINE
  5
2D0
100
AcDbEntity
  8
LAY-2
  6
CONTINUOUS
 62
     3
100
AcDbLine
 10
546.85
 20
305.518767
 30
0.0
 11
548.95
 21
305.65
 31
0.0
  0
LINE
  5
2D1
100
AcDbEntity
  8
LAY-2
  6
CONTINUOUS
 62
     3
100
AcDbLine
 10
546.85
 20
305.518767
 30
0.0
 11
546.637092
 21
305.15
 31
0.0
  0
LINE
  5
2D2
100
AcDbEntity
  8
LAY-2
  6
CONTINUOUS
 62
     3
100
AcDbLine
 10
545.65
 20
305.518767
 30
0.0
 11
545.862908
 21
305.15
 31
0.0
  0
LINE
  5
2D3
100
AcDbEntity
  8
LAY-2
  6
CONTINUOUS
 62
     3
100
AcDbLine
 10
545.65
 20
305.518767
 30
0.0
 11
542.95
 21
305.518767
 31
0.0
  0
LINE
  5
2D4
100
AcDbEntity
  8
LAY-2
  6
CONTINUOUS
 62
     3
100
AcDbLine
 10
548.95
 20
314.15
 30
0.0
 11
548.95
 21
305.65
 31
0.0
  0
LINE
  5
2D5
100
AcDbEntity
  8
LAY-2
  6
CONTINUOUS
 62
     3
100
AcDbLine
 10
546.85
 20
314.281233
 30
0.0
 11
546.85
 21
305.518767
 31
0.0
  0
LINE
  5
2D6
100
AcDbEntity
  8
LAY-2
  6
CONTINUOUS
 62
     3
100
AcDbLine
 10
545.65
 20
314.281233
 30
0.0
 11
545.65
 21
305.518767
 31
0.0
  0
LINE
  5
2D7
100
AcDbEntity
  8
LAY-2
  6
CONTINUOUS
 62
     3
100
AcDbLine
 10
546.637092
 20
305.15
 30
0.0
 11
546.637092
 21
314.65
 31
0.0
  0
LINE
  5
2D8
100
AcDbEntity
  8
LAY-2
  6
CONTINUOUS
 62
     3
100
AcDbLine
 10
545.862908
 20
314.65
 30
0.0
 11
545.862908
 21
305.15
 31
0.0
  0
LINE
  5
2D9
100
AcDbEntity
  8
LAY-2
  6
CONTINUOUS
 62
     3
100
AcDbLine
 10
542.95
 20
314.281233
 30
0.0
 11
542.95
 21
305.518767
 31
0.0
  0
LINE
  5
2DA
100
AcDbEntity
  8
LAY-2
  6
CONTINUOUS
 62
     3
100
AcDbLine
 10
542.441233
 20
314.79
 30
0.0
 11
542.441233
 21
305.15
 31
0.0
  0
LINE
  5
2DB
100
AcDbEntity
  8
LAY-2
  6
CONTINUOUS
 62
     3
100
AcDbLine
 10
549.45
 20
319.15
 30
0.0
 11
549.45
 21
300.65
 31
0.0
  0
LINE
  5
2DC
100
AcDbEntity
  8
LAY-2
  6
CONTINUOUS
 62
     3
100
AcDbLine
 10
540.0
 20
297.7
 30
0.0
 11
539.5
 21
298.2
 31
0.0
  0
LINE
  5
2DD
100
AcDbEntity
  8
LAY-2
  6
CONTINUOUS
 62
     3
100
AcDbLine
 10
539.631233
 20
300.3
 30
0.0
 11
540.0
 21
300.512908
 31
0.0
  0
LINE
  5
2DE
100
AcDbEntity
  8
LAY-2
  6
CONTINUOUS
 62
     3
100
AcDbLine
 10
539.631233
 20
300.3
 30
0.0
 11
539.5
 21
298.2
 31
0.0
  0
LINE
  5
2DF
100
AcDbEntity
  8
LAY-2
  6
CONTINUOUS
 62
     3
100
AcDbLine
 10
539.631233
 20
301.5
 30
0.0
 11
540.0
 21
301.287092
 31
0.0
  0
LINE
  5
2E0
100
AcDbEntity
  8
LAY-2
  6
CONTINUOUS
 62
     3
100
AcDbLine
 10
540.0
 20
301.287092
 30
0.0
 11
540.0
 21
300.512908
 31
0.0
  0
LINE
  5
2E1
100
AcDbEntity
  8
LAY-2
  6
CONTINUOUS
 62
     3
100
AcDbLine
 10
539.631233
 20
302.5
 30
0.0
 11
540.14
 21
303.008767
 31
0.0
  0
LINE
  5
2E2
100
AcDbEntity
  8
LAY-2
  6
CONTINUOUS
 62
     3
100
AcDbLine
 10
539.631233
 20
301.5
 30
0.0
 11
539.631233
 21
302.5
 31
0.0
  0
LINE
  5
2E3
100
AcDbEntity
  8
LAY-2
  6
CONTINUOUS
 62
     3
100
AcDbLine
 10
530.5
 20
297.7
 30
0.0
 11
531.0
 21
298.2
 31
0.0
  0
LINE
  5
2E4
100
AcDbEntity
  8
LAY-2
  6
CONTINUOUS
 62
     3
100
AcDbLine
 10
530.868767
 20
300.3
 30
0.0
 11
531.0
 21
298.2
 31
0.0
  0
LINE
  5
2E5
100
AcDbEntity
  8
LAY-2
  6
CONTINUOUS
 62
     3
100
AcDbLine
 10
530.868767
 20
300.3
 30
0.0
 11
530.5
 21
300.512908
 31
0.0
  0
LINE
  5
2E6
100
AcDbEntity
  8
LAY-2
  6
CONTINUOUS
 62
     3
100
AcDbLine
 10
530.868767
 20
301.5
 30
0.0
 11
530.5
 21
301.287092
 31
0.0
  0
LINE
  5
2E7
100
AcDbEntity
  8
LAY-2
  6
CONTINUOUS
 62
     3
100
AcDbLine
 10
530.5
 20
301.287092
 30
0.0
 11
530.5
 21
300.512908
 31
0.0
  0
LINE
  5
2E8
100
AcDbEntity
  8
LAY-2
  6
CONTINUOUS
 62
     3
100
AcDbLine
 10
530.868767
 20
301.5
 30
0.0
 11
530.868767
 21
302.5
 31
0.0
  0
LINE
  5
2E9
100
AcDbEntity
  8
LAY-2
  6
CONTINUOUS
 62
     3
100
AcDbLine
 10
539.5
 20
298.2
 30
0.0
 11
531.0
 21
298.2
 31
0.0
  0
LINE
  5
2EA
100
AcDbEntity
  8
LAY-2
  6
CONTINUOUS
 62
     3
100
AcDbLine
 10
539.631233
 20
300.3
 30
0.0
 11
530.868767
 21
300.3
 31
0.0
  0
LINE
  5
2EB
100
AcDbEntity
  8
LAY-2
  6
CONTINUOUS
 62
     3
100
AcDbLine
 10
539.631233
 20
301.5
 30
0.0
 11
530.868767
 21
301.5
 31
0.0
  0
LINE
  5
2EC
100
AcDbEntity
  8
LAY-2
  6
CONTINUOUS
 62
     3
100
AcDbLine
 10
530.5
 20
300.512908
 30
0.0
 11
540.0
 21
300.512908
 31
0.0
  0
LINE
  5
2ED
100
AcDbEntity
  8
LAY-2
  6
CONTINUOUS
 62
     3
100
AcDbLine
 10
540.0
 20
301.287092
 30
0.0
 11
530.5
 21
301.287092
 31
0.0
  0
LINE
  5
2EE
100
AcDbEntity
  8
LAY-2
  6
CONTINUOUS
 62
     3
100
AcDbLine
 10
539.631233
 20
302.5
 30
0.0
 11
530.868767
 21
302.5
 31
0.0
  0
LINE
  5
2EF
100
AcDbEntity
  8
LAY-2
  6
CONTINUOUS
 62
     3
100
AcDbLine
 10
526.0
 20
297.7
 30
0.0
 11
544.5
 21
297.7
 31
0.0
  0
LINE
  5
2F0
100
AcDbEntity
  8
LAY-2
  6
CONTINUOUS
 62
     3
100
AcDbLine
 10
542.441233
 20
305.15
 30
0.0
 11
542.95
 21
305.518767
 31
0.0
  0
LINE
  5
2F1
100
AcDbEntity
  8
LAY-2
  6
CONTINUOUS
 62
     3
100
AcDbLine
 10
530.868767
 20
302.5
 30
0.0
 11
530.485734
 21
303.008767
 31
0.0
  0
LINE
  5
2F2
100
AcDbEntity
  8
LAY-2
  6
CONTINUOUS
 62
     3
100
AcDbLine
 10
540.14
 20
303.008767
 30
0.0
 11
530.485734
 21
303.008767
 31
0.0
  0
LINE
  5
2F3
100
AcDbEntity
  8
LAY-2
  6
CONTINUOUS
 62
     3
100
AcDbLine
 10
538.39
 20
306.192893
 30
0.0
 11
538.378237
 21
306.204656
 31
0.0
  0
LINE
  5
2F4
100
AcDbEntity
  8
LAY-2
  6
CONTINUOUS
 62
     3
100
AcDbLine
 10
542.441233
 20
314.79
 30
0.0
 11
541.16
 21
314.79
 31
0.0
  0
LINE
  5
2F5
100
AcDbEntity
  8
LAY-2
  6
CONTINUOUS
 62
     3
100
AcDbLine
 10
542.43
 20
305.13
 30
0.0
 11
540.343493
 21
305.13
 31
0.0
  0
LINE
  5
2F6
100
AcDbEntity
  8
LAY-2
  6
CONTINUOUS
 62
     3
100
AcDbLine
 10
534.810219
 20
309.9
 30
0.0
 11
534.785232
 21
309.92683
 31
0.0
  0
LINE
  5
2F7
100
AcDbEntity
  8
LAY-2
  6
CONTINUOUS
 62
     3
100
AcDbLine
 10
540.51378
 20
304.876109
 30
0.0
 11
540.126256
 21
304.500951
 31
0.0
  0
LINE
  5
2F8
100
AcDbEntity
  8
LAY-2
  6
CONTINUOUS
 62
     3
100
AcDbLine
 10
539.96151
 20
304.583641
 30
0.0
 11
540.126256
 21
304.500951
 31
0.0
  0
LINE
  5
2F9
100
AcDbEntity
  8
LAY-2
  6
CONTINUOUS
 62
     3
100
AcDbLine
 10
540.428914
 20
305.03613
 30
0.0
 11
540.51378
 21
304.876109
 31
0.0
  0
ARC
  5
2FA
100
AcDbEntity
  8
LAY-2
  6
CONTINUOUS
 62
     3
100
AcDbCircle
 10
536.813944
 20
303.586224
 30
0.0
 40
3.375812
100
AcDbArc
 50
350.150701
 51
16.372217
  0
LINE
  5
2FB
100
AcDbEntity
  8
LAY-2
  6
CONTINUOUS
 62
     3
100
AcDbLine
 10
533.565271
 20
312.485284
 30
0.0
 11
540.51378
 21
304.876109
 31
0.0
  0
LINE
  5
2FC
100
AcDbEntity
  8
LAY-2
  6
CONTINUOUS
 62
     3
100
AcDbLine
 10
540.428914
 20
305.03613
 30
0.0
 11
533.72762
 21
312.400273
 31
0.0
  0
LINE
  5
2FD
100
AcDbEntity
  8
LAY-2
  6
CONTINUOUS
 62
     3
100
AcDbLine
 10
532.922918
 20
311.863427
 30
0.0
 11
540.126256
 21
304.500951
 31
0.0
  0
LINE
  5
2FE
100
AcDbEntity
  8
LAY-2
  6
CONTINUOUS
 62
     3
100
AcDbLine
 10
539.96151
 20
304.583641
 30
0.0
 11
533.008443
 21
311.704045
 31
0.0
  0
LINE
  5
2FF
100
AcDbEntity
  8
LAY-2
  6
CONTINUOUS
 62
     3
100
AcDbLine
 10
533.565271
 20
312.485284
 30
0.0
 11
532.922918
 21
311.863427
 31
0.0
  0
LINE
  5
300
100
AcDbEntity
  8
LAY-2
  6
CONTINUOUS
 62
     3
100
AcDbLine
 10
533.565271
 20
312.485284
 30
0.0
 11
533.72762
 21
312.400273
 31
0.0
  0
LINE
  5
301
100
AcDbEntity
  8
LAY-2
  6
CONTINUOUS
 62
     3
100
AcDbLine
 10
532.922918
 20
311.863427
 30
0.0
 11
533.008443
 21
311.704045
 31
0.0
  0
LINE
  5
302
100
AcDbEntity
  8
LAY-2
  6
CONTINUOUS
 62
     3
100
AcDbLine
 10
127.45
 20
247.5
 30
0.0
 11
127.45
 21
232.3
 31
0.0
  0
LINE
  5
303
100
AcDbEntity
  8
LAY-2
  6
CONTINUOUS
 62
     3
100
AcDbLine
 10
126.45
 20
250.4
 30
0.0
 11
126.45
 21
229.4
 31
0.0
  0
LINE
  5
304
100
AcDbEntity
  8
LAY-2
  6
CONTINUOUS
 62
     3
100
AcDbLine
 10
124.65
 20
250.4
 30
0.0
 11
124.65
 21
229.4
 31
0.0
  0
LINE
  5
305
100
AcDbEntity
  8
LAY-2
  6
CONTINUOUS
 62
     3
100
AcDbLine
 10
100.85
 20
223.9
 30
0.0
 11
116.05
 21
223.9
 31
0.0
  0
LINE
  5
306
100
AcDbEntity
  8
LAY-2
  6
CONTINUOUS
 62
     3
100
AcDbLine
 10
97.95
 20
224.9
 30
0.0
 11
118.95
 21
224.9
 31
0.0
  0
LINE
  5
307
100
AcDbEntity
  8
LAY-2
  6
CONTINUOUS
 62
     3
100
AcDbLine
 10
97.95
 20
226.7
 30
0.0
 11
118.95
 21
226.7
 31
0.0
  0
LINE
  5
308
100
AcDbEntity
  8
LAY-2
  6
CONTINUOUS
 62
     3
100
AcDbLine
 10
124.65
 20
229.4
 30
0.0
 11
126.45
 21
229.4
 31
0.0
  0
LINE
  5
309
100
AcDbEntity
  8
LAY-2
  6
CONTINUOUS
 62
     3
100
AcDbLine
 10
124.65
 20
250.4
 30
0.0
 11
126.45
 21
250.4
 31
0.0
  0
LINE
  5
30A
100
AcDbEntity
  8
LAY-2
  6
CONTINUOUS
 62
     3
100
AcDbLine
 10
118.95
 20
226.7
 30
0.0
 11
118.95
 21
224.9
 31
0.0
  0
LINE
  5
30B
100
AcDbEntity
  8
LAY-2
  6
CONTINUOUS
 62
     3
100
AcDbLine
 10
97.95
 20
226.7
 30
0.0
 11
97.95
 21
224.9
 31
0.0
  0
LINE
  5
30C
100
AcDbEntity
  8
LAY-2
  6
CONTINUOUS
 62
     3
100
AcDbLine
 10
126.45
 20
247.5
 30
0.0
 11
127.45
 21
247.5
 31
0.0
  0
LINE
  5
30D
100
AcDbEntity
  8
LAY-2
  6
CONTINUOUS
 62
     3
100
AcDbLine
 10
126.45
 20
232.3
 30
0.0
 11
127.45
 21
232.3
 31
0.0
  0
LINE
  5
30E
100
AcDbEntity
  8
LAY-2
  6
CONTINUOUS
 62
     3
100
AcDbLine
 10
100.85
 20
224.9
 30
0.0
 11
100.85
 21
223.9
 31
0.0
  0
LINE
  5
30F
100
AcDbEntity
  8
LAY-2
  6
CONTINUOUS
 62
     3
100
AcDbLine
 10
116.05
 20
224.9
 30
0.0
 11
116.05
 21
223.9
 31
0.0
  0
LINE
  5
310
100
AcDbEntity
  8
LAY-2
  6
CONTINUOUS
 62
     3
100
AcDbLine
 10
113.95
 20
229.893238
 30
0.0
 11
113.95
 21
226.7
 31
0.0
  0
LINE
  5
311
100
AcDbEntity
  8
LAY-2
  6
CONTINUOUS
 62
     3
100
AcDbLine
 10
102.95
 20
231.760217
 30
0.0
 11
102.95
 21
226.7
 31
0.0
  0
LINE
  5
312
100
AcDbEntity
  8
LAY-2
  6
CONTINUOUS
 62
     3
100
AcDbLine
 10
118.456762
 20
234.4
 30
0.0
 11
124.65
 21
234.4
 31
0.0
  0
ARC
  5
313
100
AcDbEntity
  8
LAY-2
  6
CONTINUOUS
 62
     3
100
AcDbCircle
 10
116.589783
 20
231.760217
 30
0.0
 40
13.639783
100
AcDbArc
 50
90.0
 51
180.0
  0
ARC
  5
314
100
AcDbEntity
  8
LAY-2
  6
CONTINUOUS
 62
     3
100
AcDbCircle
 10
118.456762
 20
229.893238
 30
0.0
 40
4.506762
100
AcDbArc
 50
90.0
 51
180.0
  0
LINE
  5
315
100
AcDbEntity
  8
LAY-2
  6
CONTINUOUS
 62
     3
100
AcDbLine
 10
116.589783
 20
245.4
 30
0.0
 11
124.65
 21
245.4
 31
0.0
  0
LINE
  5
316
100
AcDbEntity
  8
LAY-2
  6
CONTINUOUS
 62
     3
100
AcDbLine
 10
233.35
 20
252.4
 30
0.0
 11
233.35
 21
227.4
 31
0.0
  0
LINE
  5
317
100
AcDbEntity
  8
LAY-2
  6
CONTINUOUS
 62
     3
100
AcDbLine
 10
231.35
 20
252.4
 30
0.0
 11
231.35
 21
227.4
 31
0.0
  0
LINE
  5
318
100
AcDbEntity
  8
LAY-2
  6
CONTINUOUS
 62
     3
100
AcDbLine
 10
202.65
 20
226.7
 30
0.0
 11
227.65
 21
226.7
 31
0.0
  0
LINE
  5
319
100
AcDbEntity
  8
LAY-2
  6
CONTINUOUS
 62
     3
100
AcDbLine
 10
202.65
 20
224.7
 30
0.0
 11
227.65
 21
224.7
 31
0.0
  0
LINE
  5
31A
100
AcDbEntity
  8
LAY-2
  6
CONTINUOUS
 62
     3
100
AcDbLine
 10
233.35
 20
249.0
 30
0.0
 11
234.35
 21
249.0
 31
0.0
  0
LINE
  5
31B
100
AcDbEntity
  8
LAY-2
  6
CONTINUOUS
 62
     3
100
AcDbLine
 10
233.35
 20
230.8
 30
0.0
 11
234.35
 21
230.8
 31
0.0
  0
LINE
  5
31C
100
AcDbEntity
  8
LAY-2
  6
CONTINUOUS
 62
     3
100
AcDbLine
 10
231.35
 20
227.4
 30
0.0
 11
233.35
 21
227.4
 31
0.0
  0
LINE
  5
31D
100
AcDbEntity
  8
LAY-2
  6
CONTINUOUS
 62
     3
100
AcDbLine
 10
231.35
 20
252.4
 30
0.0
 11
233.35
 21
252.4
 31
0.0
  0
LINE
  5
31E
100
AcDbEntity
  8
LAY-2
  6
CONTINUOUS
 62
     3
100
AcDbLine
 10
234.35
 20
249.0
 30
0.0
 11
234.35
 21
230.8
 31
0.0
  0
LINE
  5
31F
100
AcDbEntity
  8
LAY-2
  6
CONTINUOUS
 62
     3
100
AcDbLine
 10
202.65
 20
226.7
 30
0.0
 11
202.65
 21
224.7
 31
0.0
  0
LINE
  5
320
100
AcDbEntity
  8
LAY-2
  6
CONTINUOUS
 62
     3
100
AcDbLine
 10
206.05
 20
223.7
 30
0.0
 11
224.25
 21
223.7
 31
0.0
  0
LINE
  5
321
100
AcDbEntity
  8
LAY-2
  6
CONTINUOUS
 62
     3
100
AcDbLine
 10
227.65
 20
226.7
 30
0.0
 11
227.65
 21
224.7
 31
0.0
  0
LINE
  5
322
100
AcDbEntity
  8
LAY-2
  6
CONTINUOUS
 62
     3
100
AcDbLine
 10
224.25
 20
224.7
 30
0.0
 11
224.25
 21
223.7
 31
0.0
  0
LINE
  5
323
100
AcDbEntity
  8
LAY-2
  6
CONTINUOUS
 62
     3
100
AcDbLine
 10
206.05
 20
224.7
 30
0.0
 11
206.05
 21
223.7
 31
0.0
  0
ARC
  5
324
100
AcDbEntity
  8
LAY-2
  6
CONTINUOUS
 62
     3
100
AcDbCircle
 10
223.289783
 20
231.760217
 30
0.0
 40
13.639783
100
AcDbArc
 50
90.0
 51
180.0
  0
ARC
  5
325
100
AcDbEntity
  8
LAY-2
  6
CONTINUOUS
 62
     3
100
AcDbCircle
 10
225.156762
 20
229.893238
 30
0.0
 40
4.506762
100
AcDbArc
 50
90.0
 51
180.0
  0
LINE
  5
326
100
AcDbEntity
  8
LAY-2
  6
CONTINUOUS
 62
     3
100
AcDbLine
 10
223.289783
 20
245.4
 30
0.0
 11
231.35
 21
245.4
 31
0.0
  0
LINE
  5
327
100
AcDbEntity
  8
LAY-2
  6
CONTINUOUS
 62
     3
100
AcDbLine
 10
209.65
 20
231.760217
 30
0.0
 11
209.65
 21
226.7
 31
0.0
  0
LINE
  5
328
100
AcDbEntity
  8
LAY-2
  6
CONTINUOUS
 62
     3
100
AcDbLine
 10
220.65
 20
229.893238
 30
0.0
 11
220.65
 21
226.7
 31
0.0
  0
LINE
  5
329
100
AcDbEntity
  8
LAY-2
  6
CONTINUOUS
 62
     3
100
AcDbLine
 10
225.156762
 20
234.4
 30
0.0
 11
231.35
 21
234.4
 31
0.0
  0
ARC
  5
32A
100
AcDbEntity
  8
LAY-2
  6
CONTINUOUS
 62
     3
100
AcDbCircle
 10
328.739783
 20
233.010217
 30
0.0
 40
13.639783
100
AcDbArc
 50
90.0
 51
180.0
  0
ARC
  5
32B
100
AcDbEntity
  8
LAY-2
  6
CONTINUOUS
 62
     3
100
AcDbCircle
 10
332.939736
 20
228.813376
 30
0.0
 40
4.339839
100
AcDbArc
 50
87.794337
 51
179.605752
  0
LINE
  5
32C
100
AcDbEntity
  8
LAY-2
  6
CONTINUOUS
 62
     3
100
AcDbLine
 10
343.15
 20
253.9
 30
0.0
 11
343.15
 21
225.9
 31
0.0
  0
LINE
  5
32D
100
AcDbEntity
  8
LAY-2
  6
CONTINUOUS
 62
     3
100
AcDbLine
 10
307.85
 20
222.6
 30
0.0
 11
335.85
 21
222.6
 31
0.0
  0
LINE
  5
32E
100
AcDbEntity
  8
LAY-2
  6
CONTINUOUS
 62
     3
100
AcDbLine
 10
343.15
 20
253.9
 30
0.0
 11
345.35
 21
253.9
 31
0.0
  0
LINE
  5
32F
100
AcDbEntity
  8
LAY-2
  6
CONTINUOUS
 62
     3
100
AcDbLine
 10
343.15
 20
225.9
 30
0.0
 11
345.35
 21
225.9
 31
0.0
  0
LINE
  5
330
100
AcDbEntity
  8
LAY-2
  6
CONTINUOUS
 62
     3
100
AcDbLine
 10
335.85
 20
222.6
 30
0.0
 11
335.85
 21
220.4
 31
0.0
  0
LINE
  5
331
100
AcDbEntity
  8
LAY-2
  6
CONTINUOUS
 62
     3
100
AcDbLine
 10
307.85
 20
222.6
 30
0.0
 11
307.85
 21
220.4
 31
0.0
  0
LINE
  5
332
100
AcDbEntity
  8
LAY-2
  6
CONTINUOUS
 62
     3
100
AcDbLine
 10
345.35
 20
249.0
 30
0.0
 11
346.85
 21
249.0
 31
0.0
  0
LINE
  5
333
100
AcDbEntity
  8
LAY-2
  6
CONTINUOUS
 62
     3
100
AcDbLine
 10
345.35
 20
230.8
 30
0.0
 11
346.85
 21
230.8
 31
0.0
  0
LINE
  5
334
100
AcDbEntity
  8
LAY-2
  6
CONTINUOUS
 62
     3
100
AcDbLine
 10
345.35
 20
253.9
 30
0.0
 11
345.35
 21
225.9
 31
0.0
  0
LINE
  5
335
100
AcDbEntity
  8
LAY-2
  6
CONTINUOUS
 62
     3
100
AcDbLine
 10
346.85
 20
249.0
 30
0.0
 11
346.85
 21
230.8
 31
0.0
  0
LINE
  5
336
100
AcDbEntity
  8
LAY-2
  6
CONTINUOUS
 62
     3
100
AcDbLine
 10
330.95
 20
220.4
 30
0.0
 11
330.95
 21
218.9
 31
0.0
  0
LINE
  5
337
100
AcDbEntity
  8
LAY-2
  6
CONTINUOUS
 62
     3
100
AcDbLine
 10
312.75
 20
220.4
 30
0.0
 11
312.75
 21
218.9
 31
0.0
  0
LINE
  5
338
100
AcDbEntity
  8
LAY-2
  6
CONTINUOUS
 62
     3
100
AcDbLine
 10
307.85
 20
220.4
 30
0.0
 11
335.85
 21
220.4
 31
0.0
  0
LINE
  5
339
100
AcDbEntity
  8
LAY-2
  6
CONTINUOUS
 62
     3
100
AcDbLine
 10
312.75
 20
218.9
 30
0.0
 11
330.95
 21
218.9
 31
0.0
  0
LINE
  5
33A
100
AcDbEntity
  8
LAY-2
  6
CONTINUOUS
 62
     3
100
AcDbLine
 10
328.739783
 20
246.65
 30
0.0
 11
343.15
 21
246.65
 31
0.0
  0
LINE
  5
33B
100
AcDbEntity
  8
LAY-2
  6
CONTINUOUS
 62
     3
100
AcDbLine
 10
315.1
 20
233.010217
 30
0.0
 11
315.1
 21
222.6
 31
0.0
  0
LINE
  5
33C
100
AcDbEntity
  8
LAY-2
  6
CONTINUOUS
 62
     3
100
AcDbLine
 10
328.6
 20
228.843238
 30
0.0
 11
328.6
 21
222.6
 31
0.0
  0
LINE
  5
33D
100
AcDbEntity
  8
LAY-2
  6
CONTINUOUS
 62
     3
100
AcDbLine
 10
332.772711
 20
233.15
 30
0.0
 11
343.15
 21
233.15
 31
0.0
  0
LINE
  5
33E
100
AcDbEntity
  8
LAY-2
  6
CONTINUOUS
 62
     1
100
AcDbLine
 10
294.55
 20
239.9
 30
0.0
 11
294.35
 21
239.9
 31
0.0
  0
LINE
  5
33F
100
AcDbEntity
  8
LAY-2
  6
CONTINUOUS
 62
     3
100
AcDbLine
 10
453.55
 20
252.75
 30
0.0
 11
453.55
 21
227.05
 31
0.0
  0
LINE
  5
340
100
AcDbEntity
  8
LAY-2
  6
CONTINUOUS
 62
     3
100
AcDbLine
 10
415.7
 20
214.9
 30
0.0
 11
441.4
 21
214.9
 31
0.0
  0
LINE
  5
341
100
AcDbEntity
  8
LAY-2
  6
CONTINUOUS
 62
     3
100
AcDbLine
 10
452.05
 20
256.4
 30
0.0
 11
452.05
 21
223.4
 31
0.0
  0
LINE
  5
342
100
AcDbEntity
  8
LAY-2
  6
CONTINUOUS
 62
     3
100
AcDbLine
 10
412.05
 20
216.4
 30
0.0
 11
445.05
 21
216.4
 31
0.0
  0
LINE
  5
343
100
AcDbEntity
  8
LAY-2
  6
CONTINUOUS
 62
     3
100
AcDbLine
 10
412.05
 20
218.6
 30
0.0
 11
445.05
 21
218.6
 31
0.0
  0
LINE
  5
344
100
AcDbEntity
  8
LAY-2
  6
CONTINUOUS
 62
     3
100
AcDbLine
 10
449.85
 20
256.4
 30
0.0
 11
449.85
 21
223.4
 31
0.0
  0
LINE
  5
345
100
AcDbEntity
  8
LAY-2
  6
CONTINUOUS
 62
     3
100
AcDbLine
 10
449.85
 20
256.4
 30
0.0
 11
452.05
 21
256.4
 31
0.0
  0
LINE
  5
346
100
AcDbEntity
  8
LAY-2
  6
CONTINUOUS
 62
     3
100
AcDbLine
 10
449.85
 20
223.4
 30
0.0
 11
452.05
 21
223.4
 31
0.0
  0
LINE
  5
347
100
AcDbEntity
  8
LAY-2
  6
CONTINUOUS
 62
     3
100
AcDbLine
 10
445.05
 20
218.6
 30
0.0
 11
445.05
 21
216.4
 31
0.0
  0
LINE
  5
348
100
AcDbEntity
  8
LAY-2
  6
CONTINUOUS
 62
     3
100
AcDbLine
 10
412.05
 20
218.6
 30
0.0
 11
412.05
 21
216.4
 31
0.0
  0
LINE
  5
349
100
AcDbEntity
  8
LAY-2
  6
CONTINUOUS
 62
     3
100
AcDbLine
 10
452.05
 20
252.75
 30
0.0
 11
453.55
 21
252.75
 31
0.0
  0
LINE
  5
34A
100
AcDbEntity
  8
LAY-2
  6
CONTINUOUS
 62
     3
100
AcDbLine
 10
452.05
 20
227.05
 30
0.0
 11
453.55
 21
227.05
 31
0.0
  0
LINE
  5
34B
100
AcDbEntity
  8
LAY-2
  6
CONTINUOUS
 62
     3
100
AcDbLine
 10
441.4
 20
216.4
 30
0.0
 11
441.4
 21
214.9
 31
0.0
  0
LINE
  5
34C
100
AcDbEntity
  8
LAY-2
  6
CONTINUOUS
 62
     3
100
AcDbLine
 10
415.7
 20
216.4
 30
0.0
 11
415.7
 21
214.9
 31
0.0
  0
LINE
  5
34D
100
AcDbEntity
  8
LAY-2
  6
CONTINUOUS
 62
     3
100
AcDbLine
 10
436.628175
 20
250.6
 30
0.0
 11
449.85
 21
250.6
 31
0.0
  0
LINE
  5
34E
100
AcDbEntity
  8
LAY-2
  6
CONTINUOUS
 62
     3
100
AcDbLine
 10
441.127817
 20
229.2
 30
0.0
 11
449.85
 21
229.2
 31
0.0
  0
LINE
  5
34F
100
AcDbEntity
  8
LAY-2
  6
CONTINUOUS
 62
     3
100
AcDbLine
 10
439.25
 20
227.322183
 30
0.0
 11
439.25
 21
218.6
 31
0.0
  0
LINE
  5
350
100
AcDbEntity
  8
LAY-2
  6
CONTINUOUS
 62
     3
100
AcDbLine
 10
417.85
 20
231.821825
 30
0.0
 11
417.85
 21
218.6
 31
0.0
  0
ARC
  5
351
100
AcDbEntity
  8
LAY-2
  6
CONTINUOUS
 62
     3
100
AcDbCircle
 10
436.628175
 20
231.821825
 30
0.0
 40
18.778175
100
AcDbArc
 50
90.0
 51
180.0
  0
ARC
  5
352
100
AcDbEntity
  8
LAY-2
  6
CONTINUOUS
 62
     3
100
AcDbCircle
 10
441.127817
 20
227.322183
 30
0.0
 40
1.877817
100
AcDbArc
 50
90.0
 51
180.0
  0
LINE
  5
353
100
AcDbEntity
  8
LAY-2
  6
CONTINUOUS
 62
     3
100
AcDbLine
 10
515.5
 20
215.8
 30
0.0
 11
555.0
 21
215.8
 31
0.0
  0
LINE
  5
354
100
AcDbEntity
  8
LAY-2
  6
CONTINUOUS
 62
     3
100
AcDbLine
 10
515.5
 20
213.4
 30
0.0
 11
555.0
 21
213.4
 31
0.0
  0
LINE
  5
355
100
AcDbEntity
  8
LAY-2
  6
CONTINUOUS
 62
     3
100
AcDbLine
 10
561.75
 20
259.65
 30
0.0
 11
561.75
 21
220.15
 31
0.0
  0
LINE
  5
356
100
AcDbEntity
  8
LAY-2
  6
CONTINUOUS
 62
     3
100
AcDbLine
 10
559.35
 20
259.65
 30
0.0
 11
559.35
 21
220.15
 31
0.0
  0
LINE
  5
357
100
AcDbEntity
  8
LAY-2
  6
CONTINUOUS
 62
     3
100
AcDbLine
 10
559.35
 20
259.65
 30
0.0
 11
561.75
 21
259.65
 31
0.0
  0
LINE
  5
358
100
AcDbEntity
  8
LAY-2
  6
CONTINUOUS
 62
     3
100
AcDbLine
 10
563.25
 20
256.1
 30
0.0
 11
563.25
 21
223.7
 31
0.0
  0
LINE
  5
359
100
AcDbEntity
  8
LAY-2
  6
CONTINUOUS
 62
     3
100
AcDbLine
 10
559.35
 20
220.15
 30
0.0
 11
561.75
 21
220.15
 31
0.0
  0
LINE
  5
35A
100
AcDbEntity
  8
LAY-2
  6
CONTINUOUS
 62
     3
100
AcDbLine
 10
555.0
 20
215.8
 30
0.0
 11
555.0
 21
213.4
 31
0.0
  0
LINE
  5
35B
100
AcDbEntity
  8
LAY-2
  6
CONTINUOUS
 62
     3
100
AcDbLine
 10
519.05
 20
211.9
 30
0.0
 11
551.45
 21
211.9
 31
0.0
  0
LINE
  5
35C
100
AcDbEntity
  8
LAY-2
  6
CONTINUOUS
 62
     3
100
AcDbLine
 10
515.5
 20
215.8
 30
0.0
 11
515.5
 21
213.4
 31
0.0
  0
LINE
  5
35D
100
AcDbEntity
  8
LAY-2
  6
CONTINUOUS
 62
     3
100
AcDbLine
 10
561.75
 20
256.1
 30
0.0
 11
563.25
 21
256.1
 31
0.0
  0
LINE
  5
35E
100
AcDbEntity
  8
LAY-2
  6
CONTINUOUS
 62
     3
100
AcDbLine
 10
561.75
 20
223.7
 30
0.0
 11
563.25
 21
223.7
 31
0.0
  0
LINE
  5
35F
100
AcDbEntity
  8
LAY-2
  6
CONTINUOUS
 62
     3
100
AcDbLine
 10
551.45
 20
213.4
 30
0.0
 11
551.45
 21
211.9
 31
0.0
  0
LINE
  5
360
100
AcDbEntity
  8
LAY-2
  6
CONTINUOUS
 62
     3
100
AcDbLine
 10
519.05
 20
213.4
 30
0.0
 11
519.05
 21
211.9
 31
0.0
  0
ARC
  5
361
100
AcDbEntity
  8
LAY-2
  6
CONTINUOUS
 62
     3
100
AcDbCircle
 10
540.128175
 20
235.021825
 30
0.0
 40
18.778175
100
AcDbArc
 50
90.0
 51
180.0
  0
ARC
  5
362
100
AcDbEntity
  8
LAY-2
  6
CONTINUOUS
 62
     3
100
AcDbCircle
 10
551.027817
 20
224.122183
 30
0.0
 40
1.877817
100
AcDbArc
 50
90.0
 51
180.0
  0
LINE
  5
363
100
AcDbEntity
  8
LAY-2
  6
CONTINUOUS
 62
     3
100
AcDbLine
 10
540.128175
 20
253.8
 30
0.0
 11
559.35
 21
253.8
 31
0.0
  0
LINE
  5
364
100
AcDbEntity
  8
LAY-2
  6
CONTINUOUS
 62
     3
100
AcDbLine
 10
551.027817
 20
226.0
 30
0.0
 11
559.35
 21
226.0
 31
0.0
  0
LINE
  5
365
100
AcDbEntity
  8
LAY-2
  6
CONTINUOUS
 62
     3
100
AcDbLine
 10
549.15
 20
224.122183
 30
0.0
 11
549.15
 21
215.8
 31
0.0
  0
LINE
  5
366
100
AcDbEntity
  8
LAY-2
  6
CONTINUOUS
 62
     3
100
AcDbLine
 10
521.35
 20
235.021825
 30
0.0
 11
521.35
 21
215.8
 31
0.0
  0
LINE
  5
367
100
AcDbEntity
  8
LAY-2
  6
CONTINUOUS
 62
     3
100
AcDbLine
 10
132.55
 20
144.65
 30
0.0
 11
134.95
 21
144.65
 31
0.0
  0
LINE
  5
368
100
AcDbEntity
  8
LAY-2
  6
CONTINUOUS
 62
     3
100
AcDbLine
 10
132.55
 20
100.15
 30
0.0
 11
134.95
 21
100.15
 31
0.0
  0
LINE
  5
369
100
AcDbEntity
  8
LAY-2
  6
CONTINUOUS
 62
     3
100
AcDbLine
 10
132.55
 20
144.65
 30
0.0
 11
132.55
 21
100.15
 31
0.0
  0
LINE
  5
36A
100
AcDbEntity
  8
LAY-2
  6
CONTINUOUS
 62
     3
100
AcDbLine
 10
130.7
 20
98.3
 30
0.0
 11
130.7
 21
95.9
 31
0.0
  0
LINE
  5
36B
100
AcDbEntity
  8
LAY-2
  6
CONTINUOUS
 62
     3
100
AcDbLine
 10
86.2
 20
98.3
 30
0.0
 11
86.2
 21
95.9
 31
0.0
  0
LINE
  5
36C
100
AcDbEntity
  8
LAY-2
  6
CONTINUOUS
 62
     3
100
AcDbLine
 10
86.2
 20
98.3
 30
0.0
 11
130.7
 21
98.3
 31
0.0
  0
LINE
  5
36D
100
AcDbEntity
  8
LAY-2
  6
CONTINUOUS
 62
     3
100
AcDbLine
 10
90.15
 20
95.9
 30
0.0
 11
90.15
 21
94.4
 31
0.0
  0
LINE
  5
36E
100
AcDbEntity
  8
LAY-2
  6
CONTINUOUS
 62
     3
100
AcDbLine
 10
126.75
 20
95.9
 30
0.0
 11
126.75
 21
94.4
 31
0.0
  0
LINE
  5
36F
100
AcDbEntity
  8
LAY-2
  6
CONTINUOUS
 62
     3
100
AcDbLine
 10
90.15
 20
94.4
 30
0.0
 11
126.75
 21
94.4
 31
0.0
  0
LINE
  5
370
100
AcDbEntity
  8
LAY-2
  6
CONTINUOUS
 62
     3
100
AcDbLine
 10
86.2
 20
95.9
 30
0.0
 11
130.7
 21
95.9
 31
0.0
  0
LINE
  5
371
100
AcDbEntity
  8
LAY-2
  6
CONTINUOUS
 62
     3
100
AcDbLine
 10
134.95
 20
104.1
 30
0.0
 11
136.45
 21
104.1
 31
0.0
  0
LINE
  5
372
100
AcDbEntity
  8
LAY-2
  6
CONTINUOUS
 62
     3
100
AcDbLine
 10
134.95
 20
140.7
 30
0.0
 11
136.45
 21
140.7
 31
0.0
  0
LINE
  5
373
100
AcDbEntity
  8
LAY-2
  6
CONTINUOUS
 62
     3
100
AcDbLine
 10
136.45
 20
140.7
 30
0.0
 11
136.45
 21
104.1
 31
0.0
  0
LINE
  5
374
100
AcDbEntity
  8
LAY-2
  6
CONTINUOUS
 62
     3
100
AcDbLine
 10
134.95
 20
144.65
 30
0.0
 11
134.95
 21
100.15
 31
0.0
  0
ARC
  5
375
100
AcDbEntity
  8
LAY-2
  6
CONTINUOUS
 62
     3
100
AcDbCircle
 10
126.027817
 20
104.822183
 30
0.0
 40
1.877817
100
AcDbArc
 50
90.0
 51
180.0
  0
LINE
  5
376
100
AcDbEntity
  8
LAY-2
  6
CONTINUOUS
 62
     3
100
AcDbLine
 10
116.820206
 20
138.1
 30
0.0
 11
132.55
 21
138.1
 31
0.0
  0
LINE
  5
377
100
AcDbEntity
  8
LAY-2
  6
CONTINUOUS
 62
     3
100
AcDbLine
 10
92.75
 20
114.029794
 30
0.0
 11
92.75
 21
98.3
 31
0.0
  0
LINE
  5
378
100
AcDbEntity
  8
LAY-2
  6
CONTINUOUS
 62
     3
100
AcDbLine
 10
124.15
 20
104.822183
 30
0.0
 11
124.15
 21
98.3
 31
0.0
  0
LINE
  5
379
100
AcDbEntity
  8
LAY-2
  6
CONTINUOUS
 62
     3
100
AcDbLine
 10
126.027817
 20
106.7
 30
0.0
 11
132.55
 21
106.7
 31
0.0
  0
LINE
  5
37A
100
AcDbEntity
  8
LAY-2
  6
CONTINUOUS
 62
     3
100
AcDbLine
 10
247.65
 20
142.5
 30
0.0
 11
249.15
 21
142.5
 31
0.0
  0
LINE
  5
37B
100
AcDbEntity
  8
LAY-2
  6
CONTINUOUS
 62
     3
100
AcDbLine
 10
247.65
 20
100.9
 30
0.0
 11
249.15
 21
100.9
 31
0.0
  0
LINE
  5
37C
100
AcDbEntity
  8
LAY-2
  6
CONTINUOUS
 62
     3
100
AcDbLine
 10
249.15
 20
142.5
 30
0.0
 11
249.15
 21
100.9
 31
0.0
  0
LINE
  5
37D
100
AcDbEntity
  8
LAY-2
  6
CONTINUOUS
 62
     3
100
AcDbLine
 10
235.95
 20
89.2
 30
0.0
 11
235.95
 21
87.7
 31
0.0
  0
LINE
  5
37E
100
AcDbEntity
  8
LAY-2
  6
CONTINUOUS
 62
     3
100
AcDbLine
 10
194.35
 20
89.2
 30
0.0
 11
194.35
 21
87.7
 31
0.0
  0
LINE
  5
37F
100
AcDbEntity
  8
LAY-2
  6
CONTINUOUS
 62
     3
100
AcDbLine
 10
194.35
 20
87.7
 30
0.0
 11
235.95
 21
87.7
 31
0.0
  0
ARC
  5
380
100
AcDbEntity
  8
LAY-2
  6
CONTINUOUS
 62
     3
100
AcDbCircle
 10
234.927817
 20
101.922183
 30
0.0
 40
1.877817
100
AcDbArc
 50
90.0
 51
180.0
  0
LINE
  5
381
100
AcDbEntity
  8
LAY-2
  6
CONTINUOUS
 62
     3
100
AcDbLine
 10
245.05
 20
146.2
 30
0.0
 11
247.65
 21
146.2
 31
0.0
  0
LINE
  5
382
100
AcDbEntity
  8
LAY-2
  6
CONTINUOUS
 62
     3
100
AcDbLine
 10
245.05
 20
97.2
 30
0.0
 11
247.65
 21
97.2
 31
0.0
  0
LINE
  5
383
100
AcDbEntity
  8
LAY-2
  6
CONTINUOUS
 62
     3
100
AcDbLine
 10
245.05
 20
146.2
 30
0.0
 11
245.05
 21
97.2
 31
0.0
  0
LINE
  5
384
100
AcDbEntity
  8
LAY-2
  6
CONTINUOUS
 62
     3
100
AcDbLine
 10
247.65
 20
146.2
 30
0.0
 11
247.65
 21
97.2
 31
0.0
  0
LINE
  5
385
100
AcDbEntity
  8
LAY-2
  6
CONTINUOUS
 62
     3
100
AcDbLine
 10
190.65
 20
91.8
 30
0.0
 11
190.65
 21
89.2
 31
0.0
  0
LINE
  5
386
100
AcDbEntity
  8
LAY-2
  6
CONTINUOUS
 62
     3
100
AcDbLine
 10
239.65
 20
91.8
 30
0.0
 11
239.65
 21
89.2
 31
0.0
  0
LINE
  5
387
100
AcDbEntity
  8
LAY-2
  6
CONTINUOUS
 62
     3
100
AcDbLine
 10
190.65
 20
91.8
 30
0.0
 11
239.65
 21
91.8
 31
0.0
  0
LINE
  5
388
100
AcDbEntity
  8
LAY-2
  6
CONTINUOUS
 62
     3
100
AcDbLine
 10
190.65
 20
89.2
 30
0.0
 11
239.65
 21
89.2
 31
0.0
  0
LINE
  5
389
100
AcDbEntity
  8
LAY-2
  6
CONTINUOUS
 62
     3
100
AcDbLine
 10
360.35
 20
146.65
 30
0.0
 11
361.85
 21
146.65
 31
0.0
  0
LINE
  5
38A
100
AcDbEntity
  8
LAY-2
  6
CONTINUOUS
 62
     3
100
AcDbLine
 10
360.35
 20
98.15
 30
0.0
 11
361.85
 21
98.15
 31
0.0
  0
LINE
  5
38B
100
AcDbEntity
  8
LAY-2
  6
CONTINUOUS
 62
     3
100
AcDbLine
 10
361.85
 20
146.65
 30
0.0
 11
361.85
 21
98.15
 31
0.0
  0
LINE
  5
38C
100
AcDbEntity
  8
LAY-2
  6
CONTINUOUS
 62
     3
100
AcDbLine
 10
346.1
 20
83.9
 30
0.0
 11
346.1
 21
82.4
 31
0.0
  0
LINE
  5
38D
100
AcDbEntity
  8
LAY-2
  6
CONTINUOUS
 62
     3
100
AcDbLine
 10
297.6
 20
83.9
 30
0.0
 11
297.6
 21
82.4
 31
0.0
  0
LINE
  5
38E
100
AcDbEntity
  8
LAY-2
  6
CONTINUOUS
 62
     3
100
AcDbLine
 10
297.6
 20
82.4
 30
0.0
 11
346.1
 21
82.4
 31
0.0
  0
LINE
  5
38F
100
AcDbEntity
  8
LAY-2
  6
CONTINUOUS
 62
     3
100
AcDbLine
 10
357.55
 20
150.4
 30
0.0
 11
360.35
 21
150.4
 31
0.0
  0
LINE
  5
390
100
AcDbEntity
  8
LAY-2
  6
CONTINUOUS
 62
     3
100
AcDbLine
 10
357.55
 20
94.4
 30
0.0
 11
360.35
 21
94.4
 31
0.0
  0
LINE
  5
391
100
AcDbEntity
  8
LAY-2
  6
CONTINUOUS
 62
     3
100
AcDbLine
 10
357.55
 20
150.4
 30
0.0
 11
357.55
 21
94.4
 31
0.0
  0
LINE
  5
392
100
AcDbEntity
  8
LAY-2
  6
CONTINUOUS
 62
     3
100
AcDbLine
 10
360.35
 20
150.4
 30
0.0
 11
360.35
 21
94.4
 31
0.0
  0
LINE
  5
393
100
AcDbEntity
  8
LAY-2
  6
CONTINUOUS
 62
     3
100
AcDbLine
 10
293.85
 20
86.7
 30
0.0
 11
293.85
 21
83.9
 31
0.0
  0
LINE
  5
394
100
AcDbEntity
  8
LAY-2
  6
CONTINUOUS
 62
     3
100
AcDbLine
 10
349.85
 20
86.7
 30
0.0
 11
349.85
 21
83.9
 31
0.0
  0
LINE
  5
395
100
AcDbEntity
  8
LAY-2
  6
CONTINUOUS
 62
     3
100
AcDbLine
 10
293.85
 20
86.7
 30
0.0
 11
349.85
 21
86.7
 31
0.0
  0
LINE
  5
396
100
AcDbEntity
  8
LAY-2
  6
CONTINUOUS
 62
     3
100
AcDbLine
 10
293.85
 20
83.9
 30
0.0
 11
349.85
 21
83.9
 31
0.0
  0
ARC
  5
397
100
AcDbEntity
  8
LAY-2
  6
CONTINUOUS
 62
     3
100
AcDbCircle
 10
344.427817
 20
99.822183
 30
0.0
 40
1.877817
100
AcDbArc
 50
90.0
 51
180.0
  0
LINE
  5
398
100
AcDbEntity
  8
LAY-2
  6
CONTINUOUS
 62
     3
100
AcDbLine
 10
197.25
 20
106.311418
 30
0.0
 11
197.25
 21
91.8
 31
0.0
  0
LINE
  5
399
100
AcDbEntity
  8
LAY-2
  6
CONTINUOUS
 62
     3
100
AcDbLine
 10
230.538582
 20
139.6
 30
0.0
 11
245.05
 21
139.6
 31
0.0
  0
LINE
  5
39A
100
AcDbEntity
  8
LAY-2
  6
CONTINUOUS
 62
     3
100
AcDbLine
 10
234.927817
 20
103.8
 30
0.0
 11
245.05
 21
103.8
 31
0.0
  0
LINE
  5
39B
100
AcDbEntity
  8
LAY-2
  6
CONTINUOUS
 62
     3
100
AcDbLine
 10
233.05
 20
101.922183
 30
0.0
 11
233.05
 21
91.8
 31
0.0
  0
LINE
  5
39C
100
AcDbEntity
  8
LAY-2
  6
CONTINUOUS
 62
     3
100
AcDbLine
 10
342.55
 20
99.822183
 30
0.0
 11
342.55
 21
86.7
 31
0.0
  0
LINE
  5
39D
100
AcDbEntity
  8
LAY-2
  6
CONTINUOUS
 62
     3
100
AcDbLine
 10
344.427817
 20
101.7
 30
0.0
 11
357.55
 21
101.7
 31
0.0
  0
ARC
  5
39E
100
AcDbEntity
  8
LAY-2
  6
CONTINUOUS
 62
     3
100
AcDbCircle
 10
230.538582
 20
106.311418
 30
0.0
 40
33.288582
100
AcDbArc
 50
90.0
 51
180.0
  0
ARC
  5
39F
100
AcDbEntity
  8
LAY-2
  6
CONTINUOUS
 62
     3
100
AcDbCircle
 10
341.779141
 20
102.470859
 30
0.0
 40
40.629141
100
AcDbArc
 50
90.0
 51
180.0
  0
LINE
  5
3A0
100
AcDbEntity
  8
LAY-2
  6
CONTINUOUS
 62
     3
100
AcDbLine
 10
341.779141
 20
143.1
 30
0.0
 11
357.55
 21
143.1
 31
0.0
  0
LINE
  5
3A1
100
AcDbEntity
  8
LAY-2
  6
CONTINUOUS
 62
     3
100
AcDbLine
 10
301.15
 20
102.470859
 30
0.0
 11
301.15
 21
86.7
 31
0.0
  0
ARC
  5
3A2
100
AcDbEntity
  8
LAY-2
  6
CONTINUOUS
 62
     3
100
AcDbCircle
 10
116.820206
 20
114.029794
 30
0.0
 40
24.070206
100
AcDbArc
 50
90.0
 51
180.0
  0
LINE
  5
3A3
100
AcDbEntity
  8
LAY-2
  6
CONTINUOUS
 62
     3
100
AcDbLine
 10
469.05
 20
153.4
 30
0.0
 11
472.05
 21
153.4
 31
0.0
  0
LINE
  5
3A4
100
AcDbEntity
  8
LAY-2
  6
CONTINUOUS
 62
     3
100
AcDbLine
 10
469.05
 20
91.4
 30
0.0
 11
472.05
 21
91.4
 31
0.0
  0
LINE
  5
3A5
100
AcDbEntity
  8
LAY-2
  6
CONTINUOUS
 62
     3
100
AcDbLine
 10
469.05
 20
153.4
 30
0.0
 11
469.05
 21
91.4
 31
0.0
  0
LINE
  5
3A6
100
AcDbEntity
  8
LAY-2
  6
CONTINUOUS
 62
     3
100
AcDbLine
 10
459.55
 20
81.9
 30
0.0
 11
459.55
 21
78.9
 31
0.0
  0
LINE
  5
3A7
100
AcDbEntity
  8
LAY-2
  6
CONTINUOUS
 62
     3
100
AcDbLine
 10
397.55
 20
81.9
 30
0.0
 11
397.55
 21
78.9
 31
0.0
  0
LINE
  5
3A8
100
AcDbEntity
  8
LAY-2
  6
CONTINUOUS
 62
     3
100
AcDbLine
 10
397.55
 20
81.9
 30
0.0
 11
459.55
 21
81.9
 31
0.0
  0
LINE
  5
3A9
100
AcDbEntity
  8
LAY-2
  6
CONTINUOUS
 62
     3
100
AcDbLine
 10
401.8
 20
78.9
 30
0.0
 11
401.8
 21
77.4
 31
0.0
  0
LINE
  5
3AA
100
AcDbEntity
  8
LAY-2
  6
CONTINUOUS
 62
     3
100
AcDbLine
 10
455.3
 20
78.9
 30
0.0
 11
455.3
 21
77.4
 31
0.0
  0
LINE
  5
3AB
100
AcDbEntity
  8
LAY-2
  6
CONTINUOUS
 62
     3
100
AcDbLine
 10
401.8
 20
77.4
 30
0.0
 11
455.3
 21
77.4
 31
0.0
  0
LINE
  5
3AC
100
AcDbEntity
  8
LAY-2
  6
CONTINUOUS
 62
     3
100
AcDbLine
 10
397.55
 20
78.9
 30
0.0
 11
459.55
 21
78.9
 31
0.0
  0
LINE
  5
3AD
100
AcDbEntity
  8
LAY-2
  6
CONTINUOUS
 62
     3
100
AcDbLine
 10
472.05
 20
95.65
 30
0.0
 11
473.55
 21
95.65
 31
0.0
  0
LINE
  5
3AE
100
AcDbEntity
  8
LAY-2
  6
CONTINUOUS
 62
     3
100
AcDbLine
 10
472.05
 20
149.15
 30
0.0
 11
473.55
 21
149.15
 31
0.0
  0
LINE
  5
3AF
100
AcDbEntity
  8
LAY-2
  6
CONTINUOUS
 62
     3
100
AcDbLine
 10
473.55
 20
149.15
 30
0.0
 11
473.55
 21
95.65
 31
0.0
  0
LINE
  5
3B0
100
AcDbEntity
  8
LAY-2
  6
CONTINUOUS
 62
     3
100
AcDbLine
 10
472.05
 20
153.4
 30
0.0
 11
472.05
 21
91.4
 31
0.0
  0
ARC
  5
3B1
100
AcDbEntity
  8
LAY-2
  6
CONTINUOUS
 62
     3
100
AcDbCircle
 10
453.627817
 20
97.322183
 30
0.0
 40
1.877817
100
AcDbArc
 50
90.0
 51
180.0
  0
ARC
  5
3B2
100
AcDbEntity
  8
LAY-2
  6
CONTINUOUS
 62
     3
100
AcDbCircle
 10
445.979141
 20
104.970859
 30
0.0
 40
40.629141
100
AcDbArc
 50
90.0
 51
180.0
  0
LINE
  5
3B3
100
AcDbEntity
  8
LAY-2
  6
CONTINUOUS
 62
     3
100
AcDbLine
 10
445.979141
 20
145.6
 30
0.0
 11
469.05
 21
145.6
 31
0.0
  0
LINE
  5
3B4
100
AcDbEntity
  8
LAY-2
  6
CONTINUOUS
 62
     3
100
AcDbLine
 10
405.35
 20
104.970859
 30
0.0
 11
405.35
 21
81.9
 31
0.0
  0
LINE
  5
3B5
100
AcDbEntity
  8
LAY-2
  6
CONTINUOUS
 62
     3
100
AcDbLine
 10
453.627817
 20
99.2
 30
0.0
 11
469.05
 21
99.2
 31
0.0
  0
LINE
  5
3B6
100
AcDbEntity
  8
LAY-2
  6
CONTINUOUS
 62
     3
100
AcDbLine
 10
451.75
 20
97.322183
 30
0.0
 11
451.75
 21
81.9
 31
0.0
  0
LINE
  5
3B7
100
AcDbEntity
  8
LAY-2
  6
CONTINUOUS
 62
     2
100
AcDbLine
 10
55.1
 20
413.5
 30
0.0
 11
588.6
 21
413.5
 31
0.0
  0
LINE
  5
3B8
100
AcDbEntity
  8
LAY-2
  6
CONTINUOUS
 62
     2
100
AcDbLine
 10
588.6
 20
413.5
 30
0.0
 11
588.6
 21
52.4
 31
0.0
  0
LINE
  5
3B9
100
AcDbEntity
  8
LAY-2
  6
CONTINUOUS
 62
     2
100
AcDbLine
 10
588.6
 20
52.4
 30
0.0
 11
55.1
 21
52.4
 31
0.0
  0
LINE
  5
3BA
100
AcDbEntity
  8
LAY-2
  6
CONTINUOUS
 62
     2
100
AcDbLine
 10
55.1
 20
52.4
 30
0.0
 11
55.1
 21
413.5
 31
0.0
  0
LINE
  5
3BB
100
AcDbEntity
  8
LAY-2
  6
CONTINUOUS
 62
     2
100
AcDbLine
 10
588.6
 20
192.4
 30
0.0
 11
55.1
 21
192.4
 31
0.0
  0
LINE
  5
3BC
100
AcDbEntity
  8
LAY-2
  6
CONTINUOUS
 62
     2
100
AcDbLine
 10
588.6
 20
202.4
 30
0.0
 11
55.1
 21
202.4
 31
0.0
  0
LINE
  5
3BD
100
AcDbEntity
  8
LAY-2
  6
CONTINUOUS
 62
     2
100
AcDbLine
 10
588.6
 20
267.4
 30
0.0
 11
55.1
 21
267.4
 31
0.0
  0
LINE
  5
3BE
100
AcDbEntity
  8
LAY-2
  6
CONTINUOUS
 62
     2
100
AcDbLine
 10
588.6
 20
277.4
 30
0.0
 11
55.1
 21
277.4
 31
0.0
  0
LINE
  5
3BF
100
AcDbEntity
  8
LAY-2
  6
CONTINUOUS
 62
     2
100
AcDbLine
 10
588.6
 20
342.4
 30
0.0
 11
55.1
 21
342.4
 31
0.0
  0
LINE
  5
3C0
100
AcDbEntity
  8
LAY-2
  6
CONTINUOUS
 62
     2
100
AcDbLine
 10
588.6
 20
352.4
 30
0.0
 11
55.1
 21
352.4
 31
0.0
  0
POINT
  5
3C1
100
AcDbEntity
  8
LAY-2
  6
CONTINUOUS
 62
     2
100
AcDbPoint
 10
481.9
 20
352.4
 30
0.0
  0
POINT
  5
3C2
100
AcDbEntity
  8
LAY-2
  6
CONTINUOUS
 62
     2
100
AcDbPoint
 10
375.2
 20
352.4
 30
0.0
  0
POINT
  5
3C3
100
AcDbEntity
  8
LAY-2
  6
CONTINUOUS
 62
     2
100
AcDbPoint
 10
268.5
 20
352.4
 30
0.0
  0
POINT
  5
3C4
100
AcDbEntity
  8
LAY-2
  6
CONTINUOUS
 62
     2
100
AcDbPoint
 10
161.8
 20
352.4
 30
0.0
  0
LINE
  5
3C5
100
AcDbEntity
  8
LAY-2
  6
CONTINUOUS
 62
     2
100
AcDbLine
 10
161.8
 20
352.4
 30
0.0
 11
161.8
 21
52.4
 31
0.0
  0
LINE
  5
3C6
100
AcDbEntity
  8
LAY-2
  6
CONTINUOUS
 62
     2
100
AcDbLine
 10
268.5
 20
352.4
 30
0.0
 11
268.5
 21
52.4
 31
0.0
  0
LINE
  5
3C7
100
AcDbEntity
  8
LAY-2
  6
CONTINUOUS
 62
     2
100
AcDbLine
 10
375.2
 20
352.4
 30
0.0
 11
375.2
 21
52.4
 31
0.0
  0
LINE
  5
3C8
100
AcDbEntity
  8
LAY-2
  6
CONTINUOUS
 62
     2
100
AcDbLine
 10
481.9
 20
352.4
 30
0.0
 11
481.9
 21
52.4
 31
0.0
  0
TEXT
  5
3C9
100
AcDbEntity
  8
LAY-2
  6
CONTINUOUS
 62
     7
100
AcDbText
 10
75.3
 20
344.6
 30
0.0
 40
5.0
  1
３２Ａ×１２０，１４０Ｌ
 41
0.994
  7
EXCADSTD
 72
     5
 11
146.299998
 21
344.6
 31
0.0
100
AcDbText
  0
TEXT
  5
3CA
100
AcDbEntity
  8
LAY-2
  6
CONTINUOUS
 62
     7
100
AcDbText
 10
181.7
 20
344.9
 30
0.0
 40
5.0
  1
４０A×１２０，１４０Ｌ
 41
0.974222
  7
EXCADSTD
 72
     5
 11
250.199997
 21
344.9
 31
0.0
100
AcDbText
  0
TEXT
  5
3CB
100
AcDbEntity
  8
LAY-2
  6
CONTINUOUS
 62
     7
100
AcDbText
 10
286.4
 20
344.6
 30
0.0
 40
5.0
  1
５０A×１２０，１４０Ｌ
 41
0.974222
  7
EXCADSTD
 72
     5
 11
354.899997
 21
344.6
 31
0.0
100
AcDbText
  0
TEXT
  5
3CC
100
AcDbEntity
  8
LAY-2
  6
CONTINUOUS
 62
     7
100
AcDbText
 10
392.2
 20
344.3
 30
0.0
 40
5.0
  1
６５Ａ×１４０，１６０Ｌ
 41
0.994
  7
EXCADSTD
 72
     5
 11
463.199998
 21
344.3
 31
0.0
100
AcDbText
  0
TEXT
  5
3CD
100
AcDbEntity
  8
LAY-2
  6
CONTINUOUS
 62
     7
100
AcDbText
 10
498.1
 20
344.3
 30
0.0
 40
5.0
  1
８０Ａ×１５０，１７０Ｌ
 41
0.994
  7
EXCADSTD
 72
     5
 11
569.099998
 21
344.3
 31
0.0
100
AcDbText
  0
TEXT
  5
3CE
100
AcDbEntity
  8
LAY-2
  6
CONTINUOUS
 62
     7
100
AcDbText
 10
72.2
 20
269.8
 30
0.0
 40
5.0
  1
１００A×１６０，１９０Ｌ
 41
0.976876
  7
EXCADSTD
 72
     5
 11
146.7
 21
269.8
 31
0.0
100
AcDbText
  0
TEXT
  5
3CF
100
AcDbEntity
  8
LAY-2
  6
CONTINUOUS
 62
     7
100
AcDbText
 10
177.8
 20
269.5
 30
0.0
 40
5.0
  1
１２５Ａ×１８０，２１５Ｌ
 41
0.995077
  7
EXCADSTD
 72
     5
 11
254.800002
 21
269.5
 31
0.0
100
AcDbText
  0
TEXT
  5
3D0
100
AcDbEntity
  8
LAY-2
  6
CONTINUOUS
 62
     7
100
AcDbText
 10
283.3
 20
269.3
 30
0.0
 40
5.0
  1
１５０Ａ×２１０，２５０Ｌ
 41
0.995077
  7
EXCADSTD
 72
     5
 11
360.300002
 21
269.3
 31
0.0
100
AcDbText
  0
TEXT
  5
3D1
100
AcDbEntity
  8
LAY-2
  6
CONTINUOUS
 62
     7
100
AcDbText
 10
400.8
 20
270.1
 30
0.0
 40
5.0
  1
２００Ａ×２５０Ｌ
 41
0.989333
  7
EXCADSTD
 72
     5
 11
453.8
 21
270.1
 31
0.0
100
AcDbText
  0
TEXT
  5
3D2
100
AcDbEntity
  8
LAY-2
  6
CONTINUOUS
 62
     7
100
AcDbText
 10
510.0
 20
269.5
 30
0.0
 40
5.0
  1
２５０Ａ×２８０Ｌ
 41
0.989333
  7
EXCADSTD
 72
     5
 11
563.0
 21
269.5
 31
0.0
100
AcDbText
  0
TEXT
  5
3D3
100
AcDbEntity
  8
LAY-2
  6
CONTINUOUS
 62
     7
100
AcDbText
 10
83.1
 20
194.8
 30
0.0
 40
5.0
  1
３００Ａ×２８０Ｌ
 41
0.989333
  7
EXCADSTD
 72
     5
 11
136.1
 21
194.8
 31
0.0
100
AcDbText
  0
TEXT
  5
3D4
100
AcDbEntity
  8
LAY-2
  6
CONTINUOUS
 62
     7
100
AcDbText
 10
186.8
 20
195.1
 30
0.0
 40
5.0
  1
３５０Ａ×３４０Ｌ
 41
0.989333
  7
EXCADSTD
 72
     5
 11
239.8
 21
195.1
 31
0.0
100
AcDbText
  0
TEXT
  5
3D5
100
AcDbEntity
  8
LAY-2
  6
CONTINUOUS
 62
     7
100
AcDbText
 10
298.6
 20
194.8
 30
0.0
 40
5.0
  1
４００A×４００Ｌ
 41
0.962617
  7
EXCADSTD
 72
     5
 11
349.1
 21
194.8
 31
0.0
100
AcDbText
  0
TEXT
  5
3D6
100
AcDbEntity
  8
LAY-2
  6
CONTINUOUS
 62
     7
100
AcDbText
 10
403.7
 20
194.8
 30
0.0
 40
5.0
  1
４５０Ａ×４５０Ｌ
 41
0.989333
  7
EXCADSTD
 72
     5
 11
456.7
 21
194.8
 31
0.0
100
AcDbText
  0
TEXT
  5
3D7
100
AcDbEntity
  8
LAY-2
  6
CONTINUOUS
 62
     7
100
AcDbText
 10
280.4
 20
374.7
 30
0.0
 40
18.0
  1
エルボフレックスＳ
 41
0.84
  7
EXCADSTD
 72
     5
 11
442.4
 21
374.7
 31
0.0
100
AcDbText
  0
LINE
  5
3D8
100
AcDbEntity
  8
LAY-2
  6
CONTINUOUS
 62
     2
100
AcDbLine
 10
205.9
 20
387.8
 30
0.0
 11
205.9
 21
379.175
 31
0.0
  0
LINE
  5
3D9
100
AcDbEntity
  8
LAY-2
  6
CONTINUOUS
 62
     2
100
AcDbLine
 10
208.525
 20
387.8
 30
0.0
 11
208.525
 21
379.175
 31
0.0
  0
CIRCLE
  5
3DA
100
AcDbEntity
  8
LAY-2
  6
CONTINUOUS
 62
     2
100
AcDbCircle
 10
219.4
 20
384.8
 30
0.0
 40
3.975
  0
CIRCLE
  5
3DB
100
AcDbEntity
  8
LAY-2
  6
CONTINUOUS
 62
     2
100
AcDbCircle
 10
219.4
 20
384.8
 30
0.0
 40
5.25
  0
CIRCLE
  5
3DC
100
AcDbEntity
  8
LAY-2
  6
CONTINUOUS
 62
     2
100
AcDbCircle
 10
219.4
 20
384.8
 30
0.0
 40
7.95
  0
LINE
  5
3DD
100
AcDbEntity
  8
LAY-2
  6
CONTINUOUS
 62
     2
100
AcDbLine
 10
200.65
 20
390.425
 30
0.0
 11
200.65
 21
387.8
 31
0.0
  0
LINE
  5
3DE
100
AcDbEntity
  8
LAY-2
  6
CONTINUOUS
 62
     2
100
AcDbLine
 10
205.9
 20
379.175
 30
0.0
 11
208.525
 21
379.175
 31
0.0
  0
ARC
  5
3DF
100
AcDbEntity
  8
LAY-2
  6
CONTINUOUS
 62
     2
100
AcDbCircle
 10
219.4
 20
384.8
 30
0.0
 40
8.722445
100
AcDbArc
 50
139.842723
 51
159.882882
  0
ARC
  5
3E0
100
AcDbEntity
  8
LAY-2
  6
CONTINUOUS
 62
     2
100
AcDbCircle
 10
219.4
 20
384.8
 30
0.0
 40
8.722445
100
AcDbArc
 50
20.117118
 51
40.157277
  0
LINE
  5
3E1
100
AcDbEntity
  8
LAY-2
  6
CONTINUOUS
 62
     2
100
AcDbLine
 10
235.15
 20
381.8
 30
0.0
 11
235.15
 21
379.175
 31
0.0
  0
LINE
  5
3E2
100
AcDbEntity
  8
LAY-2
  6
CONTINUOUS
 62
     2
100
AcDbLine
 10
235.15
 20
390.425
 30
0.0
 11
235.15
 21
387.8
 31
0.0
  0
ARC
  5
3E3
100
AcDbEntity
  8
LAY-2
  6
CONTINUOUS
 62
     2
100
AcDbCircle
 10
219.4
 20
384.8
 30
0.0
 40
8.722445
100
AcDbArc
 50
319.842723
 51
348.135428
  0
LINE
  5
3E4
100
AcDbEntity
  8
LAY-2
  6
CONTINUOUS
 62
     2
100
AcDbLine
 10
235.15
 20
387.8
 30
0.0
 11
229.741006
 21
381.8
 31
0.0
  0
LINE
  5
3E5
100
AcDbEntity
  8
LAY-2
  6
CONTINUOUS
 62
     2
100
AcDbLine
 10
232.257281
 20
387.8
 30
0.0
 11
227.936102
 21
383.006673
 31
0.0
  0
LINE
  5
3E6
100
AcDbEntity
  8
LAY-2
  6
CONTINUOUS
 62
     2
100
AcDbLine
 10
236.425
 20
390.425
 30
0.0
 11
236.425
 21
379.175
 31
0.0
  0
LINE
  5
3E7
100
AcDbEntity
  8
LAY-2
  6
CONTINUOUS
 62
     2
100
AcDbLine
 10
239.05
 20
385.925
 30
0.0
 11
246.475
 21
385.925
 31
0.0
  0
LINE
  5
3E8
100
AcDbEntity
  8
LAY-2
  6
CONTINUOUS
 62
     2
100
AcDbLine
 10
239.05
 20
383.675
 30
0.0
 11
246.475
 21
383.675
 31
0.0
  0
LINE
  5
3E9
100
AcDbEntity
  8
LAY-2
  6
CONTINUOUS
 62
     2
100
AcDbLine
 10
247.6
 20
390.425
 30
0.0
 11
247.6
 21
379.175
 31
0.0
  0
LINE
  5
3EA
100
AcDbEntity
  8
LAY-2
  6
CONTINUOUS
 62
     2
100
AcDbLine
 10
257.95
 20
390.425
 30
0.0
 11
257.95
 21
379.175
 31
0.0
  0
LINE
  5
3EB
100
AcDbEntity
  8
LAY-2
  6
CONTINUOUS
 62
     2
100
AcDbLine
 10
255.4
 20
379.175
 30
0.0
 11
250.15
 21
387.152654
 31
0.0
  0
LINE
  5
3EC
100
AcDbEntity
  8
LAY-2
  6
CONTINUOUS
 62
     2
100
AcDbLine
 10
250.15
 20
390.425
 30
0.0
 11
255.4
 21
382.447346
 31
0.0
  0
LINE
  5
3ED
100
AcDbEntity
  8
LAY-2
  6
CONTINUOUS
 62
     2
100
AcDbLine
 10
246.475
 20
390.425
 30
0.0
 11
246.475
 21
387.8
 31
0.0
  0
LINE
  5
3EE
100
AcDbEntity
  8
LAY-2
  6
CONTINUOUS
 62
     2
100
AcDbLine
 10
246.475
 20
385.925
 30
0.0
 11
246.475
 21
383.675
 31
0.0
  0
LINE
  5
3EF
100
AcDbEntity
  8
LAY-2
  6
CONTINUOUS
 62
     2
100
AcDbLine
 10
246.475
 20
381.8
 30
0.0
 11
246.475
 21
379.175
 31
0.0
  0
LINE
  5
3F0
100
AcDbEntity
  8
LAY-2
  6
CONTINUOUS
 62
     2
100
AcDbLine
 10
239.05
 20
387.8
 30
0.0
 11
246.475
 21
387.8
 31
0.0
  0
LINE
  5
3F1
100
AcDbEntity
  8
LAY-2
  6
CONTINUOUS
 62
     2
100
AcDbLine
 10
236.425
 20
390.425
 30
0.0
 11
246.475
 21
390.425
 31
0.0
  0
LINE
  5
3F2
100
AcDbEntity
  8
LAY-2
  6
CONTINUOUS
 62
     2
100
AcDbLine
 10
239.05
 20
383.675
 30
0.0
 11
239.05
 21
381.8
 31
0.0
  0
LINE
  5
3F3
100
AcDbEntity
  8
LAY-2
  6
CONTINUOUS
 62
     2
100
AcDbLine
 10
236.425
 20
379.175
 30
0.0
 11
246.475
 21
379.175
 31
0.0
  0
LINE
  5
3F4
100
AcDbEntity
  8
LAY-2
  6
CONTINUOUS
 62
     2
100
AcDbLine
 10
239.05
 20
381.8
 30
0.0
 11
246.475
 21
381.8
 31
0.0
  0
LINE
  5
3F5
100
AcDbEntity
  8
LAY-2
  6
CONTINUOUS
 62
     2
100
AcDbLine
 10
250.15
 20
387.152654
 30
0.0
 11
250.15
 21
379.175
 31
0.0
  0
LINE
  5
3F6
100
AcDbEntity
  8
LAY-2
  6
CONTINUOUS
 62
     2
100
AcDbLine
 10
247.6
 20
390.425
 30
0.0
 11
250.15
 21
390.425
 31
0.0
  0
LINE
  5
3F7
100
AcDbEntity
  8
LAY-2
  6
CONTINUOUS
 62
     2
100
AcDbLine
 10
255.4
 20
390.425
 30
0.0
 11
257.95
 21
390.425
 31
0.0
  0
LINE
  5
3F8
100
AcDbEntity
  8
LAY-2
  6
CONTINUOUS
 62
     2
100
AcDbLine
 10
247.6
 20
379.175
 30
0.0
 11
250.15
 21
379.175
 31
0.0
  0
LINE
  5
3F9
100
AcDbEntity
  8
LAY-2
  6
CONTINUOUS
 62
     2
100
AcDbLine
 10
255.4
 20
379.175
 30
0.0
 11
257.95
 21
379.175
 31
0.0
  0
LINE
  5
3FA
100
AcDbEntity
  8
LAY-2
  6
CONTINUOUS
 62
     2
100
AcDbLine
 10
255.4
 20
390.425
 30
0.0
 11
255.4
 21
382.447346
 31
0.0
  0
LINE
  5
3FB
100
AcDbEntity
  8
LAY-2
  6
CONTINUOUS
 62
     2
100
AcDbLine
 10
200.65
 20
387.8
 30
0.0
 11
205.9
 21
387.8
 31
0.0
  0
LINE
  5
3FC
100
AcDbEntity
  8
LAY-2
  6
CONTINUOUS
 62
     2
100
AcDbLine
 10
208.525
 20
387.8
 30
0.0
 11
211.209698
 21
387.8
 31
0.0
  0
LINE
  5
3FD
100
AcDbEntity
  8
LAY-2
  6
CONTINUOUS
 62
     2
100
AcDbLine
 10
200.65
 20
390.425
 30
0.0
 11
212.733635
 21
390.425
 31
0.0
  0
LINE
  5
3FE
100
AcDbEntity
  8
LAY-2
  6
CONTINUOUS
 62
     2
100
AcDbLine
 10
226.066365
 20
390.425
 30
0.0
 11
235.15
 21
390.425
 31
0.0
  0
LINE
  5
3FF
100
AcDbEntity
  8
LAY-2
  6
CONTINUOUS
 62
     2
100
AcDbLine
 10
227.590302
 20
387.8
 30
0.0
 11
232.257281
 21
387.8
 31
0.0
  0
LINE
  5
400
100
AcDbEntity
  8
LAY-2
  6
CONTINUOUS
 62
     2
100
AcDbLine
 10
226.066365
 20
379.175
 30
0.0
 11
235.15
 21
379.175
 31
0.0
  0
LINE
  5
401
100
AcDbEntity
  8
LAY-2
  6
CONTINUOUS
 62
     2
100
AcDbLine
 10
229.741006
 20
381.8
 30
0.0
 11
235.15
 21
381.8
 31
0.0
  0
LINE
  5
402
100
AcDbEntity
  8
LAY-2
  6
CONTINUOUS
 62
     2
100
AcDbLine
 10
239.05
 20
387.8
 30
0.0
 11
239.05
 21
385.925
 31
0.0
  0
LINE
  5
403
100
AcDbEntity
  8
LAY-2
  6
EXLTYPE3
 62
     1
100
AcDbLine
 10
108.45
 20
309.824392
 30
0.0
 11
126.15
 21
309.824392
 31
0.0
  0
LINE
  5
404
100
AcDbEntity
  8
LAY-2
  6
EXLTYPE3
 62
     1
100
AcDbLine
 10
108.45
 20
309.824392
 30
0.0
 11
108.45
 21
292.424392
 31
0.0
  0
LINE
  5
405
100
AcDbEntity
  8
LAY-2
  6
EXLTYPE3
 62
     1
100
AcDbLine
 10
215.15
 20
309.9
 30
0.0
 11
232.85
 21
309.9
 31
0.0
  0
LINE
  5
406
100
AcDbEntity
  8
LAY-2
  6
EXLTYPE3
 62
     1
100
AcDbLine
 10
215.15
 20
309.9
 30
0.0
 11
215.15
 21
292.5
 31
0.0
  0
LINE
  5
407
100
AcDbEntity
  8
LAY-2
  6
EXLTYPE3
 62
     1
100
AcDbLine
 10
321.85
 20
309.9
 30
0.0
 11
339.55
 21
309.9
 31
0.0
  0
LINE
  5
408
100
AcDbEntity
  8
LAY-2
  6
EXLTYPE3
 62
     1
100
AcDbLine
 10
321.85
 20
309.9
 30
0.0
 11
321.85
 21
292.5
 31
0.0
  0
LINE
  5
409
100
AcDbEntity
  8
LAY-2
  6
EXLTYPE3
 62
     1
100
AcDbLine
 10
428.55
 20
309.9
 30
0.0
 11
447.25
 21
309.9
 31
0.0
  0
LINE
  5
40A
100
AcDbEntity
  8
LAY-2
  6
EXLTYPE3
 62
     1
100
AcDbLine
 10
428.55
 20
309.9
 30
0.0
 11
428.55
 21
292.8
 31
0.0
  0
LINE
  5
40B
100
AcDbEntity
  8
LAY-2
  6
EXLTYPE3
 62
     1
100
AcDbLine
 10
535.25
 20
309.9
 30
0.0
 11
554.95
 21
309.9
 31
0.0
  0
LINE
  5
40C
100
AcDbEntity
  8
LAY-2
  6
EXLTYPE3
 62
     1
100
AcDbLine
 10
535.25
 20
309.9
 30
0.0
 11
535.25
 21
291.5
 31
0.0
  0
LINE
  5
40D
100
AcDbEntity
  8
LAY-2
  6
EXLTYPE3
 62
     1
100
AcDbLine
 10
535.25
 20
239.9
 30
0.0
 11
575.65
 21
239.9
 31
0.0
  0
LINE
  5
40E
100
AcDbEntity
  8
LAY-2
  6
EXLTYPE3
 62
     1
100
AcDbLine
 10
535.25
 20
239.9
 30
0.0
 11
535.25
 21
206.4
 31
0.0
  0
LINE
  5
40F
100
AcDbEntity
  8
LAY-2
  6
EXLTYPE3
 62
     1
100
AcDbLine
 10
428.55
 20
239.9
 30
0.0
 11
465.95
 21
239.9
 31
0.0
  0
LINE
  5
410
100
AcDbEntity
  8
LAY-2
  6
EXLTYPE3
 62
     1
100
AcDbLine
 10
428.55
 20
239.9
 30
0.0
 11
428.55
 21
210.4
 31
0.0
  0
LINE
  5
411
100
AcDbEntity
  8
LAY-2
  6
EXLTYPE3
 62
     1
100
AcDbLine
 10
321.85
 20
239.9
 30
0.0
 11
351.55
 21
239.9
 31
0.0
  0
LINE
  5
412
100
AcDbEntity
  8
LAY-2
  6
EXLTYPE3
 62
     1
100
AcDbLine
 10
321.85
 20
239.9
 30
0.0
 11
321.85
 21
209.1
 31
0.0
  0
LINE
  5
413
100
AcDbEntity
  8
LAY-2
  6
EXLTYPE3
 62
     1
100
AcDbLine
 10
215.15
 20
239.9
 30
0.0
 11
242.05
 21
239.9
 31
0.0
  0
LINE
  5
414
100
AcDbEntity
  8
LAY-2
  6
EXLTYPE3
 62
     1
100
AcDbLine
 10
215.15
 20
239.9
 30
0.0
 11
215.15
 21
209.1
 31
0.0
  0
LINE
  5
415
100
AcDbEntity
  8
LAY-2
  6
EXLTYPE3
 62
     1
100
AcDbLine
 10
108.45
 20
239.9
 30
0.0
 11
135.35
 21
239.9
 31
0.0
  0
LINE
  5
416
100
AcDbEntity
  8
LAY-2
  6
EXLTYPE3
 62
     1
100
AcDbLine
 10
108.45
 20
239.9
 30
0.0
 11
108.45
 21
209.1
 31
0.0
  0
LINE
  5
417
100
AcDbEntity
  8
LAY-2
  6
EXLTYPE3
 62
     1
100
AcDbLine
 10
108.45
 20
122.4
 30
0.0
 11
148.85
 21
122.4
 31
0.0
  0
LINE
  5
418
100
AcDbEntity
  8
LAY-2
  6
EXLTYPE3
 62
     1
100
AcDbLine
 10
108.45
 20
122.4
 30
0.0
 11
108.45
 21
83.8
 31
0.0
  0
LINE
  5
419
100
AcDbEntity
  8
LAY-2
  6
EXLTYPE3
 62
     1
100
AcDbLine
 10
215.15
 20
121.7
 30
0.0
 11
261.55
 21
121.7
 31
0.0
  0
LINE
  5
41A
100
AcDbEntity
  8
LAY-2
  6
EXLTYPE3
 62
     1
100
AcDbLine
 10
215.15
 20
121.7
 30
0.0
 11
215.15
 21
77.1
 31
0.0
  0
LINE
  5
41B
100
AcDbEntity
  8
LAY-2
  6
EXLTYPE3
 62
     1
100
AcDbLine
 10
321.85
 20
122.4
 30
0.0
 11
374.25
 21
122.4
 31
0.0
  0
LINE
  5
41C
100
AcDbEntity
  8
LAY-2
  6
EXLTYPE3
 62
     1
100
AcDbLine
 10
321.85
 20
122.4
 30
0.0
 11
321.85
 21
71.8
 31
0.0
  0
LINE
  5
41D
100
AcDbEntity
  8
LAY-2
  6
EXLTYPE3
 62
     1
100
AcDbLine
 10
428.55
 20
122.4
 30
0.0
 11
480.95
 21
122.4
 31
0.0
  0
LINE
  5
41E
100
AcDbEntity
  8
LAY-2
  6
EXLTYPE3
 62
     1
100
AcDbLine
 10
428.55
 20
122.4
 30
0.0
 11
428.55
 21
66.8
 31
0.0
  0
TEXT
  5
420
100
AcDbEntity
  8
LAY-2
  6
CONTINUOUS
 62
     1
100
AcDbText
 10
66.850002
 20
-16.8
 30
0.0
 40
11.25
  1
スケールは１／１０となっています。必要に応じてサイズを１０倍して下さい。
 41
0.966667
  7
EXCADTTF1
 72
     5
 11
589.350002
 21
-16.8
 31
0.0
100
AcDbText
  0
ENDSEC
  0
SECTION
  2
OBJECTS
  0
DICTIONARY
  5
19
100
AcDbDictionary
  3
ACAD_GROUP
350
1A
  3
ACAD_MLINESTYLE
350
1B
  0
DICTIONARY
  5
1A
102
{ACAD_REACTORS
330
19
102
}
100
AcDbDictionary
  0
DICTIONARY
  5
1B
102
{ACAD_REACTORS
330
19
102
}
100
AcDbDictionary
  3
STANDARD
350
1C
  0
MLINESTYLE
  5
1C
102
{ACAD_REACTORS
330
1B
102
}
100
AcDbMlineStyle
  2
Standard
 70
     0
  3

 62
     0
 51
90.0
 52
90.0
 71
     2
 49
0.5
 62
   256
  6
ByLayer
 49
-0.5
 62
   256
  6
ByLayer
  0
ENDSEC
  0
EOF
