  0
SECTION
  2
HEADER
  9
$ACADVER
  1
AC1014
  9
$ACADMAINTVER
 70
     0
  9
$DWGCODEPAGE
  3
DOS932
  9
$INSBASE
 10
0.0
 20
0.0
 30
0.0
  9
$EXTMIN
 10
-0.749998
 20
-0.6
 30
0.0
  9
$EXTMAX
 10
521.750062
 20
297.05
 30
0.0
  9
$LIMMIN
 10
0.0
 20
0.0
  9
$LIMMAX
 10
420.0
 20
297.0
  9
$ORTHOMODE
 70
     0
  9
$REGENMODE
 70
     1
  9
$FILLMODE
 70
     1
  9
$QTEXTMODE
 70
     0
  9
$MIRRTEXT
 70
     1
  9
$DRAGMODE
 70
     2
  9
$LTSCALE
 40
1.0
  9
$OSMODE
 70
     0
  9
$ATTMODE
 70
     1
  9
$TEXTSIZE
 40
0.2
  9
$TRACEWID
 40
0.05
  9
$TEXTSTYLE
  7
STANDARD
  9
$CLAYER
  8
LAY-4
  9
$CELTYPE
  6
CONTINUOUS
  9
$CECOLOR
 62
   256
  9
$CELTSCALE
 40
1.0
  9
$DELOBJ
 70
     1
  9
$DISPSILH
 70
     0
  9
$DIMSCALE
 40
1.0
  9
$DIMASZ
 40
0.18
  9
$DIMEXO
 40
0.0625
  9
$DIMDLI
 40
0.38
  9
$DIMRND
 40
0.0
  9
$DIMDLE
 40
0.0
  9
$DIMEXE
 40
0.18
  9
$DIMTP
 40
0.0
  9
$DIMTM
 40
0.0
  9
$DIMTXT
 40
0.18
  9
$DIMCEN
 40
0.09
  9
$DIMTSZ
 40
0.0
  9
$DIMTOL
 70
     0
  9
$DIMLIM
 70
     0
  9
$DIMTIH
 70
     1
  9
$DIMTOH
 70
     1
  9
$DIMSE1
 70
     0
  9
$DIMSE2
 70
     0
  9
$DIMTAD
 70
     0
  9
$DIMZIN
 70
     0
  9
$DIMBLK
  1

  9
$DIMASO
 70
     1
  9
$DIMSHO
 70
     1
  9
$DIMPOST
  1

  9
$DIMAPOST
  1

  9
$DIMALT
 70
     0
  9
$DIMALTD
 70
     2
  9
$DIMALTF
 40
25.4
  9
$DIMLFAC
 40
1.0
  9
$DIMTOFL
 70
     0
  9
$DIMTVP
 40
0.0
  9
$DIMTIX
 70
     0
  9
$DIMSOXD
 70
     0
  9
$DIMSAH
 70
     0
  9
$DIMBLK1
  1

  9
$DIMBLK2
  1

  9
$DIMSTYLE
  2
STANDARD
  9
$DIMCLRD
 70
     0
  9
$DIMCLRE
 70
     0
  9
$DIMCLRT
 70
     0
  9
$DIMTFAC
 40
1.0
  9
$DIMGAP
 40
0.09
  9
$DIMJUST
 70
     0
  9
$DIMSD1
 70
     0
  9
$DIMSD2
 70
     0
  9
$DIMTOLJ
 70
     1
  9
$DIMTZIN
 70
     0
  9
$DIMALTZ
 70
     0
  9
$DIMALTTZ
 70
     0
  9
$DIMFIT
 70
     3
  9
$DIMUPT
 70
     0
  9
$DIMUNIT
 70
     2
  9
$DIMDEC
 70
     4
  9
$DIMTDEC
 70
     4
  9
$DIMALTU
 70
     2
  9
$DIMALTTD
 70
     2
  9
$DIMTXSTY
  7
STANDARD
  9
$DIMAUNIT
 70
     0
  9
$LUNITS
 70
     2
  9
$LUPREC
 70
     4
  9
$SKETCHINC
 40
0.1
  9
$FILLETRAD
 40
0.0
  9
$AUNITS
 70
     0
  9
$AUPREC
 70
     0
  9
$MENU
  1
acad
  9
$ELEVATION
 40
0.0
  9
$PELEVATION
 40
0.0
  9
$THICKNESS
 40
0.0
  9
$LIMCHECK
 70
     0
  9
$BLIPMODE
 70
     1
  9
$CHAMFERA
 40
0.0
  9
$CHAMFERB
 40
0.0
  9
$CHAMFERC
 40
0.0
  9
$CHAMFERD
 40
0.0
  9
$SKPOLY
 70
     0
  9
$TDCREATE
 40
2453620.400547697
  9
$TDUPDATE
 40
2453620.400547697
  9
$TDINDWG
 40
0.0000000000
  9
$TDUSRTIMER
 40
0.0000000000
  9
$USRTIMER
 70
     1
  9
$ANGBASE
 50
0.0
  9
$ANGDIR
 70
     0
  9
$PDMODE
 70
     0
  9
$PDSIZE
 40
0.0
  9
$PLINEWID
 40
0.0
  9
$COORDS
 70
     1
  9
$SPLFRAME
 70
     0
  9
$SPLINETYPE
 70
     6
  9
$SPLINESEGS
 70
     8
  9
$ATTDIA
 70
     0
  9
$ATTREQ
 70
     1
  9
$HANDLING
 70
     1
  9
$HANDSEED
  5
4C3
  9
$SURFTAB1
 70
     6
  9
$SURFTAB2
 70
     6
  9
$SURFTYPE
 70
     6
  9
$SURFU
 70
     6
  9
$SURFV
 70
     6
  9
$UCSNAME
  2

  9
$UCSORG
 10
0.0
 20
0.0
 30
0.0
  9
$UCSXDIR
 10
1.0
 20
0.0
 30
0.0
  9
$UCSYDIR
 10
0.0
 20
1.0
 30
0.0
  9
$PUCSNAME
  2

  9
$PUCSORG
 10
0.0
 20
0.0
 30
0.0
  9
$PUCSXDIR
 10
1.0
 20
0.0
 30
0.0
  9
$PUCSYDIR
 10
0.0
 20
1.0
 30
0.0
  9
$USERI1
 70
     0
  9
$USERI2
 70
     0
  9
$USERI3
 70
     0
  9
$USERI4
 70
     0
  9
$USERI5
 70
     0
  9
$USERR1
 40
0.0
  9
$USERR2
 40
0.0
  9
$USERR3
 40
0.0
  9
$USERR4
 40
0.0
  9
$USERR5
 40
0.0
  9
$WORLDVIEW
 70
     1
  9
$SHADEDGE
 70
     3
  9
$SHADEDIF
 70
    70
  9
$TILEMODE
 70
     1
  9
$MAXACTVP
 70
    16
  9
$PINSBASE
 10
0.0
 20
0.0
 30
0.0
  9
$PLIMCHECK
 70
     0
  9
$PEXTMIN
 10
1.000000E+20
 20
1.000000E+20
 30
1.000000E+20
  9
$PEXTMAX
 10
-1.000000E+20
 20
-1.000000E+20
 30
-1.000000E+20
  9
$PLIMMIN
 10
0.0
 20
0.0
  9
$PLIMMAX
 10
12.0
 20
9.0
  9
$UNITMODE
 70
     0
  9
$VISRETAIN
 70
     0
  9
$PLINEGEN
 70
     1
  9
$PSLTSCALE
 70
     0
  9
$TREEDEPTH
 70
  3020
  9
$PICKSTYLE
 70
     1
  9
$CMLSTYLE
  2
Standard
  9
$CMLJUST
 70
     0
  9
$CMLSCALE
 40
1.0
  9
$PROXYGRAPHICS
 70
     0
  9
$MEASUREMENT
 70
     0
  0
ENDSEC
  0
SECTION
  2
CLASSES
  0
CLASS
  1
LWPOLYLINE
  2
AcDbPolyline
  3
"AutoCAD"
 90
        0
280
     0
281
     1
  0
CLASS
  1
IMAGE
  2
AcDbRasterImage
  3
ISM
 90
      127
280
     0
281
     1
  0
CLASS
  1
OLE2FRAME
  2
AcDbOle2Frame
  3
""
 90
        0
280
     0
281
     1
  0
CLASS
  1
HATCH
  2
AcDbHatch
  3
"ACAD_SEDONA"
 90
        0
280
     0
281
     1
  0
CLASS
  1
DICTIONARYVAR
  2
AcDbDictionaryVar
  3
"AutoCAD"
 90
        0
280
     0
281
     0
  0
CLASS
  1
RASTERVARIABLES
  2
AcDbRasterVariables
  3
ISM
 90
        0
280
     0
281
     0
  0
CLASS
  1
IMAGEDEF
  2
AcDbRasterImageDef
  3
ISM
 90
        0
280
     0
281
     0
  0
CLASS
  1
IMAGEDEF_REACTOR
  2
AcDbRasterImageDefReactor
  3
ISM
 90
        1
280
     0
281
     0
  0
CLASS
  1
IDBUFFER
  2
AcDbIdBuffer
  3
"Acad"
 90
        0
280
     0
281
     0
  0
CLASS
  1
SPATIAL_FILTER
  2
AcDbSpatialFilter
  3
"Acad"
 90
        0
280
     0
281
     0
  0
CLASS
  1
XRECORD
  2
AcDbXrecord
  3
"<Built In>"
 90
        0
280
     0
281
     0
  0
CLASS
  1
SORTENTSTABLE
  2
AcDbSortentsTable
  3
"AutoCAD"
 90
        0
280
     0
281
     0
  0
CLASS
  1
LAYER_INDEX
  2
AcDbLayerIndex
  3
"Acad"
 90
        0
280
     0
281
     0
  0
CLASS
  1
SPATIAL_INDEX
  2
AcDbSpatialIndex
  3
"Acad"
 90
        0
280
     0
281
     0
  0
CLASS
  1
OBJECT_PTR
  2
CAseDLPNTableRecord
  3
"ASE-LPNTableRecord"
 90
        1
280
     0
281
     0
  0
CLASS
  1
LAYOUT
  2
AcDbLayout
  3
"AutoCAD 2000"
 90
        1
280
     0
281
     0
  0
CLASS
  1
PLOTSETTINGS
  2
AcDbPlotSettings
  3
"AutoCAD 2000"
 90
        1
280
     0
281
     0
  0
CLASS
  1
ACDBDICTIONARYWDFLT
  2
AcDbDictionaryWithDefault
  3
"AutoCAD 2000"
 90
        1
280
     0
281
     0
  0
CLASS
  1
ACDBPLACEHOLDER
  2
AcDbPlaceHolder
  3
"AutoCAD 2000"
 90
        1
280
     0
281
     0
  0
CLASS
  1
VBA_PROJECT
  2
AcDbVbaProject
  3
"acadvba"
 90
        1
280
     0
281
     0
  0
CLASS
  1
WIPEOUT
  2
AcDbWipeout
  3
WipeOut|AutoCAD Express Tool|expresstools@autodesk.com
 90
      127
280
     0
281
     1
  0
CLASS
  1
WIPEOUTVARIABLES
  2
AcDbWipeoutVariables
  3
WipeOut|AutoCAD Express Tool|expresstools@autodesk.com
 90
        0
280
     0
281
     0
  0
CLASS
  1
RTEXT
  2
RText
  3
RText|AutoCAD Express Tool|expresstools@autodesk.com
 90
        0
280
     0
281
     1
  0
CLASS
  1
ARCALIGNEDTEXT
  2
AcDbArcAlignedText
  3
ATEXT|AutoCAD Express Tool|expresstools@autodesk.com
 90
        0
280
     0
281
     1
  0
ENDSEC
  0
SECTION
  2
TABLES
  0
TABLE
  2
VPORT
  5
7
100
AcDbSymbolTable
 70
     1
  0
VPORT
  5
15
100
AcDbSymbolTableRecord
100
AcDbViewportTableRecord
  2
*ACTIVE
 70
     0
 10
0.0
 20
0.0
 11
1.0
 21
1.0
 12
260.500032
 22
148.225
 13
0.0
 23
0.0
 14
1.0
 24
1.0
 15
0.0
 25
0.0
 16
0.0
 26
0.0
 36
1.0
 17
0.0
 27
0.0
 37
0.0
 40
297.65
 41
1.722533
 42
50.0
 43
0.0
 44
0.0
 50
0.0
 51
0.0
 71
     0
 72
   100
 73
     1
 74
     1
 75
     0
 76
     0
 77
     0
 78
     0
  0
ENDTAB
  0
TABLE
  2
LTYPE
  5
4
100
AcDbSymbolTable
 70
     9
  0
LTYPE
  5
11
100
AcDbSymbolTableRecord
100
AcDbLinetypeTableRecord
  2
BYBLOCK
 70
    64
  3

 72
    65
 73
     0
 40
0.0
  0
LTYPE
  5
12
100
AcDbSymbolTableRecord
100
AcDbLinetypeTableRecord
  2
BYLAYER
 70
    64
  3

 72
    65
 73
     0
 40
0.0
  0
LTYPE
  5
13
100
AcDbSymbolTableRecord
100
AcDbLinetypeTableRecord
  2
CONTINUOUS
 70
    64
  3
実線
 72
    65
 73
     0
 40
0.0
  0
LTYPE
  5
1D
100
AcDbSymbolTableRecord
100
AcDbLinetypeTableRecord
  2
EXLTYPE1
 70
    64
  3
破線
 72
    65
 73
     2
 40
4.0
 49
3.0
 74
     0
 49
-1.0
 74
     0
  0
LTYPE
  5
1E
100
AcDbSymbolTableRecord
100
AcDbLinetypeTableRecord
  2
EXLTYPE2
 70
    64
  3
破線2
 72
    65
 73
     2
 40
2.0
 49
1.0
 74
     0
 49
-1.0
 74
     0
  0
LTYPE
  5
1F
100
AcDbSymbolTableRecord
100
AcDbLinetypeTableRecord
  2
EXLTYPE3
 70
    64
  3
一点鎖線
 72
    65
 73
     4
 40
33.0
 49
30.0
 74
     0
 49
-1.0
 74
     0
 49
1.0
 74
     0
 49
-1.0
 74
     0
  0
LTYPE
  5
20
100
AcDbSymbolTableRecord
100
AcDbLinetypeTableRecord
  2
EXLTYPE4
 70
    64
  3
二点鎖線
 72
    65
 73
     6
 40
35.0
 49
30.0
 74
     0
 49
-1.0
 74
     0
 49
1.0
 74
     0
 49
-1.0
 74
     0
 49
1.0
 74
     0
 49
-1.0
 74
     0
  0
LTYPE
  5
21
100
AcDbSymbolTableRecord
100
AcDbLinetypeTableRecord
  2
EXLTYPE5
 70
    64
  3
三点鎖線
 72
    65
 73
     8
 40
37.0
 49
30.0
 74
     0
 49
-1.0
 74
     0
 49
1.0
 74
     0
 49
-1.0
 74
     0
 49
1.0
 74
     0
 49
-1.0
 74
     0
 49
1.0
 74
     0
 49
-1.0
 74
     0
  0
LTYPE
  5
22
100
AcDbSymbolTableRecord
100
AcDbLinetypeTableRecord
  2
EXLTYPE6
 70
    64
  3
四点鎖線
 72
    65
 73
    10
 40
39.0
 49
30.0
 74
     0
 49
-1.0
 74
     0
 49
1.0
 74
     0
 49
-1.0
 74
     0
 49
1.0
 74
     0
 49
-1.0
 74
     0
 49
1.0
 74
     0
 49
-1.0
 74
     0
 49
1.0
 74
     0
 49
-1.0
 74
     0
  0
ENDTAB
  0
TABLE
  2
LAYER
  5
2
100
AcDbSymbolTable
 70
     9
  0
LAYER
  5
14
100
AcDbSymbolTableRecord
100
AcDbLayerTableRecord
  2
0
 70
     0
 62
     7
  6
CONTINUOUS
  0
LAYER
  5
25
100
AcDbSymbolTableRecord
100
AcDbLayerTableRecord
  2
LAY-1
 70
    64
 62
     7
  6
CONTINUOUS
  0
LAYER
  5
26
100
AcDbSymbolTableRecord
100
AcDbLayerTableRecord
  2
LAY-2
 70
    64
 62
     7
  6
CONTINUOUS
  0
LAYER
  5
27
100
AcDbSymbolTableRecord
100
AcDbLayerTableRecord
  2
LAY-3
 70
    64
 62
     7
  6
CONTINUOUS
  0
LAYER
  5
28
100
AcDbSymbolTableRecord
100
AcDbLayerTableRecord
  2
LAY-4
 70
    64
 62
     7
  6
CONTINUOUS
  0
LAYER
  5
29
100
AcDbSymbolTableRecord
100
AcDbLayerTableRecord
  2
LAY-5
 70
    64
 62
     7
  6
CONTINUOUS
  0
LAYER
  5
2A
100
AcDbSymbolTableRecord
100
AcDbLayerTableRecord
  2
LAY-6
 70
    64
 62
     7
  6
CONTINUOUS
  0
LAYER
  5
2B
100
AcDbSymbolTableRecord
100
AcDbLayerTableRecord
  2
LAY-7
 70
    64
 62
     7
  6
CONTINUOUS
  0
LAYER
  5
2C
100
AcDbSymbolTableRecord
100
AcDbLayerTableRecord
  2
LAY-8
 70
    64
 62
     7
  6
CONTINUOUS
  0
ENDTAB
  0
TABLE
  2
STYLE
  5
3
100
AcDbSymbolTable
 70
     4
  0
STYLE
  5
17
100
AcDbSymbolTableRecord
100
AcDbTextStyleTableRecord
  2
STANDARD
 70
     0
 40
0.0
 41
1.0
 50
0.0
 71
     0
 42
0.0
  3
monotxt
  4
extfont
  0
STYLE
  5
23
100
AcDbSymbolTableRecord
100
AcDbTextStyleTableRecord
  2
EXCADSTD
 70
    64
 40
0.0
 41
1.0
 50
0.0
 71
     0
 42
0.2
  3
monotxt
  4
extfont
  0
STYLE
  5
24
100
AcDbSymbolTableRecord
100
AcDbTextStyleTableRecord
  2
EXCADVERT
 70
    68
 40
0.0
 41
1.0
 50
0.0
 71
     0
 42
0.286885
  3
monotxt
  4
extfont
  0
STYLE
  5
4C1
100
AcDbSymbolTableRecord
100
AcDbTextStyleTableRecord
  2
EXCADTTF1
 70
    64
 40
0.0
 41
1.0
 50
0.0
 71
     0
 42
0.2
  3
MS Gothic.ttf
  4

1001
ACAD
1000
MS Gothic
1071
    32817
  0
ENDTAB
  0
TABLE
  2
VIEW
  5
5
100
AcDbSymbolTable
 70
     0
  0
ENDTAB
  0
TABLE
  2
UCS
  5
6
100
AcDbSymbolTable
 70
     0
  0
ENDTAB
  0
TABLE
  2
APPID
  5
8
100
AcDbSymbolTable
 70
     1
  0
APPID
  5
16
100
AcDbSymbolTableRecord
100
AcDbRegAppTableRecord
  2
ACAD
 70
     0
  0
ENDTAB
  0
TABLE
  2
DIMSTYLE
  5
9
100
AcDbSymbolTable
 70
     1
  0
DIMSTYLE
105
18
100
AcDbSymbolTableRecord
100
AcDbDimStyleTableRecord
  2
STANDARD
 70
     0
  3

  4

  5

  6

  7

 40
1.0
 41
0.18
 42
0.0625
 43
0.38
 44
0.18
 45
0.0
 46
0.0
 47
0.0
 48
0.0
 71
     0
 72
     0
 73
     1
 74
     1
 75
     0
 76
     0
 77
     0
 78
     0
140
0.18
141
0.09
142
0.0
143
25.4
144
1.0
145
0.0
146
1.0
147
0.09
170
     0
171
     2
172
     0
173
     0
174
     0
175
     0
176
     0
177
     0
178
     0
270
     2
271
     4
272
     4
273
     2
274
     2
275
     0
280
     0
281
     0
282
     0
283
     1
284
     0
285
     0
286
     0
287
     0
288
     0
340
17
  0
ENDTAB
  0
TABLE
  2
BLOCK_RECORD
  5
1
100
AcDbSymbolTable
 70
    14
  0
BLOCK_RECORD
  5
A
100
AcDbSymbolTableRecord
100
AcDbBlockTableRecord
  2
*MODEL_SPACE
  0
BLOCK_RECORD
  5
B
100
AcDbSymbolTableRecord
100
AcDbBlockTableRecord
  2
*PAPER_SPACE
  0
BLOCK_RECORD
  5
2D
100
AcDbSymbolTableRecord
100
AcDbBlockTableRecord
  2
_EX_NORM
  0
BLOCK_RECORD
  5
2E
100
AcDbSymbolTableRecord
100
AcDbBlockTableRecord
  2
_EX_BNORM
  0
BLOCK_RECORD
  5
2F
100
AcDbSymbolTableRecord
100
AcDbBlockTableRecord
  2
_EX_BCIR
  0
BLOCK_RECORD
  5
30
100
AcDbSymbolTableRecord
100
AcDbBlockTableRecord
  2
_EX_RCIVIL
  0
BLOCK_RECORD
  5
31
100
AcDbSymbolTableRecord
100
AcDbBlockTableRecord
  2
_EX_SLANT
  0
BLOCK_RECORD
  5
32
100
AcDbSymbolTableRecord
100
AcDbBlockTableRecord
  2
_EX_NONE
  0
BLOCK_RECORD
  5
33
100
AcDbSymbolTableRecord
100
AcDbBlockTableRecord
  2
_EX_CIVIL
  0
BLOCK_RECORD
  5
34
100
AcDbSymbolTableRecord
100
AcDbBlockTableRecord
  2
_EX_WCIR
  0
BLOCK_RECORD
  5
35
100
AcDbSymbolTableRecord
100
AcDbBlockTableRecord
  2
_EX_WCIR2
  0
BLOCK_RECORD
  5
36
100
AcDbSymbolTableRecord
100
AcDbBlockTableRecord
  2
_EX_WNORM
  0
BLOCK_RECORD
  5
37
100
AcDbSymbolTableRecord
100
AcDbBlockTableRecord
  2
_EX_NNORM
  0
BLOCK_RECORD
  5
38
100
AcDbSymbolTableRecord
100
AcDbBlockTableRecord
  2
_EX_BBOX
  0
BLOCK_RECORD
  5
39
100
AcDbSymbolTableRecord
100
AcDbBlockTableRecord
  2
_EX_WBOX
  0
BLOCK_RECORD
  5
3A
100
AcDbSymbolTableRecord
100
AcDbBlockTableRecord
  2
_EX_INTEGRAL
  0
ENDTAB
  0
ENDSEC
  0
SECTION
  2
BLOCKS
  0
BLOCK
  5
D
100
AcDbEntity
  8
0
100
AcDbBlockBegin
  2
*MODEL_SPACE
 70
     0
 10
0.0
 20
0.0
 30
0.0
  3
*MODEL_SPACE
  1

  0
ENDBLK
  5
E
100
AcDbEntity
  8
0
100
AcDbBlockEnd
  0
BLOCK
  5
F
100
AcDbEntity
 67
     1
  8
0
100
AcDbBlockBegin
  2
*PAPER_SPACE
 70
     0
 10
0.0
 20
0.0
 30
0.0
  3
*PAPER_SPACE
  1

  0
ENDBLK
  5
10
100
AcDbEntity
 67
     1
  8
0
100
AcDbBlockEnd
  0
BLOCK
  5
3B
100
AcDbEntity
  8
0
100
AcDbBlockBegin
  2
_EX_NORM
 70
     0
 10
0.0
 20
0.0
 30
0.0
  3
_EX_NORM
  1

  0
LINE
  5
3C
100
AcDbEntity
  8
0
  6
CONTINUOUS
 62
     0
100
AcDbLine
 10
0.0
 20
0.0
 30
0.0
 11
-1.0
 21
0.0
 31
0.0
  0
LINE
  5
3D
100
AcDbEntity
  8
0
  6
CONTINUOUS
 62
     0
100
AcDbLine
 10
0.0
 20
0.0
 30
0.0
 11
-1.0
 21
0.166667
 31
0.0
  0
LINE
  5
3E
100
AcDbEntity
  8
0
  6
CONTINUOUS
 62
     0
100
AcDbLine
 10
0.0
 20
0.0
 30
0.0
 11
-1.0
 21
-0.166667
 31
0.0
  0
ENDBLK
  5
3F
100
AcDbEntity
  8
0
100
AcDbBlockEnd
  0
BLOCK
  5
40
100
AcDbEntity
  8
0
100
AcDbBlockBegin
  2
_EX_BNORM
 70
     0
 10
0.0
 20
0.0
 30
0.0
  3
_EX_BNORM
  1

  0
LINE
  5
41
100
AcDbEntity
  8
0
  6
CONTINUOUS
 62
     0
100
AcDbLine
 10
0.0
 20
0.0
 30
0.0
 11
-1.0
 21
0.0
 31
0.0
  0
LINE
  5
42
100
AcDbEntity
  8
0
  6
CONTINUOUS
 62
     0
100
AcDbLine
 10
0.0
 20
0.0
 30
0.0
 11
-1.0
 21
0.166667
 31
0.0
  0
LINE
  5
43
100
AcDbEntity
  8
0
  6
CONTINUOUS
 62
     0
100
AcDbLine
 10
0.0
 20
0.0
 30
0.0
 11
-1.0
 21
-0.166667
 31
0.0
  0
LINE
  5
44
100
AcDbEntity
  8
0
  6
CONTINUOUS
 62
     0
100
AcDbLine
 10
0.0
 20
0.0
 30
0.0
 11
-1.0
 21
0.083333
 31
0.0
  0
LINE
  5
45
100
AcDbEntity
  8
0
  6
CONTINUOUS
 62
     0
100
AcDbLine
 10
0.0
 20
0.0
 30
0.0
 11
-1.0
 21
-0.083333
 31
0.0
  0
LINE
  5
46
100
AcDbEntity
  8
0
  6
CONTINUOUS
 62
     0
100
AcDbLine
 10
-1.0
 20
0.166667
 30
0.0
 11
-1.0
 21
-0.166667
 31
0.0
  0
ENDBLK
  5
47
100
AcDbEntity
  8
0
100
AcDbBlockEnd
  0
BLOCK
  5
48
100
AcDbEntity
  8
0
100
AcDbBlockBegin
  2
_EX_BCIR
 70
     0
 10
0.0
 20
0.0
 30
0.0
  3
_EX_BCIR
  1

  0
LINE
  5
49
100
AcDbEntity
  8
0
  6
CONTINUOUS
 62
     0
100
AcDbLine
 10
0.0
 20
0.0
 30
0.0
 11
-1.0
 21
0.0
 31
0.0
  0
CIRCLE
  5
4A
100
AcDbEntity
  8
0
  6
CONTINUOUS
 62
     0
100
AcDbCircle
 10
0.0
 20
0.0
 30
0.0
 40
0.5
  0
CIRCLE
  5
4B
100
AcDbEntity
  8
0
  6
CONTINUOUS
 62
     0
100
AcDbCircle
 10
0.0
 20
0.0
 30
0.0
 40
0.25
  0
ENDBLK
  5
4C
100
AcDbEntity
  8
0
100
AcDbBlockEnd
  0
BLOCK
  5
4D
100
AcDbEntity
  8
0
100
AcDbBlockBegin
  2
_EX_RCIVIL
 70
     0
 10
0.0
 20
0.0
 30
0.0
  3
_EX_RCIVIL
  1

  0
LINE
  5
4E
100
AcDbEntity
  8
0
  6
CONTINUOUS
 62
     0
100
AcDbLine
 10
0.0
 20
0.0
 30
0.0
 11
-1.0
 21
0.0
 31
0.0
  0
LINE
  5
4F
100
AcDbEntity
  8
0
  6
CONTINUOUS
 62
     0
100
AcDbLine
 10
-1.0
 20
-0.25
 30
0.0
 11
0.0
 21
-0.25
 31
0.0
  0
LINE
  5
50
100
AcDbEntity
  8
0
  6
CONTINUOUS
 62
     0
100
AcDbLine
 10
-1.0
 20
-0.125
 30
0.0
 11
0.0
 21
-0.125
 31
0.0
  0
ENDBLK
  5
51
100
AcDbEntity
  8
0
100
AcDbBlockEnd
  0
BLOCK
  5
52
100
AcDbEntity
  8
0
100
AcDbBlockBegin
  2
_EX_SLANT
 70
     0
 10
0.0
 20
0.0
 30
0.0
  3
_EX_SLANT
  1

  0
LINE
  5
53
100
AcDbEntity
  8
0
  6
CONTINUOUS
 62
     0
100
AcDbLine
 10
0.0
 20
0.0
 30
0.0
 11
-1.0
 21
0.0
 31
0.0
  0
LINE
  5
54
100
AcDbEntity
  8
0
  6
CONTINUOUS
 62
     0
100
AcDbLine
 10
0.707107
 20
0.707107
 30
0.0
 11
-0.707107
 21
-0.707107
 31
0.0
  0
ENDBLK
  5
55
100
AcDbEntity
  8
0
100
AcDbBlockEnd
  0
BLOCK
  5
56
100
AcDbEntity
  8
0
100
AcDbBlockBegin
  2
_EX_NONE
 70
     0
 10
0.0
 20
0.0
 30
0.0
  3
_EX_NONE
  1

  0
LINE
  5
57
100
AcDbEntity
  8
0
  6
CONTINUOUS
 62
     0
100
AcDbLine
 10
0.0
 20
0.0
 30
0.0
 11
-1.0
 21
0.0
 31
0.0
  0
ENDBLK
  5
58
100
AcDbEntity
  8
0
100
AcDbBlockEnd
  0
BLOCK
  5
59
100
AcDbEntity
  8
0
100
AcDbBlockBegin
  2
_EX_CIVIL
 70
     0
 10
0.0
 20
0.0
 30
0.0
  3
_EX_CIVIL
  1

  0
LINE
  5
5A
100
AcDbEntity
  8
0
  6
CONTINUOUS
 62
     0
100
AcDbLine
 10
0.0
 20
0.0
 30
0.0
 11
-1.0
 21
0.0
 31
0.0
  0
LINE
  5
5B
100
AcDbEntity
  8
0
  6
CONTINUOUS
 62
     0
100
AcDbLine
 10
-1.0
 20
0.25
 30
0.0
 11
0.0
 21
0.25
 31
0.0
  0
LINE
  5
5C
100
AcDbEntity
  8
0
  6
CONTINUOUS
 62
     0
100
AcDbLine
 10
-1.0
 20
0.125
 30
0.0
 11
0.0
 21
0.125
 31
0.0
  0
ENDBLK
  5
5D
100
AcDbEntity
  8
0
100
AcDbBlockEnd
  0
BLOCK
  5
5E
100
AcDbEntity
  8
0
100
AcDbBlockBegin
  2
_EX_WCIR
 70
     0
 10
0.0
 20
0.0
 30
0.0
  3
_EX_WCIR
  1

  0
LINE
  5
5F
100
AcDbEntity
  8
0
  6
CONTINUOUS
 62
     0
100
AcDbLine
 10
0.0
 20
0.0
 30
0.0
 11
-1.0
 21
0.0
 31
0.0
  0
CIRCLE
  5
60
100
AcDbEntity
  8
0
  6
CONTINUOUS
 62
     0
100
AcDbCircle
 10
0.0
 20
0.0
 30
0.0
 40
0.5
  0
ENDBLK
  5
61
100
AcDbEntity
  8
0
100
AcDbBlockEnd
  0
BLOCK
  5
62
100
AcDbEntity
  8
0
100
AcDbBlockBegin
  2
_EX_WCIR2
 70
     0
 10
0.0
 20
0.0
 30
0.0
  3
_EX_WCIR2
  1

  0
LINE
  5
63
100
AcDbEntity
  8
0
  6
CONTINUOUS
 62
     0
100
AcDbLine
 10
-0.5
 20
0.0
 30
0.0
 11
-1.0
 21
0.0
 31
0.0
  0
CIRCLE
  5
64
100
AcDbEntity
  8
0
  6
CONTINUOUS
 62
     0
100
AcDbCircle
 10
0.0
 20
0.0
 30
0.0
 40
0.5
  0
ENDBLK
  5
65
100
AcDbEntity
  8
0
100
AcDbBlockEnd
  0
BLOCK
  5
66
100
AcDbEntity
  8
0
100
AcDbBlockBegin
  2
_EX_WNORM
 70
     0
 10
0.0
 20
0.0
 30
0.0
  3
_EX_WNORM
  1

  0
LINE
  5
67
100
AcDbEntity
  8
0
  6
CONTINUOUS
 62
     0
100
AcDbLine
 10
-1.0
 20
0.0
 30
0.0
 11
-1.0
 21
0.0
 31
0.0
  0
LINE
  5
68
100
AcDbEntity
  8
0
  6
CONTINUOUS
 62
     0
100
AcDbLine
 10
0.0
 20
0.0
 30
0.0
 11
-1.0
 21
0.166667
 31
0.0
  0
LINE
  5
69
100
AcDbEntity
  8
0
  6
CONTINUOUS
 62
     0
100
AcDbLine
 10
0.0
 20
0.0
 30
0.0
 11
-1.0
 21
-0.166667
 31
0.0
  0
LINE
  5
6A
100
AcDbEntity
  8
0
  6
CONTINUOUS
 62
     0
100
AcDbLine
 10
-1.0
 20
0.166667
 30
0.0
 11
-1.0
 21
-0.166667
 31
0.0
  0
ENDBLK
  5
6B
100
AcDbEntity
  8
0
100
AcDbBlockEnd
  0
BLOCK
  5
6C
100
AcDbEntity
  8
0
100
AcDbBlockBegin
  2
_EX_NNORM
 70
     0
 10
0.0
 20
0.0
 30
0.0
  3
_EX_NNORM
  1

  0
LINE
  5
6D
100
AcDbEntity
  8
0
  6
CONTINUOUS
 62
     0
100
AcDbLine
 10
0.0
 20
0.0
 30
0.0
 11
-1.0
 21
0.0
 31
0.0
  0
LINE
  5
6E
100
AcDbEntity
  8
0
  6
CONTINUOUS
 62
     0
100
AcDbLine
 10
0.0
 20
0.0
 30
0.0
 11
-1.0
 21
0.166667
 31
0.0
  0
LINE
  5
6F
100
AcDbEntity
  8
0
  6
CONTINUOUS
 62
     0
100
AcDbLine
 10
0.0
 20
0.0
 30
0.0
 11
-1.0
 21
-0.166667
 31
0.0
  0
LINE
  5
70
100
AcDbEntity
  8
0
  6
CONTINUOUS
 62
     0
100
AcDbLine
 10
-1.0
 20
0.166667
 30
0.0
 11
-1.0
 21
-0.166667
 31
0.0
  0
ENDBLK
  5
71
100
AcDbEntity
  8
0
100
AcDbBlockEnd
  0
BLOCK
  5
72
100
AcDbEntity
  8
0
100
AcDbBlockBegin
  2
_EX_BBOX
 70
     0
 10
0.0
 20
0.0
 30
0.0
  3
_EX_BBOX
  1

  0
LINE
  5
73
100
AcDbEntity
  8
0
  6
CONTINUOUS
 62
     0
100
AcDbLine
 10
0.0
 20
0.0
 30
0.0
 11
-1.0
 21
0.0
 31
0.0
  0
LINE
  5
74
100
AcDbEntity
  8
0
  6
CONTINUOUS
 62
     0
100
AcDbLine
 10
-0.5
 20
0.5
 30
0.0
 11
0.5
 21
0.5
 31
0.0
  0
LINE
  5
75
100
AcDbEntity
  8
0
  6
CONTINUOUS
 62
     0
100
AcDbLine
 10
0.5
 20
0.5
 30
0.0
 11
0.5
 21
-0.5
 31
0.0
  0
LINE
  5
76
100
AcDbEntity
  8
0
  6
CONTINUOUS
 62
     0
100
AcDbLine
 10
0.5
 20
-0.5
 30
0.0
 11
-0.5
 21
-0.5
 31
0.0
  0
LINE
  5
77
100
AcDbEntity
  8
0
  6
CONTINUOUS
 62
     0
100
AcDbLine
 10
-0.5
 20
-0.5
 30
0.0
 11
-0.5
 21
0.5
 31
0.0
  0
LINE
  5
78
100
AcDbEntity
  8
0
  6
CONTINUOUS
 62
     0
100
AcDbLine
 10
-0.25
 20
0.25
 30
0.0
 11
0.25
 21
0.25
 31
0.0
  0
LINE
  5
79
100
AcDbEntity
  8
0
  6
CONTINUOUS
 62
     0
100
AcDbLine
 10
0.25
 20
0.25
 30
0.0
 11
0.25
 21
-0.25
 31
0.0
  0
LINE
  5
7A
100
AcDbEntity
  8
0
  6
CONTINUOUS
 62
     0
100
AcDbLine
 10
0.25
 20
-0.25
 30
0.0
 11
-0.25
 21
-0.25
 31
0.0
  0
LINE
  5
7B
100
AcDbEntity
  8
0
  6
CONTINUOUS
 62
     0
100
AcDbLine
 10
-0.25
 20
-0.25
 30
0.0
 11
-0.25
 21
0.25
 31
0.0
  0
ENDBLK
  5
7C
100
AcDbEntity
  8
0
100
AcDbBlockEnd
  0
BLOCK
  5
7D
100
AcDbEntity
  8
0
100
AcDbBlockBegin
  2
_EX_WBOX
 70
     0
 10
0.0
 20
0.0
 30
0.0
  3
_EX_WBOX
  1

  0
LINE
  5
7E
100
AcDbEntity
  8
0
  6
CONTINUOUS
 62
     0
100
AcDbLine
 10
-0.5
 20
0.0
 30
0.0
 11
-1.0
 21
0.0
 31
0.0
  0
LINE
  5
7F
100
AcDbEntity
  8
0
  6
CONTINUOUS
 62
     0
100
AcDbLine
 10
-0.5
 20
0.5
 30
0.0
 11
0.5
 21
0.5
 31
0.0
  0
LINE
  5
80
100
AcDbEntity
  8
0
  6
CONTINUOUS
 62
     0
100
AcDbLine
 10
0.5
 20
0.5
 30
0.0
 11
0.5
 21
-0.5
 31
0.0
  0
LINE
  5
81
100
AcDbEntity
  8
0
  6
CONTINUOUS
 62
     0
100
AcDbLine
 10
0.5
 20
-0.5
 30
0.0
 11
-0.5
 21
-0.5
 31
0.0
  0
LINE
  5
82
100
AcDbEntity
  8
0
  6
CONTINUOUS
 62
     0
100
AcDbLine
 10
-0.5
 20
-0.5
 30
0.0
 11
-0.5
 21
0.5
 31
0.0
  0
ENDBLK
  5
83
100
AcDbEntity
  8
0
100
AcDbBlockEnd
  0
BLOCK
  5
84
100
AcDbEntity
  8
0
100
AcDbBlockBegin
  2
_EX_INTEGRAL
 70
     0
 10
0.0
 20
0.0
 30
0.0
  3
_EX_INTEGRAL
  1

  0
LINE
  5
85
100
AcDbEntity
  8
0
  6
CONTINUOUS
 62
     0
100
AcDbLine
 10
0.0
 20
0.0
 30
0.0
 11
-1.0
 21
0.0
 31
0.0
  0
ARC
  5
86
100
AcDbEntity
  8
0
  6
CONTINUOUS
 62
     0
100
AcDbCircle
 10
0.0
 20
0.0
 30
0.0
 40
0.707107
100
AcDbArc
 50
90.0
 51
180.0
  0
ARC
  5
87
100
AcDbEntity
  8
0
  6
CONTINUOUS
 62
     0
100
AcDbCircle
 10
0.0
 20
0.0
 30
0.0
 40
0.707107
100
AcDbArc
 50
270.0
 51
0.0
  0
ENDBLK
  5
88
100
AcDbEntity
  8
0
100
AcDbBlockEnd
  0
ENDSEC
  0
SECTION
  2
ENTITIES
  0
LINE
  5
89
100
AcDbEntity
  8
LAY-3
  6
EXLTYPE3
 62
     1
100
AcDbLine
 10
256.336429
 20
194.65
 30
0.0
 11
302.596429
 21
194.65
 31
0.0
  0
LINE
  5
8A
100
AcDbEntity
  8
LAY-3
  6
CONTINUOUS
 62
     3
100
AcDbLine
 10
296.291429
 20
193.2
 30
0.0
 11
296.296429
 21
193.2
 31
0.0
  0
LINE
  5
8B
100
AcDbEntity
  8
LAY-3
  6
CONTINUOUS
 62
     3
100
AcDbLine
 10
296.291429
 20
196.1
 30
0.0
 11
296.296429
 21
196.1
 31
0.0
  0
LINE
  5
8C
100
AcDbEntity
  8
LAY-3
  6
CONTINUOUS
 62
     3
100
AcDbLine
 10
296.291429
 20
192.65
 30
0.0
 11
296.296429
 21
192.65
 31
0.0
  0
LINE
  5
8D
100
AcDbEntity
  8
LAY-3
  6
CONTINUOUS
 62
     3
100
AcDbLine
 10
296.291429
 20
196.65
 30
0.0
 11
296.296429
 21
196.65
 31
0.0
  0
LINE
  5
8E
100
AcDbEntity
  8
LAY-3
  6
CONTINUOUS
 62
     3
100
AcDbLine
 10
296.291429
 20
197.05
 30
0.0
 11
296.296429
 21
197.05
 31
0.0
  0
LINE
  5
8F
100
AcDbEntity
  8
LAY-3
  6
CONTINUOUS
 62
     3
100
AcDbLine
 10
296.291429
 20
192.25
 30
0.0
 11
296.296429
 21
192.25
 31
0.0
  0
LINE
  5
90
100
AcDbEntity
  8
LAY-3
  6
CONTINUOUS
 62
     3
100
AcDbLine
 10
296.291429
 20
191.775
 30
0.0
 11
296.296429
 21
191.775
 31
0.0
  0
LINE
  5
91
100
AcDbEntity
  8
LAY-3
  6
CONTINUOUS
 62
     3
100
AcDbLine
 10
296.291429
 20
197.525
 30
0.0
 11
296.296429
 21
197.525
 31
0.0
  0
LINE
  5
92
100
AcDbEntity
  8
LAY-3
  6
CONTINUOUS
 62
     3
100
AcDbLine
 10
296.291429
 20
199.9
 30
0.0
 11
296.291429
 21
189.4
 31
0.0
  0
LINE
  5
93
100
AcDbEntity
  8
LAY-3
  6
CONTINUOUS
 62
     3
100
AcDbLine
 10
295.391429
 20
199.9
 30
0.0
 11
295.391429
 21
189.4
 31
0.0
  0
LINE
  5
94
100
AcDbEntity
  8
LAY-3
  6
CONTINUOUS
 62
     3
100
AcDbLine
 10
262.296429
 20
199.9
 30
0.0
 11
262.296429
 21
189.4
 31
0.0
  0
LINE
  5
95
100
AcDbEntity
  8
LAY-3
  6
CONTINUOUS
 62
     3
100
AcDbLine
 10
263.196429
 20
199.9
 30
0.0
 11
263.196429
 21
189.4
 31
0.0
  0
LINE
  5
96
100
AcDbEntity
  8
LAY-3
  6
CONTINUOUS
 62
     3
100
AcDbLine
 10
261.796429
 20
198.45
 30
0.0
 11
261.796429
 21
190.85
 31
0.0
  0
LINE
  5
97
100
AcDbEntity
  8
LAY-3
  6
CONTINUOUS
 62
     3
100
AcDbLine
 10
296.291429
 20
191.525
 30
0.0
 11
296.296429
 21
191.525
 31
0.0
  0
LINE
  5
98
100
AcDbEntity
  8
LAY-3
  6
CONTINUOUS
 62
     3
100
AcDbLine
 10
296.796429
 20
198.45
 30
0.0
 11
296.796429
 21
190.85
 31
0.0
  0
LINE
  5
99
100
AcDbEntity
  8
LAY-3
  6
CONTINUOUS
 62
     3
100
AcDbLine
 10
296.291429
 20
197.775
 30
0.0
 11
296.296429
 21
197.775
 31
0.0
  0
LINE
  5
9A
100
AcDbEntity
  8
LAY-3
  6
CONTINUOUS
 62
     3
100
AcDbLine
 10
262.296429
 20
199.9
 30
0.0
 11
263.196429
 21
199.9
 31
0.0
  0
LINE
  5
9B
100
AcDbEntity
  8
LAY-3
  6
CONTINUOUS
 62
     3
100
AcDbLine
 10
262.296429
 20
189.4
 30
0.0
 11
263.196429
 21
189.4
 31
0.0
  0
LINE
  5
9C
100
AcDbEntity
  8
LAY-3
  6
CONTINUOUS
 62
     3
100
AcDbLine
 10
295.391429
 20
189.4
 30
0.0
 11
296.291429
 21
189.4
 31
0.0
  0
LINE
  5
9D
100
AcDbEntity
  8
LAY-3
  6
CONTINUOUS
 62
     3
100
AcDbLine
 10
295.391429
 20
199.9
 30
0.0
 11
296.291429
 21
199.9
 31
0.0
  0
LINE
  5
9E
100
AcDbEntity
  8
LAY-3
  6
CONTINUOUS
 62
     3
100
AcDbLine
 10
263.196429
 20
191.65
 30
0.0
 11
295.391429
 21
191.65
 31
0.0
  0
LINE
  5
9F
100
AcDbEntity
  8
LAY-3
  6
CONTINUOUS
 62
     3
100
AcDbLine
 10
263.196429
 20
197.65
 30
0.0
 11
295.391429
 21
197.65
 31
0.0
  0
ARC
  5
A0
100
AcDbEntity
  8
LAY-3
  6
CONTINUOUS
 62
     3
100
AcDbCircle
 10
296.329957
 20
191.646573
 30
0.0
 40
0.797278
100
AcDbArc
 50
267.589811
 51
272.410189
  0
ARC
  5
A1
100
AcDbEntity
  8
LAY-3
  6
CONTINUOUS
 62
     3
100
AcDbCircle
 10
296.329957
 20
197.653427
 30
0.0
 40
0.797278
100
AcDbArc
 50
87.589811
 51
92.410189
  0
ARC
  5
A2
100
AcDbEntity
  8
LAY-3
  6
CONTINUOUS
 62
     3
100
AcDbCircle
 10
262.2629
 20
197.653427
 30
0.0
 40
0.797278
100
AcDbArc
 50
87.589811
 51
92.410189
  0
ARC
  5
A3
100
AcDbEntity
  8
LAY-3
  6
CONTINUOUS
 62
     3
100
AcDbCircle
 10
262.2629
 20
191.646573
 30
0.0
 40
0.797278
100
AcDbArc
 50
267.589811
 51
272.410189
  0
LINE
  5
A4
100
AcDbEntity
  8
LAY-3
  6
EXLTYPE3
 62
     1
100
AcDbLine
 10
368.089286
 20
194.65
 30
0.0
 11
412.75
 21
194.65
 31
0.0
  0
LINE
  5
A5
100
AcDbEntity
  8
LAY-3
  6
CONTINUOUS
 62
     3
100
AcDbLine
 10
408.329286
 20
193.2
 30
0.0
 11
408.334286
 21
193.2
 31
0.0
  0
LINE
  5
A6
100
AcDbEntity
  8
LAY-3
  6
CONTINUOUS
 62
     3
100
AcDbLine
 10
408.329286
 20
196.1
 30
0.0
 11
408.334286
 21
196.1
 31
0.0
  0
LINE
  5
A7
100
AcDbEntity
  8
LAY-3
  6
CONTINUOUS
 62
     3
100
AcDbLine
 10
408.329286
 20
192.65
 30
0.0
 11
408.334286
 21
192.65
 31
0.0
  0
LINE
  5
A8
100
AcDbEntity
  8
LAY-3
  6
CONTINUOUS
 62
     3
100
AcDbLine
 10
408.329286
 20
196.65
 30
0.0
 11
408.334286
 21
196.65
 31
0.0
  0
LINE
  5
A9
100
AcDbEntity
  8
LAY-3
  6
CONTINUOUS
 62
     3
100
AcDbLine
 10
408.329286
 20
197.05
 30
0.0
 11
408.334286
 21
197.05
 31
0.0
  0
LINE
  5
AA
100
AcDbEntity
  8
LAY-3
  6
CONTINUOUS
 62
     3
100
AcDbLine
 10
408.329286
 20
192.25
 30
0.0
 11
408.334286
 21
192.25
 31
0.0
  0
LINE
  5
AB
100
AcDbEntity
  8
LAY-3
  6
CONTINUOUS
 62
     3
100
AcDbLine
 10
408.329286
 20
191.775
 30
0.0
 11
408.334286
 21
191.775
 31
0.0
  0
LINE
  5
AC
100
AcDbEntity
  8
LAY-3
  6
CONTINUOUS
 62
     3
100
AcDbLine
 10
408.329286
 20
197.525
 30
0.0
 11
408.334286
 21
197.525
 31
0.0
  0
LINE
  5
AD
100
AcDbEntity
  8
LAY-3
  6
CONTINUOUS
 62
     3
100
AcDbLine
 10
408.329286
 20
191.525
 30
0.0
 11
408.334286
 21
191.525
 31
0.0
  0
LINE
  5
AE
100
AcDbEntity
  8
LAY-3
  6
CONTINUOUS
 62
     3
100
AcDbLine
 10
408.329286
 20
197.775
 30
0.0
 11
408.334286
 21
197.775
 31
0.0
  0
LINE
  5
AF
100
AcDbEntity
  8
LAY-3
  6
CONTINUOUS
 62
     3
100
AcDbLine
 10
408.329286
 20
198.45
 30
0.0
 11
408.334286
 21
198.45
 31
0.0
  0
LINE
  5
B0
100
AcDbEntity
  8
LAY-3
  6
CONTINUOUS
 62
     3
100
AcDbLine
 10
408.329286
 20
190.85
 30
0.0
 11
408.334286
 21
190.85
 31
0.0
  0
LINE
  5
B1
100
AcDbEntity
  8
LAY-3
  6
CONTINUOUS
 62
     3
100
AcDbLine
 10
374.334286
 20
200.9
 30
0.0
 11
374.334286
 21
188.4
 31
0.0
  0
LINE
  5
B2
100
AcDbEntity
  8
LAY-3
  6
CONTINUOUS
 62
     3
100
AcDbLine
 10
408.329286
 20
200.9
 30
0.0
 11
407.329286
 21
200.9
 31
0.0
  0
LINE
  5
B3
100
AcDbEntity
  8
LAY-3
  6
CONTINUOUS
 62
     3
100
AcDbLine
 10
407.329286
 20
188.4
 30
0.0
 11
408.329286
 21
188.4
 31
0.0
  0
LINE
  5
B4
100
AcDbEntity
  8
LAY-3
  6
CONTINUOUS
 62
     3
100
AcDbLine
 10
375.334286
 20
188.4
 30
0.0
 11
374.334286
 21
188.4
 31
0.0
  0
LINE
  5
B5
100
AcDbEntity
  8
LAY-3
  6
CONTINUOUS
 62
     3
100
AcDbLine
 10
374.334286
 20
200.9
 30
0.0
 11
375.334286
 21
200.9
 31
0.0
  0
LINE
  5
B6
100
AcDbEntity
  8
LAY-3
  6
CONTINUOUS
 62
     3
100
AcDbLine
 10
375.334286
 20
191.025
 30
0.0
 11
407.329286
 21
191.025
 31
0.0
  0
ARC
  5
B7
100
AcDbEntity
  8
LAY-3
  6
CONTINUOUS
 62
     3
100
AcDbCircle
 10
408.367814
 20
198.403427
 30
0.0
 40
0.797278
100
AcDbArc
 50
87.589811
 51
92.410189
  0
LINE
  5
B8
100
AcDbEntity
  8
LAY-3
  6
CONTINUOUS
 62
     3
100
AcDbLine
 10
408.834286
 20
199.2
 30
0.0
 11
408.834286
 21
190.1
 31
0.0
  0
ARC
  5
B9
100
AcDbEntity
  8
LAY-3
  6
CONTINUOUS
 62
     3
100
AcDbCircle
 10
408.367814
 20
190.896573
 30
0.0
 40
0.797278
100
AcDbArc
 50
267.589811
 51
272.410189
  0
ARC
  5
BA
100
AcDbEntity
  8
LAY-3
  6
CONTINUOUS
 62
     3
100
AcDbCircle
 10
374.300758
 20
190.896573
 30
0.0
 40
0.797278
100
AcDbArc
 50
267.589811
 51
272.410189
  0
LINE
  5
BB
100
AcDbEntity
  8
LAY-3
  6
CONTINUOUS
 62
     3
100
AcDbLine
 10
373.834286
 20
199.2
 30
0.0
 11
373.834286
 21
190.1
 31
0.0
  0
ARC
  5
BC
100
AcDbEntity
  8
LAY-3
  6
CONTINUOUS
 62
     3
100
AcDbCircle
 10
374.300758
 20
198.403427
 30
0.0
 40
0.797278
100
AcDbArc
 50
87.589811
 51
92.410189
  0
LINE
  5
BD
100
AcDbEntity
  8
LAY-3
  6
CONTINUOUS
 62
     3
100
AcDbLine
 10
375.334286
 20
198.275
 30
0.0
 11
407.329286
 21
198.275
 31
0.0
  0
LINE
  5
BE
100
AcDbEntity
  8
LAY-3
  6
CONTINUOUS
 62
     3
100
AcDbLine
 10
408.329286
 20
200.9
 30
0.0
 11
408.329286
 21
188.4
 31
0.0
  0
LINE
  5
BF
100
AcDbEntity
  8
LAY-3
  6
CONTINUOUS
 62
     3
100
AcDbLine
 10
128.098571
 20
155.7
 30
0.0
 11
128.103571
 21
155.7
 31
0.0
  0
LINE
  5
C0
100
AcDbEntity
  8
LAY-3
  6
CONTINUOUS
 62
     3
100
AcDbLine
 10
128.098571
 20
158.6
 30
0.0
 11
128.103571
 21
158.6
 31
0.0
  0
LINE
  5
C1
100
AcDbEntity
  8
LAY-3
  6
CONTINUOUS
 62
     3
100
AcDbLine
 10
128.098571
 20
155.15
 30
0.0
 11
128.103571
 21
155.15
 31
0.0
  0
LINE
  5
C2
100
AcDbEntity
  8
LAY-3
  6
CONTINUOUS
 62
     3
100
AcDbLine
 10
128.098571
 20
159.15
 30
0.0
 11
128.103571
 21
159.15
 31
0.0
  0
LINE
  5
C3
100
AcDbEntity
  8
LAY-3
  6
CONTINUOUS
 62
     3
100
AcDbLine
 10
128.098571
 20
159.55
 30
0.0
 11
128.103571
 21
159.55
 31
0.0
  0
LINE
  5
C4
100
AcDbEntity
  8
LAY-3
  6
CONTINUOUS
 62
     3
100
AcDbLine
 10
128.098571
 20
154.75
 30
0.0
 11
128.103571
 21
154.75
 31
0.0
  0
LINE
  5
C5
100
AcDbEntity
  8
LAY-3
  6
CONTINUOUS
 62
     3
100
AcDbLine
 10
128.098571
 20
154.275
 30
0.0
 11
128.103571
 21
154.275
 31
0.0
  0
LINE
  5
C6
100
AcDbEntity
  8
LAY-3
  6
CONTINUOUS
 62
     3
100
AcDbLine
 10
128.098571
 20
160.025
 30
0.0
 11
128.103571
 21
160.025
 31
0.0
  0
LINE
  5
C7
100
AcDbEntity
  8
LAY-3
  6
CONTINUOUS
 62
     3
100
AcDbLine
 10
128.098571
 20
154.025
 30
0.0
 11
128.103571
 21
154.025
 31
0.0
  0
LINE
  5
C8
100
AcDbEntity
  8
LAY-3
  6
CONTINUOUS
 62
     3
100
AcDbLine
 10
128.098571
 20
160.275
 30
0.0
 11
128.103571
 21
160.275
 31
0.0
  0
LINE
  5
C9
100
AcDbEntity
  8
LAY-3
  6
CONTINUOUS
 62
     3
100
AcDbLine
 10
128.098571
 20
160.95
 30
0.0
 11
128.103571
 21
160.95
 31
0.0
  0
LINE
  5
CA
100
AcDbEntity
  8
LAY-3
  6
CONTINUOUS
 62
     3
100
AcDbLine
 10
128.098571
 20
153.35
 30
0.0
 11
128.103571
 21
153.35
 31
0.0
  0
LINE
  5
CB
100
AcDbEntity
  8
LAY-3
  6
CONTINUOUS
 62
     3
100
AcDbLine
 10
128.098571
 20
161.7
 30
0.0
 11
128.103571
 21
161.7
 31
0.0
  0
LINE
  5
CC
100
AcDbEntity
  8
LAY-3
  6
CONTINUOUS
 62
     3
100
AcDbLine
 10
128.098571
 20
152.6
 30
0.0
 11
128.103571
 21
152.6
 31
0.0
  0
LINE
  5
CD
100
AcDbEntity
  8
LAY-3
  6
CONTINUOUS
 62
     3
100
AcDbLine
 10
128.098571
 20
164.15
 30
0.0
 11
128.098571
 21
150.15
 31
0.0
  0
LINE
  5
CE
100
AcDbEntity
  8
LAY-3
  6
CONTINUOUS
 62
     3
100
AcDbLine
 10
94.603571
 20
164.15
 30
0.0
 11
94.603571
 21
150.15
 31
0.0
  0
LINE
  5
CF
100
AcDbEntity
  8
LAY-3
  6
CONTINUOUS
 62
     3
100
AcDbLine
 10
94.603571
 20
150.15
 30
0.0
 11
95.703571
 21
150.15
 31
0.0
  0
LINE
  5
D0
100
AcDbEntity
  8
LAY-3
  6
CONTINUOUS
 62
     3
100
AcDbLine
 10
95.703571
 20
164.15
 30
0.0
 11
94.603571
 21
164.15
 31
0.0
  0
LINE
  5
D1
100
AcDbEntity
  8
LAY-3
  6
CONTINUOUS
 62
     3
100
AcDbLine
 10
126.998571
 20
164.15
 30
0.0
 11
128.098571
 21
164.15
 31
0.0
  0
LINE
  5
D2
100
AcDbEntity
  8
LAY-3
  6
CONTINUOUS
 62
     3
100
AcDbLine
 10
126.998571
 20
150.15
 30
0.0
 11
128.098571
 21
150.15
 31
0.0
  0
ARC
  5
D3
100
AcDbEntity
  8
LAY-3
  6
CONTINUOUS
 62
     3
100
AcDbCircle
 10
94.550685
 20
160.764433
 30
0.0
 40
1.686396
100
AcDbArc
 50
88.202866
 51
91.797134
  0
ARC
  5
D4
100
AcDbEntity
  8
LAY-3
  6
CONTINUOUS
 62
     3
100
AcDbCircle
 10
94.550685
 20
153.535567
 30
0.0
 40
1.686396
100
AcDbArc
 50
268.202866
 51
271.797134
  0
ARC
  5
D5
100
AcDbEntity
  8
LAY-3
  6
CONTINUOUS
 62
     3
100
AcDbCircle
 10
128.156458
 20
153.535567
 30
0.0
 40
1.686396
100
AcDbArc
 50
268.202866
 51
271.797134
  0
LINE
  5
D6
100
AcDbEntity
  8
LAY-3
  6
CONTINUOUS
 62
     3
100
AcDbLine
 10
128.853571
 20
162.45
 30
0.0
 11
128.853571
 21
151.85
 31
0.0
  0
ARC
  5
D7
100
AcDbEntity
  8
LAY-3
  6
CONTINUOUS
 62
     3
100
AcDbCircle
 10
128.156458
 20
160.764433
 30
0.0
 40
1.686396
100
AcDbArc
 50
88.202866
 51
91.797134
  0
LINE
  5
D8
100
AcDbEntity
  8
LAY-3
  6
CONTINUOUS
 62
     3
100
AcDbLine
 10
95.703571
 20
152.9
 30
0.0
 11
126.998571
 21
152.9
 31
0.0
  0
LINE
  5
D9
100
AcDbEntity
  8
LAY-3
  6
CONTINUOUS
 62
     3
100
AcDbLine
 10
95.703571
 20
161.4
 30
0.0
 11
126.998571
 21
161.4
 31
0.0
  0
LINE
  5
DA
100
AcDbEntity
  8
LAY-3
  6
CONTINUOUS
 62
     3
100
AcDbLine
 10
93.853571
 20
162.45
 30
0.0
 11
93.853571
 21
151.85
 31
0.0
  0
LINE
  5
DB
100
AcDbEntity
  8
LAY-3
  6
EXLTYPE3
 62
     1
100
AcDbLine
 10
87.903571
 20
157.15
 30
0.0
 11
137.253571
 21
157.15
 31
0.0
  0
LINE
  5
DC
100
AcDbEntity
  8
LAY-3
  6
EXLTYPE3
 62
     1
100
AcDbLine
 10
150.675
 20
157.15
 30
0.0
 11
183.925
 21
157.15
 31
0.0
  0
LINE
  5
DD
100
AcDbEntity
  8
LAY-3
  6
EXLTYPE3
 62
     1
100
AcDbLine
 10
202.296429
 20
157.15
 30
0.0
 11
246.246429
 21
157.15
 31
0.0
  0
LINE
  5
DE
100
AcDbEntity
  8
LAY-3
  6
CONTINUOUS
 62
     3
100
AcDbLine
 10
241.141429
 20
155.7
 30
0.0
 11
241.146429
 21
155.7
 31
0.0
  0
LINE
  5
DF
100
AcDbEntity
  8
LAY-3
  6
CONTINUOUS
 62
     3
100
AcDbLine
 10
241.141429
 20
158.6
 30
0.0
 11
241.146429
 21
158.6
 31
0.0
  0
LINE
  5
E0
100
AcDbEntity
  8
LAY-3
  6
CONTINUOUS
 62
     3
100
AcDbLine
 10
241.141429
 20
155.15
 30
0.0
 11
241.146429
 21
155.15
 31
0.0
  0
LINE
  5
E1
100
AcDbEntity
  8
LAY-3
  6
CONTINUOUS
 62
     3
100
AcDbLine
 10
241.141429
 20
159.15
 30
0.0
 11
241.146429
 21
159.15
 31
0.0
  0
LINE
  5
E2
100
AcDbEntity
  8
LAY-3
  6
CONTINUOUS
 62
     3
100
AcDbLine
 10
241.141429
 20
159.55
 30
0.0
 11
241.146429
 21
159.55
 31
0.0
  0
LINE
  5
E3
100
AcDbEntity
  8
LAY-3
  6
CONTINUOUS
 62
     3
100
AcDbLine
 10
241.141429
 20
154.75
 30
0.0
 11
241.146429
 21
154.75
 31
0.0
  0
LINE
  5
E4
100
AcDbEntity
  8
LAY-3
  6
CONTINUOUS
 62
     3
100
AcDbLine
 10
241.141429
 20
154.275
 30
0.0
 11
241.146429
 21
154.275
 31
0.0
  0
LINE
  5
E5
100
AcDbEntity
  8
LAY-3
  6
CONTINUOUS
 62
     3
100
AcDbLine
 10
241.141429
 20
160.025
 30
0.0
 11
241.146429
 21
160.025
 31
0.0
  0
LINE
  5
E6
100
AcDbEntity
  8
LAY-3
  6
CONTINUOUS
 62
     3
100
AcDbLine
 10
241.141429
 20
154.025
 30
0.0
 11
241.146429
 21
154.025
 31
0.0
  0
LINE
  5
E7
100
AcDbEntity
  8
LAY-3
  6
CONTINUOUS
 62
     3
100
AcDbLine
 10
241.141429
 20
160.275
 30
0.0
 11
241.146429
 21
160.275
 31
0.0
  0
LINE
  5
E8
100
AcDbEntity
  8
LAY-3
  6
CONTINUOUS
 62
     3
100
AcDbLine
 10
241.141429
 20
160.95
 30
0.0
 11
241.146429
 21
160.95
 31
0.0
  0
LINE
  5
E9
100
AcDbEntity
  8
LAY-3
  6
CONTINUOUS
 62
     3
100
AcDbLine
 10
241.141429
 20
153.35
 30
0.0
 11
241.146429
 21
153.35
 31
0.0
  0
LINE
  5
EA
100
AcDbEntity
  8
LAY-3
  6
CONTINUOUS
 62
     3
100
AcDbLine
 10
241.141429
 20
161.7
 30
0.0
 11
241.146429
 21
161.7
 31
0.0
  0
LINE
  5
EB
100
AcDbEntity
  8
LAY-3
  6
CONTINUOUS
 62
     3
100
AcDbLine
 10
241.141429
 20
152.6
 30
0.0
 11
241.146429
 21
152.6
 31
0.0
  0
LINE
  5
EC
100
AcDbEntity
  8
LAY-3
  6
CONTINUOUS
 62
     3
100
AcDbLine
 10
241.141429
 20
162.45
 30
0.0
 11
241.146429
 21
162.45
 31
0.0
  0
LINE
  5
ED
100
AcDbEntity
  8
LAY-3
  6
CONTINUOUS
 62
     3
100
AcDbLine
 10
241.141429
 20
151.85
 30
0.0
 11
241.146429
 21
151.85
 31
0.0
  0
LINE
  5
EE
100
AcDbEntity
  8
LAY-3
  6
CONTINUOUS
 62
     3
100
AcDbLine
 10
240.041429
 20
165.4
 30
0.0
 11
240.041429
 21
148.9
 31
0.0
  0
LINE
  5
EF
100
AcDbEntity
  8
LAY-3
  6
CONTINUOUS
 62
     3
100
AcDbLine
 10
241.141429
 20
165.4
 30
0.0
 11
241.141429
 21
148.9
 31
0.0
  0
LINE
  5
F0
100
AcDbEntity
  8
LAY-3
  6
CONTINUOUS
 62
     3
100
AcDbLine
 10
207.646429
 20
165.4
 30
0.0
 11
207.646429
 21
148.9
 31
0.0
  0
LINE
  5
F1
100
AcDbEntity
  8
LAY-3
  6
CONTINUOUS
 62
     3
100
AcDbLine
 10
208.746429
 20
165.4
 30
0.0
 11
208.746429
 21
148.9
 31
0.0
  0
LINE
  5
F2
100
AcDbEntity
  8
LAY-3
  6
CONTINUOUS
 62
     3
100
AcDbLine
 10
207.646429
 20
148.9
 30
0.0
 11
208.746429
 21
148.9
 31
0.0
  0
LINE
  5
F3
100
AcDbEntity
  8
LAY-3
  6
CONTINUOUS
 62
     3
100
AcDbLine
 10
240.041429
 20
148.9
 30
0.0
 11
241.141429
 21
148.9
 31
0.0
  0
LINE
  5
F4
100
AcDbEntity
  8
LAY-3
  6
CONTINUOUS
 62
     3
100
AcDbLine
 10
240.041429
 20
165.4
 30
0.0
 11
241.141429
 21
165.4
 31
0.0
  0
LINE
  5
F5
100
AcDbEntity
  8
LAY-3
  6
CONTINUOUS
 62
     3
100
AcDbLine
 10
207.646429
 20
165.4
 30
0.0
 11
208.746429
 21
165.4
 31
0.0
  0
ARC
  5
F6
100
AcDbEntity
  8
LAY-3
  6
CONTINUOUS
 62
     3
100
AcDbCircle
 10
207.593542
 20
161.964433
 30
0.0
 40
1.686396
100
AcDbArc
 50
88.202866
 51
91.797134
  0
LINE
  5
F7
100
AcDbEntity
  8
LAY-3
  6
CONTINUOUS
 62
     3
100
AcDbLine
 10
206.896429
 20
163.65
 30
0.0
 11
206.896429
 21
150.65
 31
0.0
  0
ARC
  5
F8
100
AcDbEntity
  8
LAY-3
  6
CONTINUOUS
 62
     3
100
AcDbCircle
 10
207.593542
 20
152.335567
 30
0.0
 40
1.686396
100
AcDbArc
 50
268.202866
 51
271.797134
  0
ARC
  5
F9
100
AcDbEntity
  8
LAY-3
  6
CONTINUOUS
 62
     3
100
AcDbCircle
 10
241.199315
 20
152.335567
 30
0.0
 40
1.686396
100
AcDbArc
 50
268.202866
 51
271.797134
  0
LINE
  5
FA
100
AcDbEntity
  8
LAY-3
  6
CONTINUOUS
 62
     3
100
AcDbLine
 10
241.896429
 20
163.65
 30
0.0
 11
241.896429
 21
150.65
 31
0.0
  0
ARC
  5
FB
100
AcDbEntity
  8
LAY-3
  6
CONTINUOUS
 62
     3
100
AcDbCircle
 10
241.199315
 20
161.964433
 30
0.0
 40
1.686396
100
AcDbArc
 50
88.202866
 51
91.797134
  0
LINE
  5
FC
100
AcDbEntity
  8
LAY-3
  6
CONTINUOUS
 62
     3
100
AcDbLine
 10
208.746429
 20
151.65
 30
0.0
 11
240.041429
 21
151.65
 31
0.0
  0
LINE
  5
FD
100
AcDbEntity
  8
LAY-3
  6
CONTINUOUS
 62
     3
100
AcDbLine
 10
208.746429
 20
162.65
 30
0.0
 11
240.041429
 21
162.65
 31
0.0
  0
LINE
  5
FE
100
AcDbEntity
  8
LAY-3
  6
EXLTYPE3
 62
     1
100
AcDbLine
 10
262.196429
 20
157.15
 30
0.0
 11
296.196429
 21
157.15
 31
0.0
  0
LINE
  5
FF
100
AcDbEntity
  8
LAY-3
  6
CONTINUOUS
 62
     3
100
AcDbLine
 10
351.847857
 20
155.7
 30
0.0
 11
351.852857
 21
155.7
 31
0.0
  0
LINE
  5
100
100
AcDbEntity
  8
LAY-3
  6
CONTINUOUS
 62
     3
100
AcDbLine
 10
351.847857
 20
158.6
 30
0.0
 11
351.852857
 21
158.6
 31
0.0
  0
LINE
  5
101
100
AcDbEntity
  8
LAY-3
  6
CONTINUOUS
 62
     3
100
AcDbLine
 10
351.847857
 20
155.15
 30
0.0
 11
351.852857
 21
155.15
 31
0.0
  0
LINE
  5
102
100
AcDbEntity
  8
LAY-3
  6
CONTINUOUS
 62
     3
100
AcDbLine
 10
351.847857
 20
159.15
 30
0.0
 11
351.852857
 21
159.15
 31
0.0
  0
LINE
  5
103
100
AcDbEntity
  8
LAY-3
  6
CONTINUOUS
 62
     3
100
AcDbLine
 10
351.847857
 20
159.55
 30
0.0
 11
351.852857
 21
159.55
 31
0.0
  0
LINE
  5
104
100
AcDbEntity
  8
LAY-3
  6
CONTINUOUS
 62
     3
100
AcDbLine
 10
351.847857
 20
154.75
 30
0.0
 11
351.852857
 21
154.75
 31
0.0
  0
LINE
  5
105
100
AcDbEntity
  8
LAY-3
  6
CONTINUOUS
 62
     3
100
AcDbLine
 10
351.847857
 20
154.275
 30
0.0
 11
351.852857
 21
154.275
 31
0.0
  0
LINE
  5
106
100
AcDbEntity
  8
LAY-3
  6
CONTINUOUS
 62
     3
100
AcDbLine
 10
351.847857
 20
160.025
 30
0.0
 11
351.852857
 21
160.025
 31
0.0
  0
LINE
  5
107
100
AcDbEntity
  8
LAY-3
  6
CONTINUOUS
 62
     3
100
AcDbLine
 10
351.847857
 20
154.025
 30
0.0
 11
351.852857
 21
154.025
 31
0.0
  0
LINE
  5
108
100
AcDbEntity
  8
LAY-3
  6
CONTINUOUS
 62
     3
100
AcDbLine
 10
351.847857
 20
160.275
 30
0.0
 11
351.852857
 21
160.275
 31
0.0
  0
LINE
  5
109
100
AcDbEntity
  8
LAY-3
  6
CONTINUOUS
 62
     3
100
AcDbLine
 10
351.847857
 20
160.95
 30
0.0
 11
351.852857
 21
160.95
 31
0.0
  0
LINE
  5
10A
100
AcDbEntity
  8
LAY-3
  6
CONTINUOUS
 62
     3
100
AcDbLine
 10
351.847857
 20
153.35
 30
0.0
 11
351.852857
 21
153.35
 31
0.0
  0
LINE
  5
10B
100
AcDbEntity
  8
LAY-3
  6
CONTINUOUS
 62
     3
100
AcDbLine
 10
351.847857
 20
161.7
 30
0.0
 11
351.852857
 21
161.7
 31
0.0
  0
LINE
  5
10C
100
AcDbEntity
  8
LAY-3
  6
CONTINUOUS
 62
     3
100
AcDbLine
 10
351.847857
 20
152.6
 30
0.0
 11
351.852857
 21
152.6
 31
0.0
  0
LINE
  5
10D
100
AcDbEntity
  8
LAY-3
  6
CONTINUOUS
 62
     3
100
AcDbLine
 10
351.847857
 20
162.45
 30
0.0
 11
351.852857
 21
162.45
 31
0.0
  0
LINE
  5
10E
100
AcDbEntity
  8
LAY-3
  6
CONTINUOUS
 62
     3
100
AcDbLine
 10
351.847857
 20
151.85
 30
0.0
 11
351.852857
 21
151.85
 31
0.0
  0
LINE
  5
10F
100
AcDbEntity
  8
LAY-3
  6
CONTINUOUS
 62
     3
100
AcDbLine
 10
351.847857
 20
150.65
 30
0.0
 11
351.852857
 21
150.65
 31
0.0
  0
LINE
  5
110
100
AcDbEntity
  8
LAY-3
  6
CONTINUOUS
 62
     3
100
AcDbLine
 10
351.847857
 20
163.65
 30
0.0
 11
351.852857
 21
163.65
 31
0.0
  0
LINE
  5
111
100
AcDbEntity
  8
LAY-3
  6
CONTINUOUS
 62
     3
100
AcDbLine
 10
350.647857
 20
167.15
 30
0.0
 11
350.647857
 21
147.15
 31
0.0
  0
LINE
  5
112
100
AcDbEntity
  8
LAY-3
  6
CONTINUOUS
 62
     3
100
AcDbLine
 10
351.847857
 20
167.15
 30
0.0
 11
351.847857
 21
147.15
 31
0.0
  0
LINE
  5
113
100
AcDbEntity
  8
LAY-3
  6
CONTINUOUS
 62
     3
100
AcDbLine
 10
318.352857
 20
167.15
 30
0.0
 11
318.352857
 21
147.15
 31
0.0
  0
LINE
  5
114
100
AcDbEntity
  8
LAY-3
  6
CONTINUOUS
 62
     3
100
AcDbLine
 10
319.552857
 20
167.15
 30
0.0
 11
319.552857
 21
147.15
 31
0.0
  0
LINE
  5
115
100
AcDbEntity
  8
LAY-3
  6
CONTINUOUS
 62
     3
100
AcDbLine
 10
318.352857
 20
147.15
 30
0.0
 11
319.552857
 21
147.15
 31
0.0
  0
LINE
  5
116
100
AcDbEntity
  8
LAY-3
  6
CONTINUOUS
 62
     3
100
AcDbLine
 10
318.352857
 20
167.15
 30
0.0
 11
319.552857
 21
167.15
 31
0.0
  0
LINE
  5
117
100
AcDbEntity
  8
LAY-3
  6
CONTINUOUS
 62
     3
100
AcDbLine
 10
350.647857
 20
167.15
 30
0.0
 11
351.847857
 21
167.15
 31
0.0
  0
LINE
  5
118
100
AcDbEntity
  8
LAY-3
  6
CONTINUOUS
 62
     3
100
AcDbLine
 10
350.647857
 20
147.15
 30
0.0
 11
351.847857
 21
147.15
 31
0.0
  0
ARC
  5
119
100
AcDbEntity
  8
LAY-3
  6
CONTINUOUS
 62
     3
100
AcDbCircle
 10
318.29997
 20
163.514433
 30
0.0
 40
1.686396
100
AcDbArc
 50
88.202866
 51
91.797134
  0
LINE
  5
11A
100
AcDbEntity
  8
LAY-3
  6
CONTINUOUS
 62
     3
100
AcDbLine
 10
317.602857
 20
165.2
 30
0.0
 11
317.602857
 21
149.1
 31
0.0
  0
ARC
  5
11B
100
AcDbEntity
  8
LAY-3
  6
CONTINUOUS
 62
     3
100
AcDbCircle
 10
318.29997
 20
150.785567
 30
0.0
 40
1.686396
100
AcDbArc
 50
268.202866
 51
271.797134
  0
ARC
  5
11C
100
AcDbEntity
  8
LAY-3
  6
CONTINUOUS
 62
     3
100
AcDbCircle
 10
351.905744
 20
150.785567
 30
0.0
 40
1.686396
100
AcDbArc
 50
268.202866
 51
271.797134
  0
LINE
  5
11D
100
AcDbEntity
  8
LAY-3
  6
CONTINUOUS
 62
     3
100
AcDbLine
 10
352.602857
 20
165.2
 30
0.0
 11
352.602857
 21
149.1
 31
0.0
  0
ARC
  5
11E
100
AcDbEntity
  8
LAY-3
  6
CONTINUOUS
 62
     3
100
AcDbCircle
 10
351.905744
 20
163.514433
 30
0.0
 40
1.686396
100
AcDbArc
 50
88.202866
 51
91.797134
  0
LINE
  5
11F
100
AcDbEntity
  8
LAY-3
  6
CONTINUOUS
 62
     3
100
AcDbLine
 10
319.552857
 20
150.4
 30
0.0
 11
350.647857
 21
150.4
 31
0.0
  0
LINE
  5
120
100
AcDbEntity
  8
LAY-3
  6
CONTINUOUS
 62
     3
100
AcDbLine
 10
319.552857
 20
163.9
 30
0.0
 11
350.647857
 21
163.9
 31
0.0
  0
LINE
  5
121
100
AcDbEntity
  8
LAY-3
  6
EXLTYPE3
 62
     1
100
AcDbLine
 10
314.419453
 20
157.15
 30
0.0
 11
355.9
 21
157.15
 31
0.0
  0
LINE
  5
122
100
AcDbEntity
  8
LAY-3
  6
EXLTYPE3
 62
     1
100
AcDbLine
 10
372.739286
 20
157.15
 30
0.0
 11
410.9
 21
157.15
 31
0.0
  0
LINE
  5
123
100
AcDbEntity
  8
LAY-3
  6
EXLTYPE3
 62
     1
100
AcDbLine
 10
32.310714
 20
119.65
 30
0.0
 11
80.210714
 21
119.65
 31
0.0
  0
LINE
  5
124
100
AcDbEntity
  8
LAY-3
  6
CONTINUOUS
 62
     3
100
AcDbLine
 10
40.410714
 20
127.15
 30
0.0
 11
71.255714
 21
127.15
 31
0.0
  0
LINE
  5
125
100
AcDbEntity
  8
LAY-3
  6
CONTINUOUS
 62
     3
100
AcDbLine
 10
40.410714
 20
112.15
 30
0.0
 11
71.255714
 21
112.15
 31
0.0
  0
LINE
  5
126
100
AcDbEntity
  8
LAY-3
  6
CONTINUOUS
 62
     3
100
AcDbLine
 10
38.460714
 20
128.825
 30
0.0
 11
38.460714
 21
112.075
 31
0.0
  0
LINE
  5
127
100
AcDbEntity
  8
LAY-3
  6
CONTINUOUS
 62
     3
100
AcDbLine
 10
73.460714
 20
128.675
 30
0.0
 11
73.460714
 21
110.475
 31
0.0
  0
LINE
  5
128
100
AcDbEntity
  8
LAY-3
  6
CONTINUOUS
 62
     3
100
AcDbLine
 10
72.705714
 20
118.2
 30
0.0
 11
72.710714
 21
118.2
 31
0.0
  0
LINE
  5
129
100
AcDbEntity
  8
LAY-3
  6
CONTINUOUS
 62
     3
100
AcDbLine
 10
72.705714
 20
121.1
 30
0.0
 11
72.710714
 21
121.1
 31
0.0
  0
LINE
  5
12A
100
AcDbEntity
  8
LAY-3
  6
CONTINUOUS
 62
     3
100
AcDbLine
 10
72.705714
 20
117.65
 30
0.0
 11
72.710714
 21
117.65
 31
0.0
  0
LINE
  5
12B
100
AcDbEntity
  8
LAY-3
  6
CONTINUOUS
 62
     3
100
AcDbLine
 10
72.705714
 20
121.65
 30
0.0
 11
72.710714
 21
121.65
 31
0.0
  0
LINE
  5
12C
100
AcDbEntity
  8
LAY-3
  6
CONTINUOUS
 62
     3
100
AcDbLine
 10
72.705714
 20
122.05
 30
0.0
 11
72.710714
 21
122.05
 31
0.0
  0
LINE
  5
12D
100
AcDbEntity
  8
LAY-3
  6
CONTINUOUS
 62
     3
100
AcDbLine
 10
72.705714
 20
117.25
 30
0.0
 11
72.710714
 21
117.25
 31
0.0
  0
LINE
  5
12E
100
AcDbEntity
  8
LAY-3
  6
CONTINUOUS
 62
     3
100
AcDbLine
 10
72.705714
 20
116.775
 30
0.0
 11
72.710714
 21
116.775
 31
0.0
  0
LINE
  5
12F
100
AcDbEntity
  8
LAY-3
  6
CONTINUOUS
 62
     3
100
AcDbLine
 10
72.705714
 20
122.525
 30
0.0
 11
72.710714
 21
122.525
 31
0.0
  0
LINE
  5
130
100
AcDbEntity
  8
LAY-3
  6
CONTINUOUS
 62
     3
100
AcDbLine
 10
72.705714
 20
116.525
 30
0.0
 11
72.710714
 21
116.525
 31
0.0
  0
LINE
  5
131
100
AcDbEntity
  8
LAY-3
  6
CONTINUOUS
 62
     3
100
AcDbLine
 10
72.705714
 20
122.775
 30
0.0
 11
72.710714
 21
122.775
 31
0.0
  0
LINE
  5
132
100
AcDbEntity
  8
LAY-3
  6
CONTINUOUS
 62
     3
100
AcDbLine
 10
72.705714
 20
123.45
 30
0.0
 11
72.710714
 21
123.45
 31
0.0
  0
LINE
  5
133
100
AcDbEntity
  8
LAY-3
  6
CONTINUOUS
 62
     3
100
AcDbLine
 10
72.705714
 20
115.85
 30
0.0
 11
72.710714
 21
115.85
 31
0.0
  0
LINE
  5
134
100
AcDbEntity
  8
LAY-3
  6
CONTINUOUS
 62
     3
100
AcDbLine
 10
72.705714
 20
124.2
 30
0.0
 11
72.710714
 21
124.2
 31
0.0
  0
LINE
  5
135
100
AcDbEntity
  8
LAY-3
  6
CONTINUOUS
 62
     3
100
AcDbLine
 10
72.705714
 20
115.1
 30
0.0
 11
72.710714
 21
115.1
 31
0.0
  0
LINE
  5
136
100
AcDbEntity
  8
LAY-3
  6
CONTINUOUS
 62
     3
100
AcDbLine
 10
72.705714
 20
124.95
 30
0.0
 11
72.710714
 21
124.95
 31
0.0
  0
LINE
  5
137
100
AcDbEntity
  8
LAY-3
  6
CONTINUOUS
 62
     3
100
AcDbLine
 10
72.705714
 20
114.35
 30
0.0
 11
72.710714
 21
114.35
 31
0.0
  0
LINE
  5
138
100
AcDbEntity
  8
LAY-3
  6
CONTINUOUS
 62
     3
100
AcDbLine
 10
72.705714
 20
113.15
 30
0.0
 11
72.710714
 21
113.15
 31
0.0
  0
LINE
  5
139
100
AcDbEntity
  8
LAY-3
  6
CONTINUOUS
 62
     3
100
AcDbLine
 10
72.705714
 20
126.15
 30
0.0
 11
72.710714
 21
126.15
 31
0.0
  0
LINE
  5
13A
100
AcDbEntity
  8
LAY-3
  6
CONTINUOUS
 62
     3
100
AcDbLine
 10
72.705714
 20
111.6
 30
0.0
 11
72.710714
 21
111.6
 31
0.0
  0
LINE
  5
13B
100
AcDbEntity
  8
LAY-3
  6
CONTINUOUS
 62
     3
100
AcDbLine
 10
72.705714
 20
127.7
 30
0.0
 11
72.710714
 21
127.7
 31
0.0
  0
LINE
  5
13C
100
AcDbEntity
  8
LAY-3
  6
CONTINUOUS
 62
     3
100
AcDbLine
 10
72.705714
 20
130.775
 30
0.0
 11
72.705714
 21
108.525
 31
0.0
  0
LINE
  5
13D
100
AcDbEntity
  8
LAY-3
  6
CONTINUOUS
 62
     3
100
AcDbLine
 10
39.210714
 20
130.775
 30
0.0
 11
39.210714
 21
108.525
 31
0.0
  0
LINE
  5
13E
100
AcDbEntity
  8
LAY-3
  6
CONTINUOUS
 62
     3
100
AcDbLine
 10
40.410714
 20
130.775
 30
0.0
 11
40.410714
 21
108.525
 31
0.0
  0
LINE
  5
13F
100
AcDbEntity
  8
LAY-3
  6
CONTINUOUS
 62
     3
100
AcDbLine
 10
71.505714
 20
130.775
 30
0.0
 11
71.505714
 21
108.525
 31
0.0
  0
LINE
  5
140
100
AcDbEntity
  8
LAY-3
  6
CONTINUOUS
 62
     3
100
AcDbLine
 10
39.210714
 20
130.775
 30
0.0
 11
40.410714
 21
130.775
 31
0.0
  0
LINE
  5
141
100
AcDbEntity
  8
LAY-3
  6
CONTINUOUS
 62
     3
100
AcDbLine
 10
39.210714
 20
108.525
 30
0.0
 11
40.410714
 21
108.525
 31
0.0
  0
LINE
  5
142
100
AcDbEntity
  8
LAY-3
  6
CONTINUOUS
 62
     3
100
AcDbLine
 10
71.505714
 20
108.525
 30
0.0
 11
72.705714
 21
108.525
 31
0.0
  0
LINE
  5
143
100
AcDbEntity
  8
LAY-3
  6
CONTINUOUS
 62
     3
100
AcDbLine
 10
71.505714
 20
130.775
 30
0.0
 11
72.705714
 21
130.775
 31
0.0
  0
LINE
  5
144
100
AcDbEntity
  8
LAY-3
  6
CONTINUOUS
 62
     3
100
AcDbLine
 10
40.660714
 20
127.15
 30
0.0
 11
71.505714
 21
127.15
 31
0.0
  0
LINE
  5
145
100
AcDbEntity
  8
LAY-3
  6
CONTINUOUS
 62
     3
100
AcDbLine
 10
40.660714
 20
112.15
 30
0.0
 11
71.505714
 21
112.15
 31
0.0
  0
LINE
  5
146
100
AcDbEntity
  8
LAY-3
  6
CONTINUOUS
 62
     3
100
AcDbLine
 10
38.460714
 20
112.15
 30
0.0
 11
38.460714
 21
110.475
 31
0.0
  0
ARC
  5
147
100
AcDbEntity
  8
LAY-3
  6
CONTINUOUS
 62
     3
100
AcDbCircle
 10
39.157828
 20
112.160567
 30
0.0
 40
1.686396
100
AcDbArc
 50
268.202866
 51
271.797134
  0
ARC
  5
148
100
AcDbEntity
  8
LAY-3
  6
CONTINUOUS
 62
     3
100
AcDbCircle
 10
39.157828
 20
127.139433
 30
0.0
 40
1.686396
100
AcDbArc
 50
88.202866
 51
91.797134
  0
LINE
  5
149
100
AcDbEntity
  8
LAY-3
  6
CONTINUOUS
 62
     3
100
AcDbLine
 10
72.705714
 20
128.825
 30
0.0
 11
72.710714
 21
128.825
 31
0.0
  0
ARC
  5
14A
100
AcDbEntity
  8
LAY-3
  6
CONTINUOUS
 62
     3
100
AcDbCircle
 10
72.763601
 20
127.139433
 30
0.0
 40
1.686396
100
AcDbArc
 50
88.202866
 51
91.797134
  0
LINE
  5
14B
100
AcDbEntity
  8
LAY-3
  6
CONTINUOUS
 62
     3
100
AcDbLine
 10
73.460714
 20
128.825
 30
0.0
 11
73.460714
 21
110.625
 31
0.0
  0
ARC
  5
14C
100
AcDbEntity
  8
LAY-3
  6
CONTINUOUS
 62
     3
100
AcDbCircle
 10
72.763601
 20
112.160567
 30
0.0
 40
1.686396
100
AcDbArc
 50
268.202866
 51
271.797134
  0
LINE
  5
14D
100
AcDbEntity
  8
LAY-3
  6
CONTINUOUS
 62
     3
100
AcDbLine
 10
262.296429
 20
198.45
 30
0.0
 11
261.796429
 21
198.45
 31
0.0
  0
LINE
  5
14E
100
AcDbEntity
  8
LAY-3
  6
CONTINUOUS
 62
     3
100
AcDbLine
 10
262.296429
 20
190.85
 30
0.0
 11
261.796429
 21
190.85
 31
0.0
  0
LINE
  5
14F
100
AcDbEntity
  8
LAY-3
  6
CONTINUOUS
 62
     3
100
AcDbLine
 10
296.291429
 20
190.85
 30
0.0
 11
296.796429
 21
190.85
 31
0.0
  0
LINE
  5
150
100
AcDbEntity
  8
LAY-3
  6
CONTINUOUS
 62
     3
100
AcDbLine
 10
296.291429
 20
198.45
 30
0.0
 11
296.796429
 21
198.45
 31
0.0
  0
LINE
  5
151
100
AcDbEntity
  8
LAY-3
  6
CONTINUOUS
 62
     3
100
AcDbLine
 10
408.329286
 20
199.2
 30
0.0
 11
408.834286
 21
199.2
 31
0.0
  0
LINE
  5
152
100
AcDbEntity
  8
LAY-3
  6
CONTINUOUS
 62
     3
100
AcDbLine
 10
408.329286
 20
190.1
 30
0.0
 11
408.834286
 21
190.1
 31
0.0
  0
LINE
  5
153
100
AcDbEntity
  8
LAY-3
  6
CONTINUOUS
 62
     3
100
AcDbLine
 10
374.334286
 20
190.1
 30
0.0
 11
373.834286
 21
190.1
 31
0.0
  0
LINE
  5
154
100
AcDbEntity
  8
LAY-3
  6
CONTINUOUS
 62
     3
100
AcDbLine
 10
374.334286
 20
199.2
 30
0.0
 11
373.834286
 21
199.2
 31
0.0
  0
LINE
  5
155
100
AcDbEntity
  8
LAY-3
  6
CONTINUOUS
 62
     3
100
AcDbLine
 10
128.098571
 20
162.45
 30
0.0
 11
128.853571
 21
162.45
 31
0.0
  0
LINE
  5
156
100
AcDbEntity
  8
LAY-3
  6
CONTINUOUS
 62
     3
100
AcDbLine
 10
128.098571
 20
151.85
 30
0.0
 11
128.853571
 21
151.85
 31
0.0
  0
LINE
  5
157
100
AcDbEntity
  8
LAY-3
  6
CONTINUOUS
 62
     3
100
AcDbLine
 10
94.603571
 20
162.45
 30
0.0
 11
93.853571
 21
162.45
 31
0.0
  0
LINE
  5
158
100
AcDbEntity
  8
LAY-3
  6
CONTINUOUS
 62
     3
100
AcDbLine
 10
94.603571
 20
151.85
 30
0.0
 11
93.853571
 21
151.85
 31
0.0
  0
LINE
  5
159
100
AcDbEntity
  8
LAY-3
  6
CONTINUOUS
 62
     3
100
AcDbLine
 10
241.141429
 20
163.65
 30
0.0
 11
241.896429
 21
163.65
 31
0.0
  0
LINE
  5
15A
100
AcDbEntity
  8
LAY-3
  6
CONTINUOUS
 62
     3
100
AcDbLine
 10
241.141429
 20
150.65
 30
0.0
 11
241.896429
 21
150.65
 31
0.0
  0
LINE
  5
15B
100
AcDbEntity
  8
LAY-3
  6
CONTINUOUS
 62
     3
100
AcDbLine
 10
207.646429
 20
163.65
 30
0.0
 11
206.896429
 21
163.65
 31
0.0
  0
LINE
  5
15C
100
AcDbEntity
  8
LAY-3
  6
CONTINUOUS
 62
     3
100
AcDbLine
 10
207.646429
 20
150.65
 30
0.0
 11
206.896429
 21
150.65
 31
0.0
  0
LINE
  5
15D
100
AcDbEntity
  8
LAY-3
  6
CONTINUOUS
 62
     3
100
AcDbLine
 10
351.847857
 20
165.2
 30
0.0
 11
352.602857
 21
165.2
 31
0.0
  0
LINE
  5
15E
100
AcDbEntity
  8
LAY-3
  6
CONTINUOUS
 62
     3
100
AcDbLine
 10
351.847857
 20
149.1
 30
0.0
 11
352.602857
 21
149.1
 31
0.0
  0
LINE
  5
15F
100
AcDbEntity
  8
LAY-3
  6
CONTINUOUS
 62
     3
100
AcDbLine
 10
318.352857
 20
149.1
 30
0.0
 11
317.602857
 21
149.1
 31
0.0
  0
LINE
  5
160
100
AcDbEntity
  8
LAY-3
  6
CONTINUOUS
 62
     3
100
AcDbLine
 10
318.352857
 20
165.2
 30
0.0
 11
317.602857
 21
165.2
 31
0.0
  0
LINE
  5
161
100
AcDbEntity
  8
LAY-3
  6
CONTINUOUS
 62
     3
100
AcDbLine
 10
72.710714
 20
128.825
 30
0.0
 11
73.460714
 21
128.825
 31
0.0
  0
LINE
  5
162
100
AcDbEntity
  8
LAY-3
  6
CONTINUOUS
 62
     3
100
AcDbLine
 10
72.705714
 20
110.475
 30
0.0
 11
73.460714
 21
110.475
 31
0.0
  0
LINE
  5
163
100
AcDbEntity
  8
LAY-3
  6
CONTINUOUS
 62
     3
100
AcDbLine
 10
39.210714
 20
128.825
 30
0.0
 11
38.460714
 21
128.825
 31
0.0
  0
LINE
  5
164
100
AcDbEntity
  8
LAY-3
  6
CONTINUOUS
 62
     3
100
AcDbLine
 10
39.210714
 20
110.475
 30
0.0
 11
38.460714
 21
110.475
 31
0.0
  0
LINE
  5
165
100
AcDbEntity
  8
LAY-3
  6
CONTINUOUS
 62
     3
100
AcDbLine
 10
375.334286
 20
200.9
 30
0.0
 11
375.334286
 21
188.4
 31
0.0
  0
LINE
  5
166
100
AcDbEntity
  8
LAY-3
  6
CONTINUOUS
 62
     3
100
AcDbLine
 10
407.329286
 20
200.9
 30
0.0
 11
407.329286
 21
188.4
 31
0.0
  0
LINE
  5
167
100
AcDbEntity
  8
LAY-3
  6
CONTINUOUS
 62
     3
100
AcDbLine
 10
95.703571
 20
164.15
 30
0.0
 11
95.703571
 21
150.15
 31
0.0
  0
LINE
  5
168
100
AcDbEntity
  8
LAY-3
  6
CONTINUOUS
 62
     3
100
AcDbLine
 10
126.998571
 20
164.15
 30
0.0
 11
126.998571
 21
150.15
 31
0.0
  0
LINE
  5
169
100
AcDbEntity
  8
LAY-3
  6
CONTINUOUS
 62
     3
100
AcDbLine
 10
375.989286
 20
166.325
 30
0.0
 11
375.989286
 21
149.575
 31
0.0
  0
LINE
  5
16A
100
AcDbEntity
  8
LAY-3
  6
CONTINUOUS
 62
     3
100
AcDbLine
 10
405.989286
 20
166.175
 30
0.0
 11
405.989286
 21
147.975
 31
0.0
  0
LINE
  5
16B
100
AcDbEntity
  8
LAY-3
  6
CONTINUOUS
 62
     3
100
AcDbLine
 10
405.234286
 20
155.7
 30
0.0
 11
405.239286
 21
155.7
 31
0.0
  0
LINE
  5
16C
100
AcDbEntity
  8
LAY-3
  6
CONTINUOUS
 62
     3
100
AcDbLine
 10
405.234286
 20
158.6
 30
0.0
 11
405.239286
 21
158.6
 31
0.0
  0
LINE
  5
16D
100
AcDbEntity
  8
LAY-3
  6
CONTINUOUS
 62
     3
100
AcDbLine
 10
405.234286
 20
155.15
 30
0.0
 11
405.239286
 21
155.15
 31
0.0
  0
LINE
  5
16E
100
AcDbEntity
  8
LAY-3
  6
CONTINUOUS
 62
     3
100
AcDbLine
 10
405.234286
 20
159.15
 30
0.0
 11
405.239286
 21
159.15
 31
0.0
  0
LINE
  5
16F
100
AcDbEntity
  8
LAY-3
  6
CONTINUOUS
 62
     3
100
AcDbLine
 10
405.234286
 20
159.55
 30
0.0
 11
405.239286
 21
159.55
 31
0.0
  0
LINE
  5
170
100
AcDbEntity
  8
LAY-3
  6
CONTINUOUS
 62
     3
100
AcDbLine
 10
405.234286
 20
154.75
 30
0.0
 11
405.239286
 21
154.75
 31
0.0
  0
LINE
  5
171
100
AcDbEntity
  8
LAY-3
  6
CONTINUOUS
 62
     3
100
AcDbLine
 10
405.234286
 20
154.275
 30
0.0
 11
405.239286
 21
154.275
 31
0.0
  0
LINE
  5
172
100
AcDbEntity
  8
LAY-3
  6
CONTINUOUS
 62
     3
100
AcDbLine
 10
405.234286
 20
160.025
 30
0.0
 11
405.239286
 21
160.025
 31
0.0
  0
LINE
  5
173
100
AcDbEntity
  8
LAY-3
  6
CONTINUOUS
 62
     3
100
AcDbLine
 10
405.234286
 20
154.025
 30
0.0
 11
405.239286
 21
154.025
 31
0.0
  0
LINE
  5
174
100
AcDbEntity
  8
LAY-3
  6
CONTINUOUS
 62
     3
100
AcDbLine
 10
405.234286
 20
160.275
 30
0.0
 11
405.239286
 21
160.275
 31
0.0
  0
LINE
  5
175
100
AcDbEntity
  8
LAY-3
  6
CONTINUOUS
 62
     3
100
AcDbLine
 10
405.234286
 20
160.95
 30
0.0
 11
405.239286
 21
160.95
 31
0.0
  0
LINE
  5
176
100
AcDbEntity
  8
LAY-3
  6
CONTINUOUS
 62
     3
100
AcDbLine
 10
405.234286
 20
153.35
 30
0.0
 11
405.239286
 21
153.35
 31
0.0
  0
LINE
  5
177
100
AcDbEntity
  8
LAY-3
  6
CONTINUOUS
 62
     3
100
AcDbLine
 10
405.234286
 20
161.7
 30
0.0
 11
405.239286
 21
161.7
 31
0.0
  0
LINE
  5
178
100
AcDbEntity
  8
LAY-3
  6
CONTINUOUS
 62
     3
100
AcDbLine
 10
405.234286
 20
152.6
 30
0.0
 11
405.239286
 21
152.6
 31
0.0
  0
LINE
  5
179
100
AcDbEntity
  8
LAY-3
  6
CONTINUOUS
 62
     3
100
AcDbLine
 10
405.234286
 20
162.45
 30
0.0
 11
405.239286
 21
162.45
 31
0.0
  0
LINE
  5
17A
100
AcDbEntity
  8
LAY-3
  6
CONTINUOUS
 62
     3
100
AcDbLine
 10
405.234286
 20
151.85
 30
0.0
 11
405.239286
 21
151.85
 31
0.0
  0
LINE
  5
17B
100
AcDbEntity
  8
LAY-3
  6
CONTINUOUS
 62
     3
100
AcDbLine
 10
405.234286
 20
150.65
 30
0.0
 11
405.239286
 21
150.65
 31
0.0
  0
LINE
  5
17C
100
AcDbEntity
  8
LAY-3
  6
CONTINUOUS
 62
     3
100
AcDbLine
 10
405.234286
 20
163.65
 30
0.0
 11
405.239286
 21
163.65
 31
0.0
  0
LINE
  5
17D
100
AcDbEntity
  8
LAY-3
  6
CONTINUOUS
 62
     3
100
AcDbLine
 10
405.234286
 20
149.1
 30
0.0
 11
405.239286
 21
149.1
 31
0.0
  0
LINE
  5
17E
100
AcDbEntity
  8
LAY-3
  6
CONTINUOUS
 62
     3
100
AcDbLine
 10
405.234286
 20
165.2
 30
0.0
 11
405.239286
 21
165.2
 31
0.0
  0
LINE
  5
17F
100
AcDbEntity
  8
LAY-3
  6
CONTINUOUS
 62
     3
100
AcDbLine
 10
405.234286
 20
168.275
 30
0.0
 11
405.234286
 21
146.025
 31
0.0
  0
LINE
  5
180
100
AcDbEntity
  8
LAY-3
  6
CONTINUOUS
 62
     3
100
AcDbLine
 10
376.739286
 20
168.275
 30
0.0
 11
376.739286
 21
146.025
 31
0.0
  0
LINE
  5
181
100
AcDbEntity
  8
LAY-3
  6
CONTINUOUS
 62
     3
100
AcDbLine
 10
375.989286
 20
149.65
 30
0.0
 11
375.989286
 21
147.975
 31
0.0
  0
ARC
  5
182
100
AcDbEntity
  8
LAY-3
  6
CONTINUOUS
 62
     3
100
AcDbCircle
 10
376.686399
 20
149.660567
 30
0.0
 40
1.686396
100
AcDbArc
 50
268.202866
 51
271.797134
  0
ARC
  5
183
100
AcDbEntity
  8
LAY-3
  6
CONTINUOUS
 62
     3
100
AcDbCircle
 10
376.686399
 20
164.639433
 30
0.0
 40
1.686396
100
AcDbArc
 50
88.202866
 51
91.797134
  0
LINE
  5
184
100
AcDbEntity
  8
LAY-3
  6
CONTINUOUS
 62
     3
100
AcDbLine
 10
405.234286
 20
166.325
 30
0.0
 11
405.239286
 21
166.325
 31
0.0
  0
ARC
  5
185
100
AcDbEntity
  8
LAY-3
  6
CONTINUOUS
 62
     3
100
AcDbCircle
 10
405.292172
 20
164.639433
 30
0.0
 40
1.686396
100
AcDbArc
 50
88.202866
 51
91.797134
  0
LINE
  5
186
100
AcDbEntity
  8
LAY-3
  6
CONTINUOUS
 62
     3
100
AcDbLine
 10
405.989286
 20
166.325
 30
0.0
 11
405.989286
 21
148.125
 31
0.0
  0
ARC
  5
187
100
AcDbEntity
  8
LAY-3
  6
CONTINUOUS
 62
     3
100
AcDbCircle
 10
405.292172
 20
149.660567
 30
0.0
 40
1.686396
100
AcDbArc
 50
268.202866
 51
271.797134
  0
LINE
  5
188
100
AcDbEntity
  8
LAY-3
  6
CONTINUOUS
 62
     3
100
AcDbLine
 10
405.239286
 20
166.325
 30
0.0
 11
405.989286
 21
166.325
 31
0.0
  0
LINE
  5
189
100
AcDbEntity
  8
LAY-3
  6
CONTINUOUS
 62
     3
100
AcDbLine
 10
405.234286
 20
147.975
 30
0.0
 11
405.989286
 21
147.975
 31
0.0
  0
LINE
  5
18A
100
AcDbEntity
  8
LAY-3
  6
CONTINUOUS
 62
     3
100
AcDbLine
 10
376.739286
 20
166.325
 30
0.0
 11
375.989286
 21
166.325
 31
0.0
  0
LINE
  5
18B
100
AcDbEntity
  8
LAY-3
  6
CONTINUOUS
 62
     3
100
AcDbLine
 10
376.739286
 20
147.975
 30
0.0
 11
375.989286
 21
147.975
 31
0.0
  0
LINE
  5
18C
100
AcDbEntity
  8
LAY-3
  6
CONTINUOUS
 62
     3
100
AcDbLine
 10
377.939286
 20
168.275
 30
0.0
 11
377.939286
 21
146.025
 31
0.0
  0
LINE
  5
18D
100
AcDbEntity
  8
LAY-3
  6
CONTINUOUS
 62
     3
100
AcDbLine
 10
376.739286
 20
168.275
 30
0.0
 11
377.939286
 21
168.275
 31
0.0
  0
LINE
  5
18E
100
AcDbEntity
  8
LAY-3
  6
CONTINUOUS
 62
     3
100
AcDbLine
 10
376.739286
 20
146.025
 30
0.0
 11
377.939286
 21
146.025
 31
0.0
  0
LINE
  5
18F
100
AcDbEntity
  8
LAY-3
  6
CONTINUOUS
 62
     3
100
AcDbLine
 10
404.034286
 20
168.275
 30
0.0
 11
404.034286
 21
146.025
 31
0.0
  0
LINE
  5
190
100
AcDbEntity
  8
LAY-3
  6
CONTINUOUS
 62
     3
100
AcDbLine
 10
404.034286
 20
146.025
 30
0.0
 11
405.234286
 21
146.025
 31
0.0
  0
LINE
  5
191
100
AcDbEntity
  8
LAY-3
  6
CONTINUOUS
 62
     3
100
AcDbLine
 10
404.034286
 20
168.275
 30
0.0
 11
405.234286
 21
168.275
 31
0.0
  0
LINE
  5
192
100
AcDbEntity
  8
LAY-3
  6
CONTINUOUS
 62
     3
100
AcDbLine
 10
377.939286
 20
164.65
 30
0.0
 11
403.784286
 21
164.65
 31
0.0
  0
LINE
  5
193
100
AcDbEntity
  8
LAY-3
  6
CONTINUOUS
 62
     3
100
AcDbLine
 10
377.939286
 20
149.65
 30
0.0
 11
403.784286
 21
149.65
 31
0.0
  0
LINE
  5
194
100
AcDbEntity
  8
LAY-3
  6
CONTINUOUS
 62
     3
100
AcDbLine
 10
378.189286
 20
164.65
 30
0.0
 11
404.034286
 21
164.65
 31
0.0
  0
LINE
  5
195
100
AcDbEntity
  8
LAY-3
  6
CONTINUOUS
 62
     3
100
AcDbLine
 10
378.189286
 20
149.65
 30
0.0
 11
404.034286
 21
149.65
 31
0.0
  0
LINE
  5
196
100
AcDbEntity
  8
LAY-3
  6
CONTINUOUS
 62
     3
100
AcDbLine
 10
290.991429
 20
155.7
 30
0.0
 11
290.996429
 21
155.7
 31
0.0
  0
LINE
  5
197
100
AcDbEntity
  8
LAY-3
  6
CONTINUOUS
 62
     3
100
AcDbLine
 10
290.991429
 20
158.6
 30
0.0
 11
290.996429
 21
158.6
 31
0.0
  0
LINE
  5
198
100
AcDbEntity
  8
LAY-3
  6
CONTINUOUS
 62
     3
100
AcDbLine
 10
290.991429
 20
155.15
 30
0.0
 11
290.996429
 21
155.15
 31
0.0
  0
LINE
  5
199
100
AcDbEntity
  8
LAY-3
  6
CONTINUOUS
 62
     3
100
AcDbLine
 10
290.991429
 20
159.15
 30
0.0
 11
290.996429
 21
159.15
 31
0.0
  0
LINE
  5
19A
100
AcDbEntity
  8
LAY-3
  6
CONTINUOUS
 62
     3
100
AcDbLine
 10
290.991429
 20
159.55
 30
0.0
 11
290.996429
 21
159.55
 31
0.0
  0
LINE
  5
19B
100
AcDbEntity
  8
LAY-3
  6
CONTINUOUS
 62
     3
100
AcDbLine
 10
290.991429
 20
154.75
 30
0.0
 11
290.996429
 21
154.75
 31
0.0
  0
LINE
  5
19C
100
AcDbEntity
  8
LAY-3
  6
CONTINUOUS
 62
     3
100
AcDbLine
 10
290.991429
 20
154.275
 30
0.0
 11
290.996429
 21
154.275
 31
0.0
  0
LINE
  5
19D
100
AcDbEntity
  8
LAY-3
  6
CONTINUOUS
 62
     3
100
AcDbLine
 10
290.991429
 20
160.025
 30
0.0
 11
290.996429
 21
160.025
 31
0.0
  0
LINE
  5
19E
100
AcDbEntity
  8
LAY-3
  6
CONTINUOUS
 62
     3
100
AcDbLine
 10
290.991429
 20
154.025
 30
0.0
 11
290.996429
 21
154.025
 31
0.0
  0
LINE
  5
19F
100
AcDbEntity
  8
LAY-3
  6
CONTINUOUS
 62
     3
100
AcDbLine
 10
290.991429
 20
160.275
 30
0.0
 11
290.996429
 21
160.275
 31
0.0
  0
LINE
  5
1A0
100
AcDbEntity
  8
LAY-3
  6
CONTINUOUS
 62
     3
100
AcDbLine
 10
290.991429
 20
160.95
 30
0.0
 11
290.996429
 21
160.95
 31
0.0
  0
LINE
  5
1A1
100
AcDbEntity
  8
LAY-3
  6
CONTINUOUS
 62
     3
100
AcDbLine
 10
290.991429
 20
153.35
 30
0.0
 11
290.996429
 21
153.35
 31
0.0
  0
LINE
  5
1A2
100
AcDbEntity
  8
LAY-3
  6
CONTINUOUS
 62
     3
100
AcDbLine
 10
290.991429
 20
161.7
 30
0.0
 11
290.996429
 21
161.7
 31
0.0
  0
LINE
  5
1A3
100
AcDbEntity
  8
LAY-3
  6
CONTINUOUS
 62
     3
100
AcDbLine
 10
290.991429
 20
152.6
 30
0.0
 11
290.996429
 21
152.6
 31
0.0
  0
LINE
  5
1A4
100
AcDbEntity
  8
LAY-3
  6
CONTINUOUS
 62
     3
100
AcDbLine
 10
290.991429
 20
162.45
 30
0.0
 11
290.996429
 21
162.45
 31
0.0
  0
LINE
  5
1A5
100
AcDbEntity
  8
LAY-3
  6
CONTINUOUS
 62
     3
100
AcDbLine
 10
290.991429
 20
151.85
 30
0.0
 11
290.996429
 21
151.85
 31
0.0
  0
LINE
  5
1A6
100
AcDbEntity
  8
LAY-3
  6
CONTINUOUS
 62
     3
100
AcDbLine
 10
290.991429
 20
150.65
 30
0.0
 11
290.996429
 21
150.65
 31
0.0
  0
LINE
  5
1A7
100
AcDbEntity
  8
LAY-3
  6
CONTINUOUS
 62
     3
100
AcDbLine
 10
290.991429
 20
163.65
 30
0.0
 11
290.996429
 21
163.65
 31
0.0
  0
LINE
  5
1A8
100
AcDbEntity
  8
LAY-3
  6
CONTINUOUS
 62
     3
100
AcDbLine
 10
290.991429
 20
167.15
 30
0.0
 11
290.991429
 21
147.15
 31
0.0
  0
LINE
  5
1A9
100
AcDbEntity
  8
LAY-3
  6
CONTINUOUS
 62
     3
100
AcDbLine
 10
267.496429
 20
167.15
 30
0.0
 11
267.496429
 21
147.15
 31
0.0
  0
ARC
  5
1AA
100
AcDbEntity
  8
LAY-3
  6
CONTINUOUS
 62
     3
100
AcDbCircle
 10
267.443542
 20
163.514433
 30
0.0
 40
1.686396
100
AcDbArc
 50
88.202866
 51
91.797134
  0
LINE
  5
1AB
100
AcDbEntity
  8
LAY-3
  6
CONTINUOUS
 62
     3
100
AcDbLine
 10
266.746429
 20
165.2
 30
0.0
 11
266.746429
 21
149.1
 31
0.0
  0
ARC
  5
1AC
100
AcDbEntity
  8
LAY-3
  6
CONTINUOUS
 62
     3
100
AcDbCircle
 10
267.443542
 20
150.785567
 30
0.0
 40
1.686396
100
AcDbArc
 50
268.202866
 51
271.797134
  0
ARC
  5
1AD
100
AcDbEntity
  8
LAY-3
  6
CONTINUOUS
 62
     3
100
AcDbCircle
 10
291.049315
 20
150.785567
 30
0.0
 40
1.686396
100
AcDbArc
 50
268.202866
 51
271.797134
  0
LINE
  5
1AE
100
AcDbEntity
  8
LAY-3
  6
CONTINUOUS
 62
     3
100
AcDbLine
 10
291.746429
 20
165.2
 30
0.0
 11
291.746429
 21
149.1
 31
0.0
  0
ARC
  5
1AF
100
AcDbEntity
  8
LAY-3
  6
CONTINUOUS
 62
     3
100
AcDbCircle
 10
291.049315
 20
163.514433
 30
0.0
 40
1.686396
100
AcDbArc
 50
88.202866
 51
91.797134
  0
LINE
  5
1B0
100
AcDbEntity
  8
LAY-3
  6
CONTINUOUS
 62
     3
100
AcDbLine
 10
290.991429
 20
165.2
 30
0.0
 11
291.746429
 21
165.2
 31
0.0
  0
LINE
  5
1B1
100
AcDbEntity
  8
LAY-3
  6
CONTINUOUS
 62
     3
100
AcDbLine
 10
290.991429
 20
149.1
 30
0.0
 11
291.746429
 21
149.1
 31
0.0
  0
LINE
  5
1B2
100
AcDbEntity
  8
LAY-3
  6
CONTINUOUS
 62
     3
100
AcDbLine
 10
267.496429
 20
149.1
 30
0.0
 11
266.746429
 21
149.1
 31
0.0
  0
LINE
  5
1B3
100
AcDbEntity
  8
LAY-3
  6
CONTINUOUS
 62
     3
100
AcDbLine
 10
267.496429
 20
165.2
 30
0.0
 11
266.746429
 21
165.2
 31
0.0
  0
LINE
  5
1B4
100
AcDbEntity
  8
LAY-3
  6
CONTINUOUS
 62
     3
100
AcDbLine
 10
268.696429
 20
167.15
 30
0.0
 11
268.696429
 21
147.15
 31
0.0
  0
LINE
  5
1B5
100
AcDbEntity
  8
LAY-3
  6
CONTINUOUS
 62
     3
100
AcDbLine
 10
267.496429
 20
147.15
 30
0.0
 11
268.696429
 21
147.15
 31
0.0
  0
LINE
  5
1B6
100
AcDbEntity
  8
LAY-3
  6
CONTINUOUS
 62
     3
100
AcDbLine
 10
267.496429
 20
167.15
 30
0.0
 11
268.696429
 21
167.15
 31
0.0
  0
LINE
  5
1B7
100
AcDbEntity
  8
LAY-3
  6
CONTINUOUS
 62
     3
100
AcDbLine
 10
289.791429
 20
167.15
 30
0.0
 11
289.791429
 21
147.15
 31
0.0
  0
LINE
  5
1B8
100
AcDbEntity
  8
LAY-3
  6
CONTINUOUS
 62
     3
100
AcDbLine
 10
289.791429
 20
167.15
 30
0.0
 11
290.991429
 21
167.15
 31
0.0
  0
LINE
  5
1B9
100
AcDbEntity
  8
LAY-3
  6
CONTINUOUS
 62
     3
100
AcDbLine
 10
289.791429
 20
147.15
 30
0.0
 11
290.991429
 21
147.15
 31
0.0
  0
LINE
  5
1BA
100
AcDbEntity
  8
LAY-3
  6
CONTINUOUS
 62
     3
100
AcDbLine
 10
268.696429
 20
150.4
 30
0.0
 11
289.791429
 21
150.4
 31
0.0
  0
LINE
  5
1BB
100
AcDbEntity
  8
LAY-3
  6
CONTINUOUS
 62
     3
100
AcDbLine
 10
268.696429
 20
163.9
 30
0.0
 11
289.791429
 21
163.9
 31
0.0
  0
LINE
  5
1BC
100
AcDbEntity
  8
LAY-3
  6
CONTINUOUS
 62
     3
100
AcDbLine
 10
179.37
 20
155.7
 30
0.0
 11
179.375
 21
155.7
 31
0.0
  0
LINE
  5
1BD
100
AcDbEntity
  8
LAY-3
  6
CONTINUOUS
 62
     3
100
AcDbLine
 10
179.37
 20
158.6
 30
0.0
 11
179.375
 21
158.6
 31
0.0
  0
LINE
  5
1BE
100
AcDbEntity
  8
LAY-3
  6
CONTINUOUS
 62
     3
100
AcDbLine
 10
179.37
 20
155.15
 30
0.0
 11
179.375
 21
155.15
 31
0.0
  0
LINE
  5
1BF
100
AcDbEntity
  8
LAY-3
  6
CONTINUOUS
 62
     3
100
AcDbLine
 10
179.37
 20
159.15
 30
0.0
 11
179.375
 21
159.15
 31
0.0
  0
LINE
  5
1C0
100
AcDbEntity
  8
LAY-3
  6
CONTINUOUS
 62
     3
100
AcDbLine
 10
179.37
 20
159.55
 30
0.0
 11
179.375
 21
159.55
 31
0.0
  0
LINE
  5
1C1
100
AcDbEntity
  8
LAY-3
  6
CONTINUOUS
 62
     3
100
AcDbLine
 10
179.37
 20
154.75
 30
0.0
 11
179.375
 21
154.75
 31
0.0
  0
LINE
  5
1C2
100
AcDbEntity
  8
LAY-3
  6
CONTINUOUS
 62
     3
100
AcDbLine
 10
179.37
 20
154.275
 30
0.0
 11
179.375
 21
154.275
 31
0.0
  0
LINE
  5
1C3
100
AcDbEntity
  8
LAY-3
  6
CONTINUOUS
 62
     3
100
AcDbLine
 10
179.37
 20
160.025
 30
0.0
 11
179.375
 21
160.025
 31
0.0
  0
LINE
  5
1C4
100
AcDbEntity
  8
LAY-3
  6
CONTINUOUS
 62
     3
100
AcDbLine
 10
179.37
 20
154.025
 30
0.0
 11
179.375
 21
154.025
 31
0.0
  0
LINE
  5
1C5
100
AcDbEntity
  8
LAY-3
  6
CONTINUOUS
 62
     3
100
AcDbLine
 10
179.37
 20
160.275
 30
0.0
 11
179.375
 21
160.275
 31
0.0
  0
LINE
  5
1C6
100
AcDbEntity
  8
LAY-3
  6
CONTINUOUS
 62
     3
100
AcDbLine
 10
179.37
 20
160.95
 30
0.0
 11
179.375
 21
160.95
 31
0.0
  0
LINE
  5
1C7
100
AcDbEntity
  8
LAY-3
  6
CONTINUOUS
 62
     3
100
AcDbLine
 10
179.37
 20
153.35
 30
0.0
 11
179.375
 21
153.35
 31
0.0
  0
LINE
  5
1C8
100
AcDbEntity
  8
LAY-3
  6
CONTINUOUS
 62
     3
100
AcDbLine
 10
179.37
 20
161.7
 30
0.0
 11
179.375
 21
161.7
 31
0.0
  0
LINE
  5
1C9
100
AcDbEntity
  8
LAY-3
  6
CONTINUOUS
 62
     3
100
AcDbLine
 10
179.37
 20
152.6
 30
0.0
 11
179.375
 21
152.6
 31
0.0
  0
LINE
  5
1CA
100
AcDbEntity
  8
LAY-3
  6
CONTINUOUS
 62
     3
100
AcDbLine
 10
179.37
 20
162.45
 30
0.0
 11
179.375
 21
162.45
 31
0.0
  0
LINE
  5
1CB
100
AcDbEntity
  8
LAY-3
  6
CONTINUOUS
 62
     3
100
AcDbLine
 10
179.37
 20
151.85
 30
0.0
 11
179.375
 21
151.85
 31
0.0
  0
LINE
  5
1CC
100
AcDbEntity
  8
LAY-3
  6
CONTINUOUS
 62
     3
100
AcDbLine
 10
179.37
 20
165.4
 30
0.0
 11
179.37
 21
148.9
 31
0.0
  0
LINE
  5
1CD
100
AcDbEntity
  8
LAY-3
  6
CONTINUOUS
 62
     3
100
AcDbLine
 10
155.875
 20
165.4
 30
0.0
 11
155.875
 21
148.9
 31
0.0
  0
ARC
  5
1CE
100
AcDbEntity
  8
LAY-3
  6
CONTINUOUS
 62
     3
100
AcDbCircle
 10
155.822113
 20
161.964433
 30
0.0
 40
1.686396
100
AcDbArc
 50
88.202866
 51
91.797134
  0
LINE
  5
1CF
100
AcDbEntity
  8
LAY-3
  6
CONTINUOUS
 62
     3
100
AcDbLine
 10
155.125
 20
163.65
 30
0.0
 11
155.125
 21
150.65
 31
0.0
  0
ARC
  5
1D0
100
AcDbEntity
  8
LAY-3
  6
CONTINUOUS
 62
     3
100
AcDbCircle
 10
155.822113
 20
152.335567
 30
0.0
 40
1.686396
100
AcDbArc
 50
268.202866
 51
271.797134
  0
ARC
  5
1D1
100
AcDbEntity
  8
LAY-3
  6
CONTINUOUS
 62
     3
100
AcDbCircle
 10
179.427887
 20
152.335567
 30
0.0
 40
1.686396
100
AcDbArc
 50
268.202866
 51
271.797134
  0
LINE
  5
1D2
100
AcDbEntity
  8
LAY-3
  6
CONTINUOUS
 62
     3
100
AcDbLine
 10
180.125
 20
163.65
 30
0.0
 11
180.125
 21
150.65
 31
0.0
  0
ARC
  5
1D3
100
AcDbEntity
  8
LAY-3
  6
CONTINUOUS
 62
     3
100
AcDbCircle
 10
179.427887
 20
161.964433
 30
0.0
 40
1.686396
100
AcDbArc
 50
88.202866
 51
91.797134
  0
LINE
  5
1D4
100
AcDbEntity
  8
LAY-3
  6
CONTINUOUS
 62
     3
100
AcDbLine
 10
179.37
 20
163.65
 30
0.0
 11
180.125
 21
163.65
 31
0.0
  0
LINE
  5
1D5
100
AcDbEntity
  8
LAY-3
  6
CONTINUOUS
 62
     3
100
AcDbLine
 10
179.37
 20
150.65
 30
0.0
 11
180.125
 21
150.65
 31
0.0
  0
LINE
  5
1D6
100
AcDbEntity
  8
LAY-3
  6
CONTINUOUS
 62
     3
100
AcDbLine
 10
155.875
 20
163.65
 30
0.0
 11
155.125
 21
163.65
 31
0.0
  0
LINE
  5
1D7
100
AcDbEntity
  8
LAY-3
  6
CONTINUOUS
 62
     3
100
AcDbLine
 10
155.875
 20
150.65
 30
0.0
 11
155.125
 21
150.65
 31
0.0
  0
LINE
  5
1D8
100
AcDbEntity
  8
LAY-3
  6
CONTINUOUS
 62
     3
100
AcDbLine
 10
156.975
 20
165.4
 30
0.0
 11
156.975
 21
148.9
 31
0.0
  0
LINE
  5
1D9
100
AcDbEntity
  8
LAY-3
  6
CONTINUOUS
 62
     3
100
AcDbLine
 10
155.875
 20
148.9
 30
0.0
 11
156.975
 21
148.9
 31
0.0
  0
LINE
  5
1DA
100
AcDbEntity
  8
LAY-3
  6
CONTINUOUS
 62
     3
100
AcDbLine
 10
155.875
 20
165.4
 30
0.0
 11
156.975
 21
165.4
 31
0.0
  0
LINE
  5
1DB
100
AcDbEntity
  8
LAY-3
  6
CONTINUOUS
 62
     3
100
AcDbLine
 10
178.27
 20
165.4
 30
0.0
 11
178.27
 21
148.9
 31
0.0
  0
LINE
  5
1DC
100
AcDbEntity
  8
LAY-3
  6
CONTINUOUS
 62
     3
100
AcDbLine
 10
178.27
 20
148.9
 30
0.0
 11
179.37
 21
148.9
 31
0.0
  0
LINE
  5
1DD
100
AcDbEntity
  8
LAY-3
  6
CONTINUOUS
 62
     3
100
AcDbLine
 10
178.27
 20
165.4
 30
0.0
 11
179.37
 21
165.4
 31
0.0
  0
LINE
  5
1DE
100
AcDbEntity
  8
LAY-3
  6
CONTINUOUS
 62
     3
100
AcDbLine
 10
156.975
 20
151.65
 30
0.0
 11
178.27
 21
151.65
 31
0.0
  0
LINE
  5
1DF
100
AcDbEntity
  8
LAY-3
  6
CONTINUOUS
 62
     3
100
AcDbLine
 10
156.975
 20
162.65
 30
0.0
 11
178.27
 21
162.65
 31
0.0
  0
LINE
  5
1E0
100
AcDbEntity
  8
LAY-3
  6
CONTINUOUS
 62
     3
100
AcDbLine
 10
68.127143
 20
155.7
 30
0.0
 11
68.132143
 21
155.7
 31
0.0
  0
LINE
  5
1E1
100
AcDbEntity
  8
LAY-3
  6
CONTINUOUS
 62
     3
100
AcDbLine
 10
68.127143
 20
158.6
 30
0.0
 11
68.132143
 21
158.6
 31
0.0
  0
LINE
  5
1E2
100
AcDbEntity
  8
LAY-3
  6
CONTINUOUS
 62
     3
100
AcDbLine
 10
68.127143
 20
155.15
 30
0.0
 11
68.132143
 21
155.15
 31
0.0
  0
LINE
  5
1E3
100
AcDbEntity
  8
LAY-3
  6
CONTINUOUS
 62
     3
100
AcDbLine
 10
68.127143
 20
159.15
 30
0.0
 11
68.132143
 21
159.15
 31
0.0
  0
LINE
  5
1E4
100
AcDbEntity
  8
LAY-3
  6
CONTINUOUS
 62
     3
100
AcDbLine
 10
68.127143
 20
159.55
 30
0.0
 11
68.132143
 21
159.55
 31
0.0
  0
LINE
  5
1E5
100
AcDbEntity
  8
LAY-3
  6
CONTINUOUS
 62
     3
100
AcDbLine
 10
68.127143
 20
154.75
 30
0.0
 11
68.132143
 21
154.75
 31
0.0
  0
LINE
  5
1E6
100
AcDbEntity
  8
LAY-3
  6
CONTINUOUS
 62
     3
100
AcDbLine
 10
68.127143
 20
154.275
 30
0.0
 11
68.132143
 21
154.275
 31
0.0
  0
LINE
  5
1E7
100
AcDbEntity
  8
LAY-3
  6
CONTINUOUS
 62
     3
100
AcDbLine
 10
68.127143
 20
160.025
 30
0.0
 11
68.132143
 21
160.025
 31
0.0
  0
LINE
  5
1E8
100
AcDbEntity
  8
LAY-3
  6
CONTINUOUS
 62
     3
100
AcDbLine
 10
68.127143
 20
154.025
 30
0.0
 11
68.132143
 21
154.025
 31
0.0
  0
LINE
  5
1E9
100
AcDbEntity
  8
LAY-3
  6
CONTINUOUS
 62
     3
100
AcDbLine
 10
68.127143
 20
160.275
 30
0.0
 11
68.132143
 21
160.275
 31
0.0
  0
LINE
  5
1EA
100
AcDbEntity
  8
LAY-3
  6
CONTINUOUS
 62
     3
100
AcDbLine
 10
68.127143
 20
160.95
 30
0.0
 11
68.132143
 21
160.95
 31
0.0
  0
LINE
  5
1EB
100
AcDbEntity
  8
LAY-3
  6
CONTINUOUS
 62
     3
100
AcDbLine
 10
68.127143
 20
153.35
 30
0.0
 11
68.132143
 21
153.35
 31
0.0
  0
LINE
  5
1EC
100
AcDbEntity
  8
LAY-3
  6
CONTINUOUS
 62
     3
100
AcDbLine
 10
68.127143
 20
161.7
 30
0.0
 11
68.132143
 21
161.7
 31
0.0
  0
LINE
  5
1ED
100
AcDbEntity
  8
LAY-3
  6
CONTINUOUS
 62
     3
100
AcDbLine
 10
68.127143
 20
152.6
 30
0.0
 11
68.132143
 21
152.6
 31
0.0
  0
LINE
  5
1EE
100
AcDbEntity
  8
LAY-3
  6
CONTINUOUS
 62
     3
100
AcDbLine
 10
68.127143
 20
164.15
 30
0.0
 11
68.127143
 21
150.15
 31
0.0
  0
LINE
  5
1EF
100
AcDbEntity
  8
LAY-3
  6
CONTINUOUS
 62
     3
100
AcDbLine
 10
44.632143
 20
164.15
 30
0.0
 11
44.632143
 21
150.15
 31
0.0
  0
ARC
  5
1F0
100
AcDbEntity
  8
LAY-3
  6
CONTINUOUS
 62
     3
100
AcDbCircle
 10
44.579256
 20
160.764433
 30
0.0
 40
1.686396
100
AcDbArc
 50
88.202866
 51
91.797134
  0
ARC
  5
1F1
100
AcDbEntity
  8
LAY-3
  6
CONTINUOUS
 62
     3
100
AcDbCircle
 10
44.579256
 20
153.535567
 30
0.0
 40
1.686396
100
AcDbArc
 50
268.202866
 51
271.797134
  0
ARC
  5
1F2
100
AcDbEntity
  8
LAY-3
  6
CONTINUOUS
 62
     3
100
AcDbCircle
 10
68.18503
 20
153.535567
 30
0.0
 40
1.686396
100
AcDbArc
 50
268.202866
 51
271.797134
  0
LINE
  5
1F3
100
AcDbEntity
  8
LAY-3
  6
CONTINUOUS
 62
     3
100
AcDbLine
 10
68.882143
 20
162.45
 30
0.0
 11
68.882143
 21
151.85
 31
0.0
  0
ARC
  5
1F4
100
AcDbEntity
  8
LAY-3
  6
CONTINUOUS
 62
     3
100
AcDbCircle
 10
68.18503
 20
160.764433
 30
0.0
 40
1.686396
100
AcDbArc
 50
88.202866
 51
91.797134
  0
LINE
  5
1F5
100
AcDbEntity
  8
LAY-3
  6
CONTINUOUS
 62
     3
100
AcDbLine
 10
43.882143
 20
162.45
 30
0.0
 11
43.882143
 21
151.85
 31
0.0
  0
LINE
  5
1F6
100
AcDbEntity
  8
LAY-3
  6
CONTINUOUS
 62
     3
100
AcDbLine
 10
68.127143
 20
162.45
 30
0.0
 11
68.882143
 21
162.45
 31
0.0
  0
LINE
  5
1F7
100
AcDbEntity
  8
LAY-3
  6
CONTINUOUS
 62
     3
100
AcDbLine
 10
68.127143
 20
151.85
 30
0.0
 11
68.882143
 21
151.85
 31
0.0
  0
LINE
  5
1F8
100
AcDbEntity
  8
LAY-3
  6
CONTINUOUS
 62
     3
100
AcDbLine
 10
44.632143
 20
162.45
 30
0.0
 11
43.882143
 21
162.45
 31
0.0
  0
LINE
  5
1F9
100
AcDbEntity
  8
LAY-3
  6
CONTINUOUS
 62
     3
100
AcDbLine
 10
44.632143
 20
151.85
 30
0.0
 11
43.882143
 21
151.85
 31
0.0
  0
LINE
  5
1FA
100
AcDbEntity
  8
LAY-3
  6
CONTINUOUS
 62
     3
100
AcDbLine
 10
45.732143
 20
164.15
 30
0.0
 11
45.732143
 21
150.15
 31
0.0
  0
LINE
  5
1FB
100
AcDbEntity
  8
LAY-3
  6
CONTINUOUS
 62
     3
100
AcDbLine
 10
45.732143
 20
164.15
 30
0.0
 11
44.632143
 21
164.15
 31
0.0
  0
LINE
  5
1FC
100
AcDbEntity
  8
LAY-3
  6
CONTINUOUS
 62
     3
100
AcDbLine
 10
44.632143
 20
150.15
 30
0.0
 11
45.732143
 21
150.15
 31
0.0
  0
LINE
  5
1FD
100
AcDbEntity
  8
LAY-3
  6
CONTINUOUS
 62
     3
100
AcDbLine
 10
67.027143
 20
164.15
 30
0.0
 11
67.027143
 21
150.15
 31
0.0
  0
LINE
  5
1FE
100
AcDbEntity
  8
LAY-3
  6
CONTINUOUS
 62
     3
100
AcDbLine
 10
67.027143
 20
164.15
 30
0.0
 11
68.127143
 21
164.15
 31
0.0
  0
LINE
  5
1FF
100
AcDbEntity
  8
LAY-3
  6
CONTINUOUS
 62
     3
100
AcDbLine
 10
67.027143
 20
150.15
 30
0.0
 11
68.127143
 21
150.15
 31
0.0
  0
LINE
  5
200
100
AcDbEntity
  8
LAY-3
  6
CONTINUOUS
 62
     3
100
AcDbLine
 10
45.732143
 20
161.4
 30
0.0
 11
67.027143
 21
161.4
 31
0.0
  0
LINE
  5
201
100
AcDbEntity
  8
LAY-3
  6
CONTINUOUS
 62
     3
100
AcDbLine
 10
45.732143
 20
152.9
 30
0.0
 11
67.027143
 21
152.9
 31
0.0
  0
LINE
  5
202
100
AcDbEntity
  8
LAY-3
  6
CONTINUOUS
 62
     3
100
AcDbLine
 10
344.462857
 20
193.2
 30
0.0
 11
344.467857
 21
193.2
 31
0.0
  0
LINE
  5
203
100
AcDbEntity
  8
LAY-3
  6
CONTINUOUS
 62
     3
100
AcDbLine
 10
344.462857
 20
196.1
 30
0.0
 11
344.467857
 21
196.1
 31
0.0
  0
LINE
  5
204
100
AcDbEntity
  8
LAY-3
  6
CONTINUOUS
 62
     3
100
AcDbLine
 10
344.462857
 20
192.65
 30
0.0
 11
344.467857
 21
192.65
 31
0.0
  0
LINE
  5
205
100
AcDbEntity
  8
LAY-3
  6
CONTINUOUS
 62
     3
100
AcDbLine
 10
344.462857
 20
196.65
 30
0.0
 11
344.467857
 21
196.65
 31
0.0
  0
LINE
  5
206
100
AcDbEntity
  8
LAY-3
  6
CONTINUOUS
 62
     3
100
AcDbLine
 10
344.462857
 20
197.05
 30
0.0
 11
344.467857
 21
197.05
 31
0.0
  0
LINE
  5
207
100
AcDbEntity
  8
LAY-3
  6
CONTINUOUS
 62
     3
100
AcDbLine
 10
344.462857
 20
192.25
 30
0.0
 11
344.467857
 21
192.25
 31
0.0
  0
LINE
  5
208
100
AcDbEntity
  8
LAY-3
  6
CONTINUOUS
 62
     3
100
AcDbLine
 10
344.462857
 20
191.775
 30
0.0
 11
344.467857
 21
191.775
 31
0.0
  0
LINE
  5
209
100
AcDbEntity
  8
LAY-3
  6
CONTINUOUS
 62
     3
100
AcDbLine
 10
344.462857
 20
197.525
 30
0.0
 11
344.467857
 21
197.525
 31
0.0
  0
LINE
  5
20A
100
AcDbEntity
  8
LAY-3
  6
CONTINUOUS
 62
     3
100
AcDbLine
 10
344.462857
 20
191.525
 30
0.0
 11
344.467857
 21
191.525
 31
0.0
  0
LINE
  5
20B
100
AcDbEntity
  8
LAY-3
  6
CONTINUOUS
 62
     3
100
AcDbLine
 10
344.462857
 20
197.775
 30
0.0
 11
344.467857
 21
197.775
 31
0.0
  0
LINE
  5
20C
100
AcDbEntity
  8
LAY-3
  6
CONTINUOUS
 62
     3
100
AcDbLine
 10
344.462857
 20
198.45
 30
0.0
 11
344.467857
 21
198.45
 31
0.0
  0
LINE
  5
20D
100
AcDbEntity
  8
LAY-3
  6
CONTINUOUS
 62
     3
100
AcDbLine
 10
344.462857
 20
190.85
 30
0.0
 11
344.467857
 21
190.85
 31
0.0
  0
LINE
  5
20E
100
AcDbEntity
  8
LAY-3
  6
CONTINUOUS
 62
     3
100
AcDbLine
 10
325.467857
 20
200.9
 30
0.0
 11
325.467857
 21
188.4
 31
0.0
  0
ARC
  5
20F
100
AcDbEntity
  8
LAY-3
  6
CONTINUOUS
 62
     3
100
AcDbCircle
 10
344.501385
 20
198.403427
 30
0.0
 40
0.797278
100
AcDbArc
 50
87.589811
 51
92.410189
  0
LINE
  5
210
100
AcDbEntity
  8
LAY-3
  6
CONTINUOUS
 62
     3
100
AcDbLine
 10
344.967857
 20
199.2
 30
0.0
 11
344.967857
 21
190.1
 31
0.0
  0
ARC
  5
211
100
AcDbEntity
  8
LAY-3
  6
CONTINUOUS
 62
     3
100
AcDbCircle
 10
344.501385
 20
190.896573
 30
0.0
 40
0.797278
100
AcDbArc
 50
267.589811
 51
272.410189
  0
ARC
  5
212
100
AcDbEntity
  8
LAY-3
  6
CONTINUOUS
 62
     3
100
AcDbCircle
 10
325.434329
 20
190.896573
 30
0.0
 40
0.797278
100
AcDbArc
 50
267.589811
 51
272.410189
  0
LINE
  5
213
100
AcDbEntity
  8
LAY-3
  6
CONTINUOUS
 62
     3
100
AcDbLine
 10
324.967857
 20
199.2
 30
0.0
 11
324.967857
 21
190.1
 31
0.0
  0
ARC
  5
214
100
AcDbEntity
  8
LAY-3
  6
CONTINUOUS
 62
     3
100
AcDbCircle
 10
325.434329
 20
198.403427
 30
0.0
 40
0.797278
100
AcDbArc
 50
87.589811
 51
92.410189
  0
LINE
  5
215
100
AcDbEntity
  8
LAY-3
  6
CONTINUOUS
 62
     3
100
AcDbLine
 10
344.462857
 20
200.9
 30
0.0
 11
344.462857
 21
188.4
 31
0.0
  0
LINE
  5
216
100
AcDbEntity
  8
LAY-3
  6
CONTINUOUS
 62
     3
100
AcDbLine
 10
344.462857
 20
199.2
 30
0.0
 11
344.967857
 21
199.2
 31
0.0
  0
LINE
  5
217
100
AcDbEntity
  8
LAY-3
  6
CONTINUOUS
 62
     3
100
AcDbLine
 10
344.462857
 20
190.1
 30
0.0
 11
344.967857
 21
190.1
 31
0.0
  0
LINE
  5
218
100
AcDbEntity
  8
LAY-3
  6
CONTINUOUS
 62
     3
100
AcDbLine
 10
325.467857
 20
190.1
 30
0.0
 11
324.967857
 21
190.1
 31
0.0
  0
LINE
  5
219
100
AcDbEntity
  8
LAY-3
  6
CONTINUOUS
 62
     3
100
AcDbLine
 10
325.467857
 20
199.2
 30
0.0
 11
324.967857
 21
199.2
 31
0.0
  0
LINE
  5
21A
100
AcDbEntity
  8
LAY-3
  6
CONTINUOUS
 62
     3
100
AcDbLine
 10
326.467857
 20
200.9
 30
0.0
 11
326.467857
 21
188.4
 31
0.0
  0
LINE
  5
21B
100
AcDbEntity
  8
LAY-3
  6
CONTINUOUS
 62
     3
100
AcDbLine
 10
325.467857
 20
200.9
 30
0.0
 11
326.467857
 21
200.9
 31
0.0
  0
LINE
  5
21C
100
AcDbEntity
  8
LAY-3
  6
CONTINUOUS
 62
     3
100
AcDbLine
 10
326.467857
 20
188.4
 30
0.0
 11
325.467857
 21
188.4
 31
0.0
  0
LINE
  5
21D
100
AcDbEntity
  8
LAY-3
  6
CONTINUOUS
 62
     3
100
AcDbLine
 10
343.462857
 20
200.9
 30
0.0
 11
343.462857
 21
188.4
 31
0.0
  0
LINE
  5
21E
100
AcDbEntity
  8
LAY-3
  6
CONTINUOUS
 62
     3
100
AcDbLine
 10
326.467857
 20
198.275
 30
0.0
 11
343.462857
 21
198.275
 31
0.0
  0
LINE
  5
21F
100
AcDbEntity
  8
LAY-3
  6
CONTINUOUS
 62
     3
100
AcDbLine
 10
326.467857
 20
191.025
 30
0.0
 11
343.462857
 21
191.025
 31
0.0
  0
LINE
  5
220
100
AcDbEntity
  8
LAY-3
  6
CONTINUOUS
 62
     3
100
AcDbLine
 10
343.462857
 20
188.4
 30
0.0
 11
344.462857
 21
188.4
 31
0.0
  0
LINE
  5
221
100
AcDbEntity
  8
LAY-3
  6
CONTINUOUS
 62
     3
100
AcDbLine
 10
344.462857
 20
200.9
 30
0.0
 11
343.462857
 21
200.9
 31
0.0
  0
LINE
  5
222
100
AcDbEntity
  8
LAY-3
  6
EXLTYPE3
 62
     1
100
AcDbLine
 10
47.345714
 20
232.15
 30
0.0
 11
64.810714
 21
232.15
 31
0.0
  0
LINE
  5
223
100
AcDbEntity
  8
LAY-3
  6
CONTINUOUS
 62
     3
100
AcDbLine
 10
48.560714
 20
233.45
 30
0.0
 11
48.560714
 21
230.85
 31
0.0
  0
LINE
  5
224
100
AcDbEntity
  8
LAY-3
  6
CONTINUOUS
 62
     3
100
AcDbLine
 10
63.560714
 20
233.45
 30
0.0
 11
63.560714
 21
230.85
 31
0.0
  0
LINE
  5
225
100
AcDbEntity
  8
LAY-3
  6
CONTINUOUS
 62
     3
100
AcDbLine
 10
48.710714
 20
234.65
 30
0.0
 11
48.710714
 21
229.65
 31
0.0
  0
LINE
  5
226
100
AcDbEntity
  8
LAY-3
  6
CONTINUOUS
 62
     3
100
AcDbLine
 10
49.410714
 20
234.65
 30
0.0
 11
49.410714
 21
229.65
 31
0.0
  0
LINE
  5
227
100
AcDbEntity
  8
LAY-3
  6
CONTINUOUS
 62
     3
100
AcDbLine
 10
48.710714
 20
234.65
 30
0.0
 11
49.410714
 21
234.65
 31
0.0
  0
LINE
  5
228
100
AcDbEntity
  8
LAY-3
  6
CONTINUOUS
 62
     3
100
AcDbLine
 10
48.710714
 20
229.65
 30
0.0
 11
49.410714
 21
229.65
 31
0.0
  0
LINE
  5
229
100
AcDbEntity
  8
LAY-3
  6
CONTINUOUS
 62
     3
100
AcDbLine
 10
62.705714
 20
234.65
 30
0.0
 11
63.310714
 21
234.65
 31
0.0
  0
LINE
  5
22A
100
AcDbEntity
  8
LAY-3
  6
CONTINUOUS
 62
     3
100
AcDbLine
 10
63.405714
 20
230.7
 30
0.0
 11
63.410714
 21
230.7
 31
0.0
  0
LINE
  5
22B
100
AcDbEntity
  8
LAY-3
  6
CONTINUOUS
 62
     3
100
AcDbLine
 10
63.405714
 20
233.6
 30
0.0
 11
63.410714
 21
233.6
 31
0.0
  0
LINE
  5
22C
100
AcDbEntity
  8
LAY-3
  6
CONTINUOUS
 62
     3
100
AcDbLine
 10
62.705714
 20
229.65
 30
0.0
 11
63.310714
 21
229.65
 31
0.0
  0
LINE
  5
22D
100
AcDbEntity
  8
LAY-3
  6
CONTINUOUS
 62
     3
100
AcDbLine
 10
49.660714
 20
233.275
 30
0.0
 11
62.360714
 21
233.275
 31
0.0
  0
LINE
  5
22E
100
AcDbEntity
  8
LAY-3
  6
CONTINUOUS
 62
     3
100
AcDbLine
 10
49.660714
 20
231.025
 30
0.0
 11
62.360714
 21
231.025
 31
0.0
  0
LINE
  5
22F
100
AcDbEntity
  8
LAY-3
  6
CONTINUOUS
 62
     3
100
AcDbLine
 10
49.660714
 20
233.275
 30
0.0
 11
49.660714
 21
231.025
 31
0.0
  0
LINE
  5
230
100
AcDbEntity
  8
LAY-3
  6
CONTINUOUS
 62
     3
100
AcDbLine
 10
49.430714
 20
231.275
 30
0.0
 11
49.660714
 21
231.275
 31
0.0
  0
LINE
  5
231
100
AcDbEntity
  8
LAY-3
  6
CONTINUOUS
 62
     3
100
AcDbLine
 10
49.420714
 20
233.025
 30
0.0
 11
49.660714
 21
233.025
 31
0.0
  0
LINE
  5
232
100
AcDbEntity
  8
LAY-3
  6
CONTINUOUS
 62
     3
100
AcDbLine
 10
62.455714
 20
233.025
 30
0.0
 11
62.705714
 21
233.025
 31
0.0
  0
LINE
  5
233
100
AcDbEntity
  8
LAY-3
  6
CONTINUOUS
 62
     3
100
AcDbLine
 10
62.455714
 20
231.275
 30
0.0
 11
62.610714
 21
231.275
 31
0.0
  0
ARC
  5
234
100
AcDbEntity
  8
LAY-3
  6
CONTINUOUS
 62
     3
100
AcDbCircle
 10
63.410714
 20
233.45
 30
0.0
 40
0.15
100
AcDbArc
 50
0.0
 51
90.0
  0
ARC
  5
235
100
AcDbEntity
  8
LAY-3
  6
CONTINUOUS
 62
     3
100
AcDbCircle
 10
63.410714
 20
230.85
 30
0.0
 40
0.15
100
AcDbArc
 50
270.0
 51
0.0
  0
ARC
  5
236
100
AcDbEntity
  8
LAY-3
  6
CONTINUOUS
 62
     3
100
AcDbCircle
 10
48.710714
 20
230.85
 30
0.0
 40
0.15
100
AcDbArc
 50
180.0
 51
270.0
  0
ARC
  5
237
100
AcDbEntity
  8
LAY-3
  6
CONTINUOUS
 62
     3
100
AcDbCircle
 10
48.710714
 20
233.45
 30
0.0
 40
0.15
100
AcDbArc
 50
90.0
 51
180.0
  0
LINE
  5
238
100
AcDbEntity
  8
LAY-3
  6
CONTINUOUS
 62
     3
100
AcDbLine
 10
63.405714
 20
234.65
 30
0.0
 11
63.405714
 21
229.65
 31
0.0
  0
LINE
  5
239
100
AcDbEntity
  8
LAY-3
  6
CONTINUOUS
 62
     3
100
AcDbLine
 10
62.705714
 20
234.65
 30
0.0
 11
62.705714
 21
229.65
 31
0.0
  0
LINE
  5
23A
100
AcDbEntity
  8
LAY-3
  6
CONTINUOUS
 62
     3
100
AcDbLine
 10
62.455714
 20
233.275
 30
0.0
 11
62.455714
 21
231.025
 31
0.0
  0
LINE
  5
23B
100
AcDbEntity
  8
LAY-3
  6
CONTINUOUS
 62
     3
100
AcDbLine
 10
63.310714
 20
234.65
 30
0.0
 11
63.405714
 21
234.65
 31
0.0
  0
LINE
  5
23C
100
AcDbEntity
  8
LAY-3
  6
CONTINUOUS
 62
     3
100
AcDbLine
 10
63.310714
 20
229.65
 30
0.0
 11
63.405714
 21
229.65
 31
0.0
  0
LINE
  5
23D
100
AcDbEntity
  8
LAY-3
  6
CONTINUOUS
 62
     3
100
AcDbLine
 10
62.610714
 20
231.275
 30
0.0
 11
62.710714
 21
231.275
 31
0.0
  0
LINE
  5
23E
100
AcDbEntity
  8
LAY-3
  6
CONTINUOUS
 62
     3
100
AcDbLine
 10
62.360714
 20
233.275
 30
0.0
 11
62.455714
 21
233.275
 31
0.0
  0
LINE
  5
23F
100
AcDbEntity
  8
LAY-3
  6
CONTINUOUS
 62
     3
100
AcDbLine
 10
62.360714
 20
231.025
 30
0.0
 11
62.455714
 21
231.025
 31
0.0
  0
LINE
  5
240
100
AcDbEntity
  8
LAY-3
  6
CONTINUOUS
 62
     3
100
AcDbLine
 10
104.503393
 20
233.3
 30
0.0
 11
104.503393
 21
230.7
 31
0.0
  0
LINE
  5
241
100
AcDbEntity
  8
LAY-3
  6
CONTINUOUS
 62
     3
100
AcDbLine
 10
119.503393
 20
233.3
 30
0.0
 11
119.503393
 21
230.7
 31
0.0
  0
LINE
  5
242
100
AcDbEntity
  8
LAY-3
  6
CONTINUOUS
 62
     3
100
AcDbLine
 10
104.653393
 20
235.125
 30
0.0
 11
104.653393
 21
228.875
 31
0.0
  0
LINE
  5
243
100
AcDbEntity
  8
LAY-3
  6
CONTINUOUS
 62
     3
100
AcDbLine
 10
105.353393
 20
235.125
 30
0.0
 11
105.353393
 21
228.875
 31
0.0
  0
LINE
  5
244
100
AcDbEntity
  8
LAY-3
  6
CONTINUOUS
 62
     3
100
AcDbLine
 10
119.348393
 20
230.55
 30
0.0
 11
119.353393
 21
230.55
 31
0.0
  0
LINE
  5
245
100
AcDbEntity
  8
LAY-3
  6
CONTINUOUS
 62
     3
100
AcDbLine
 10
119.348393
 20
233.45
 30
0.0
 11
119.353393
 21
233.45
 31
0.0
  0
ARC
  5
246
100
AcDbEntity
  8
LAY-3
  6
CONTINUOUS
 62
     3
100
AcDbCircle
 10
119.353393
 20
233.3
 30
0.0
 40
0.15
100
AcDbArc
 50
0.0
 51
90.0
  0
ARC
  5
247
100
AcDbEntity
  8
LAY-3
  6
CONTINUOUS
 62
     3
100
AcDbCircle
 10
119.353393
 20
230.7
 30
0.0
 40
0.15
100
AcDbArc
 50
270.0
 51
0.0
  0
ARC
  5
248
100
AcDbEntity
  8
LAY-3
  6
CONTINUOUS
 62
     3
100
AcDbCircle
 10
104.653393
 20
230.7
 30
0.0
 40
0.15
100
AcDbArc
 50
180.0
 51
270.0
  0
ARC
  5
249
100
AcDbEntity
  8
LAY-3
  6
CONTINUOUS
 62
     3
100
AcDbCircle
 10
104.653393
 20
233.3
 30
0.0
 40
0.15
100
AcDbArc
 50
90.0
 51
180.0
  0
LINE
  5
24A
100
AcDbEntity
  8
LAY-3
  6
CONTINUOUS
 62
     3
100
AcDbLine
 10
119.348393
 20
235.125
 30
0.0
 11
119.348393
 21
228.875
 31
0.0
  0
LINE
  5
24B
100
AcDbEntity
  8
LAY-3
  6
CONTINUOUS
 62
     3
100
AcDbLine
 10
118.648393
 20
235.125
 30
0.0
 11
118.648393
 21
228.875
 31
0.0
  0
LINE
  5
24C
100
AcDbEntity
  8
LAY-3
  6
CONTINUOUS
 62
     3
100
AcDbLine
 10
118.648393
 20
235.125
 30
0.0
 11
119.348393
 21
235.125
 31
0.0
  0
LINE
  5
24D
100
AcDbEntity
  8
LAY-3
  6
CONTINUOUS
 62
     3
100
AcDbLine
 10
118.648393
 20
228.875
 30
0.0
 11
119.348393
 21
228.875
 31
0.0
  0
LINE
  5
24E
100
AcDbEntity
  8
LAY-3
  6
CONTINUOUS
 62
     3
100
AcDbLine
 10
104.653393
 20
228.875
 30
0.0
 11
105.353393
 21
228.875
 31
0.0
  0
LINE
  5
24F
100
AcDbEntity
  8
LAY-3
  6
CONTINUOUS
 62
     3
100
AcDbLine
 10
104.653393
 20
235.125
 30
0.0
 11
105.353393
 21
235.125
 31
0.0
  0
LINE
  5
250
100
AcDbEntity
  8
LAY-3
  6
CONTINUOUS
 62
     3
100
AcDbLine
 10
105.558393
 20
233.125
 30
0.0
 11
118.258393
 21
233.125
 31
0.0
  0
LINE
  5
251
100
AcDbEntity
  8
LAY-3
  6
CONTINUOUS
 62
     3
100
AcDbLine
 10
105.558393
 20
230.875
 30
0.0
 11
118.258393
 21
230.875
 31
0.0
  0
LINE
  5
252
100
AcDbEntity
  8
LAY-3
  6
CONTINUOUS
 62
     3
100
AcDbLine
 10
105.558393
 20
233.125
 30
0.0
 11
105.558393
 21
230.875
 31
0.0
  0
LINE
  5
253
100
AcDbEntity
  8
LAY-3
  6
CONTINUOUS
 62
     3
100
AcDbLine
 10
105.353393
 20
231.125
 30
0.0
 11
105.558393
 21
231.125
 31
0.0
  0
LINE
  5
254
100
AcDbEntity
  8
LAY-3
  6
CONTINUOUS
 62
     3
100
AcDbLine
 10
118.353393
 20
231.125
 30
0.0
 11
118.648393
 21
231.125
 31
0.0
  0
LINE
  5
255
100
AcDbEntity
  8
LAY-3
  6
CONTINUOUS
 62
     3
100
AcDbLine
 10
118.353393
 20
233.125
 30
0.0
 11
118.353393
 21
230.875
 31
0.0
  0
LINE
  5
256
100
AcDbEntity
  8
LAY-3
  6
CONTINUOUS
 62
     3
100
AcDbLine
 10
118.353393
 20
232.875
 30
0.0
 11
118.648393
 21
232.875
 31
0.0
  0
LINE
  5
257
100
AcDbEntity
  8
LAY-3
  6
CONTINUOUS
 62
     3
100
AcDbLine
 10
118.258393
 20
233.125
 30
0.0
 11
118.353393
 21
233.125
 31
0.0
  0
LINE
  5
258
100
AcDbEntity
  8
LAY-3
  6
CONTINUOUS
 62
     3
100
AcDbLine
 10
118.258393
 20
230.875
 30
0.0
 11
118.353393
 21
230.875
 31
0.0
  0
LINE
  5
259
100
AcDbEntity
  8
LAY-3
  6
CONTINUOUS
 62
     3
100
AcDbLine
 10
105.353393
 20
232.875
 30
0.0
 11
105.558393
 21
232.875
 31
0.0
  0
LINE
  5
25A
100
AcDbEntity
  8
LAY-3
  6
EXLTYPE3
 62
     1
100
AcDbLine
 10
103.363393
 20
232.0
 30
0.0
 11
120.363393
 21
232.0
 31
0.0
  0
LINE
  5
25B
100
AcDbEntity
  8
LAY-3
  6
CONTINUOUS
 62
     3
100
AcDbLine
 10
159.772321
 20
234.0
 30
0.0
 11
159.772321
 21
230.3
 31
0.0
  0
LINE
  5
25C
100
AcDbEntity
  8
LAY-3
  6
CONTINUOUS
 62
     3
100
AcDbLine
 10
174.772321
 20
234.0
 30
0.0
 11
174.772321
 21
230.3
 31
0.0
  0
LINE
  5
25D
100
AcDbEntity
  8
LAY-3
  6
CONTINUOUS
 62
     3
100
AcDbLine
 10
159.922321
 20
235.55
 30
0.0
 11
159.922321
 21
228.75
 31
0.0
  0
LINE
  5
25E
100
AcDbEntity
  8
LAY-3
  6
CONTINUOUS
 62
     3
100
AcDbLine
 10
174.617321
 20
230.7
 30
0.0
 11
174.622321
 21
230.7
 31
0.0
  0
LINE
  5
25F
100
AcDbEntity
  8
LAY-3
  6
CONTINUOUS
 62
     3
100
AcDbLine
 10
174.617321
 20
233.6
 30
0.0
 11
174.622321
 21
233.6
 31
0.0
  0
LINE
  5
260
100
AcDbEntity
  8
LAY-3
  6
CONTINUOUS
 62
     3
100
AcDbLine
 10
174.617321
 20
235.55
 30
0.0
 11
174.617321
 21
228.75
 31
0.0
  0
LINE
  5
261
100
AcDbEntity
  8
LAY-3
  6
CONTINUOUS
 62
     3
100
AcDbLine
 10
159.922321
 20
235.55
 30
0.0
 11
160.722321
 21
235.55
 31
0.0
  0
LINE
  5
262
100
AcDbEntity
  8
LAY-3
  6
CONTINUOUS
 62
     3
100
AcDbLine
 10
159.922321
 20
228.75
 30
0.0
 11
160.722321
 21
228.75
 31
0.0
  0
LINE
  5
263
100
AcDbEntity
  8
LAY-3
  6
CONTINUOUS
 62
     3
100
AcDbLine
 10
174.617321
 20
235.55
 30
0.0
 11
173.817321
 21
235.55
 31
0.0
  0
LINE
  5
264
100
AcDbEntity
  8
LAY-3
  6
CONTINUOUS
 62
     3
100
AcDbLine
 10
174.617321
 20
228.75
 30
0.0
 11
173.817321
 21
228.75
 31
0.0
  0
LINE
  5
265
100
AcDbEntity
  8
LAY-3
  6
CONTINUOUS
 62
     3
100
AcDbLine
 10
160.722321
 20
235.55
 30
0.0
 11
160.722321
 21
228.75
 31
0.0
  0
LINE
  5
266
100
AcDbEntity
  8
LAY-3
  6
CONTINUOUS
 62
     3
100
AcDbLine
 10
173.817321
 20
235.55
 30
0.0
 11
173.817321
 21
228.75
 31
0.0
  0
LINE
  5
267
100
AcDbEntity
  8
LAY-3
  6
CONTINUOUS
 62
     3
100
AcDbLine
 10
173.567321
 20
233.65
 30
0.0
 11
173.567321
 21
230.65
 31
0.0
  0
LINE
  5
268
100
AcDbEntity
  8
LAY-3
  6
CONTINUOUS
 62
     3
100
AcDbLine
 10
160.972321
 20
233.65
 30
0.0
 11
160.972321
 21
230.65
 31
0.0
  0
LINE
  5
269
100
AcDbEntity
  8
LAY-3
  6
CONTINUOUS
 62
     3
100
AcDbLine
 10
174.617321
 20
230.15
 30
0.0
 11
174.622321
 21
230.15
 31
0.0
  0
LINE
  5
26A
100
AcDbEntity
  8
LAY-3
  6
CONTINUOUS
 62
     3
100
AcDbLine
 10
174.617321
 20
234.15
 30
0.0
 11
174.622321
 21
234.15
 31
0.0
  0
ARC
  5
26B
100
AcDbEntity
  8
LAY-3
  6
CONTINUOUS
 62
     3
100
AcDbCircle
 10
159.922321
 20
230.3
 30
0.0
 40
0.15
100
AcDbArc
 50
180.0
 51
270.0
  0
ARC
  5
26C
100
AcDbEntity
  8
LAY-3
  6
CONTINUOUS
 62
     3
100
AcDbCircle
 10
174.622321
 20
230.3
 30
0.0
 40
0.15
100
AcDbArc
 50
270.0
 51
0.0
  0
ARC
  5
26D
100
AcDbEntity
  8
LAY-3
  6
CONTINUOUS
 62
     3
100
AcDbCircle
 10
174.622321
 20
234.0
 30
0.0
 40
0.15
100
AcDbArc
 50
0.0
 51
90.0
  0
ARC
  5
26E
100
AcDbEntity
  8
LAY-3
  6
CONTINUOUS
 62
     3
100
AcDbCircle
 10
159.922321
 20
234.0
 30
0.0
 40
0.15
100
AcDbArc
 50
90.0
 51
180.0
  0
LINE
  5
26F
100
AcDbEntity
  8
LAY-3
  6
CONTINUOUS
 62
     3
100
AcDbLine
 10
160.972321
 20
233.65
 30
0.0
 11
173.567321
 21
233.65
 31
0.0
  0
LINE
  5
270
100
AcDbEntity
  8
LAY-3
  6
CONTINUOUS
 62
     3
100
AcDbLine
 10
160.972321
 20
230.65
 30
0.0
 11
173.567321
 21
230.65
 31
0.0
  0
LINE
  5
271
100
AcDbEntity
  8
LAY-3
  6
CONTINUOUS
 62
     3
100
AcDbLine
 10
160.722321
 20
233.4
 30
0.0
 11
160.972321
 21
233.4
 31
0.0
  0
LINE
  5
272
100
AcDbEntity
  8
LAY-3
  6
CONTINUOUS
 62
     3
100
AcDbLine
 10
173.567321
 20
233.4
 30
0.0
 11
173.817321
 21
233.4
 31
0.0
  0
LINE
  5
273
100
AcDbEntity
  8
LAY-3
  6
CONTINUOUS
 62
     3
100
AcDbLine
 10
160.722321
 20
230.9
 30
0.0
 11
160.972321
 21
230.9
 31
0.0
  0
LINE
  5
274
100
AcDbEntity
  8
LAY-3
  6
CONTINUOUS
 62
     3
100
AcDbLine
 10
173.567321
 20
230.9
 30
0.0
 11
173.817321
 21
230.9
 31
0.0
  0
LINE
  5
275
100
AcDbEntity
  8
LAY-3
  6
EXLTYPE3
 62
     1
100
AcDbLine
 10
158.992321
 20
232.15
 30
0.0
 11
175.662321
 21
232.15
 31
0.0
  0
LINE
  5
276
100
AcDbEntity
  8
LAY-3
  6
CONTINUOUS
 62
     3
100
AcDbLine
 10
347.472857
 20
230.7
 30
0.0
 11
347.477857
 21
230.7
 31
0.0
  0
LINE
  5
277
100
AcDbEntity
  8
LAY-3
  6
CONTINUOUS
 62
     3
100
AcDbLine
 10
347.472857
 20
233.6
 30
0.0
 11
347.477857
 21
233.6
 31
0.0
  0
LINE
  5
278
100
AcDbEntity
  8
LAY-3
  6
CONTINUOUS
 62
     3
100
AcDbLine
 10
347.472857
 20
230.15
 30
0.0
 11
347.477857
 21
230.15
 31
0.0
  0
LINE
  5
279
100
AcDbEntity
  8
LAY-3
  6
CONTINUOUS
 62
     3
100
AcDbLine
 10
347.472857
 20
234.15
 30
0.0
 11
347.477857
 21
234.15
 31
0.0
  0
LINE
  5
27A
100
AcDbEntity
  8
LAY-3
  6
CONTINUOUS
 62
     3
100
AcDbLine
 10
323.477857
 20
236.025
 30
0.0
 11
323.477857
 21
228.275
 31
0.0
  0
LINE
  5
27B
100
AcDbEntity
  8
LAY-3
  6
CONTINUOUS
 62
     3
100
AcDbLine
 10
324.277857
 20
236.025
 30
0.0
 11
324.277857
 21
228.275
 31
0.0
  0
LINE
  5
27C
100
AcDbEntity
  8
LAY-3
  6
CONTINUOUS
 62
     3
100
AcDbLine
 10
346.672857
 20
236.025
 30
0.0
 11
346.672857
 21
228.275
 31
0.0
  0
LINE
  5
27D
100
AcDbEntity
  8
LAY-3
  6
CONTINUOUS
 62
     3
100
AcDbLine
 10
347.472857
 20
236.025
 30
0.0
 11
347.472857
 21
228.275
 31
0.0
  0
LINE
  5
27E
100
AcDbEntity
  8
LAY-3
  6
CONTINUOUS
 62
     3
100
AcDbLine
 10
323.477857
 20
228.275
 30
0.0
 11
324.277857
 21
228.275
 31
0.0
  0
LINE
  5
27F
100
AcDbEntity
  8
LAY-3
  6
CONTINUOUS
 62
     3
100
AcDbLine
 10
346.672857
 20
228.275
 30
0.0
 11
347.472857
 21
228.275
 31
0.0
  0
LINE
  5
280
100
AcDbEntity
  8
LAY-3
  6
CONTINUOUS
 62
     3
100
AcDbLine
 10
346.672857
 20
236.025
 30
0.0
 11
347.472857
 21
236.025
 31
0.0
  0
LINE
  5
281
100
AcDbEntity
  8
LAY-3
  6
CONTINUOUS
 62
     3
100
AcDbLine
 10
323.477857
 20
236.025
 30
0.0
 11
324.277857
 21
236.025
 31
0.0
  0
ARC
  5
282
100
AcDbEntity
  8
LAY-3
  6
CONTINUOUS
 62
     3
100
AcDbCircle
 10
347.511385
 20
233.753427
 30
0.0
 40
0.797278
100
AcDbArc
 50
87.589811
 51
92.410189
  0
LINE
  5
283
100
AcDbEntity
  8
LAY-3
  6
CONTINUOUS
 62
     3
100
AcDbLine
 10
347.977857
 20
234.55
 30
0.0
 11
347.977857
 21
229.75
 31
0.0
  0
ARC
  5
284
100
AcDbEntity
  8
LAY-3
  6
CONTINUOUS
 62
     3
100
AcDbCircle
 10
347.511385
 20
230.546573
 30
0.0
 40
0.797278
100
AcDbArc
 50
267.589811
 51
272.410189
  0
ARC
  5
285
100
AcDbEntity
  8
LAY-3
  6
CONTINUOUS
 62
     3
100
AcDbCircle
 10
323.444329
 20
230.546573
 30
0.0
 40
0.797278
100
AcDbArc
 50
267.589811
 51
272.410189
  0
LINE
  5
286
100
AcDbEntity
  8
LAY-3
  6
CONTINUOUS
 62
     3
100
AcDbLine
 10
322.977857
 20
234.55
 30
0.0
 11
322.977857
 21
229.75
 31
0.0
  0
ARC
  5
287
100
AcDbEntity
  8
LAY-3
  6
CONTINUOUS
 62
     3
100
AcDbCircle
 10
323.444329
 20
233.753427
 30
0.0
 40
0.797278
100
AcDbArc
 50
87.589811
 51
92.410189
  0
LINE
  5
288
100
AcDbEntity
  8
LAY-3
  6
EXLTYPE3
 62
     1
100
AcDbLine
 10
321.867857
 20
232.15
 30
0.0
 11
348.727857
 21
232.15
 31
0.0
  0
LINE
  5
289
100
AcDbEntity
  8
LAY-3
  6
CONTINUOUS
 62
     3
100
AcDbLine
 10
324.277857
 20
230.4
 30
0.0
 11
346.672857
 21
230.4
 31
0.0
  0
LINE
  5
28A
100
AcDbEntity
  8
LAY-3
  6
CONTINUOUS
 62
     3
100
AcDbLine
 10
324.277857
 20
233.9
 30
0.0
 11
346.672857
 21
233.9
 31
0.0
  0
LINE
  5
28B
100
AcDbEntity
  8
LAY-3
  6
CONTINUOUS
 62
     3
100
AcDbLine
 10
323.477857
 20
234.55
 30
0.0
 11
322.977857
 21
234.55
 31
0.0
  0
LINE
  5
28C
100
AcDbEntity
  8
LAY-3
  6
CONTINUOUS
 62
     3
100
AcDbLine
 10
323.477857
 20
229.75
 30
0.0
 11
322.977857
 21
229.75
 31
0.0
  0
LINE
  5
28D
100
AcDbEntity
  8
LAY-3
  6
CONTINUOUS
 62
     3
100
AcDbLine
 10
347.472857
 20
234.55
 30
0.0
 11
347.977857
 21
234.55
 31
0.0
  0
LINE
  5
28E
100
AcDbEntity
  8
LAY-3
  6
CONTINUOUS
 62
     3
100
AcDbLine
 10
347.472857
 20
229.75
 30
0.0
 11
347.977857
 21
229.75
 31
0.0
  0
LINE
  5
28F
100
AcDbEntity
  8
LAY-3
  6
CONTINUOUS
 62
     3
100
AcDbLine
 10
286.491429
 20
230.7
 30
0.0
 11
286.496429
 21
230.7
 31
0.0
  0
LINE
  5
290
100
AcDbEntity
  8
LAY-3
  6
CONTINUOUS
 62
     3
100
AcDbLine
 10
286.491429
 20
233.6
 30
0.0
 11
286.496429
 21
233.6
 31
0.0
  0
LINE
  5
291
100
AcDbEntity
  8
LAY-3
  6
CONTINUOUS
 62
     3
100
AcDbLine
 10
286.491429
 20
230.15
 30
0.0
 11
286.496429
 21
230.15
 31
0.0
  0
LINE
  5
292
100
AcDbEntity
  8
LAY-3
  6
CONTINUOUS
 62
     3
100
AcDbLine
 10
286.491429
 20
234.15
 30
0.0
 11
286.496429
 21
234.15
 31
0.0
  0
LINE
  5
293
100
AcDbEntity
  8
LAY-3
  6
CONTINUOUS
 62
     3
100
AcDbLine
 10
286.646429
 20
234.4
 30
0.0
 11
286.646429
 21
229.9
 31
0.0
  0
LINE
  5
294
100
AcDbEntity
  8
LAY-3
  6
CONTINUOUS
 62
     3
100
AcDbLine
 10
271.646429
 20
234.4
 30
0.0
 11
271.646429
 21
229.9
 31
0.0
  0
LINE
  5
295
100
AcDbEntity
  8
LAY-3
  6
CONTINUOUS
 62
     3
100
AcDbLine
 10
272.846429
 20
233.9
 30
0.0
 11
272.846429
 21
230.4
 31
0.0
  0
LINE
  5
296
100
AcDbEntity
  8
LAY-3
  6
CONTINUOUS
 62
     3
100
AcDbLine
 10
285.441429
 20
233.9
 30
0.0
 11
285.441429
 21
230.4
 31
0.0
  0
LINE
  5
297
100
AcDbEntity
  8
LAY-3
  6
CONTINUOUS
 62
     3
100
AcDbLine
 10
286.491429
 20
236.025
 30
0.0
 11
286.491429
 21
228.275
 31
0.0
  0
LINE
  5
298
100
AcDbEntity
  8
LAY-3
  6
CONTINUOUS
 62
     3
100
AcDbLine
 10
285.691429
 20
236.025
 30
0.0
 11
285.691429
 21
228.275
 31
0.0
  0
LINE
  5
299
100
AcDbEntity
  8
LAY-3
  6
CONTINUOUS
 62
     3
100
AcDbLine
 10
271.796429
 20
236.025
 30
0.0
 11
271.796429
 21
228.275
 31
0.0
  0
LINE
  5
29A
100
AcDbEntity
  8
LAY-3
  6
CONTINUOUS
 62
     3
100
AcDbLine
 10
272.596429
 20
236.025
 30
0.0
 11
272.596429
 21
228.275
 31
0.0
  0
LINE
  5
29B
100
AcDbEntity
  8
LAY-3
  6
CONTINUOUS
 62
     3
100
AcDbLine
 10
271.796429
 20
236.025
 30
0.0
 11
272.596429
 21
236.025
 31
0.0
  0
LINE
  5
29C
100
AcDbEntity
  8
LAY-3
  6
CONTINUOUS
 62
     3
100
AcDbLine
 10
271.796429
 20
228.275
 30
0.0
 11
272.596429
 21
228.275
 31
0.0
  0
LINE
  5
29D
100
AcDbEntity
  8
LAY-3
  6
CONTINUOUS
 62
     3
100
AcDbLine
 10
285.691429
 20
228.275
 30
0.0
 11
286.491429
 21
228.275
 31
0.0
  0
LINE
  5
29E
100
AcDbEntity
  8
LAY-3
  6
CONTINUOUS
 62
     3
100
AcDbLine
 10
285.691429
 20
236.025
 30
0.0
 11
286.491429
 21
236.025
 31
0.0
  0
LINE
  5
29F
100
AcDbEntity
  8
LAY-3
  6
CONTINUOUS
 62
     3
100
AcDbLine
 10
286.491429
 20
234.55
 30
0.0
 11
286.496429
 21
234.55
 31
0.0
  0
LINE
  5
2A0
100
AcDbEntity
  8
LAY-3
  6
CONTINUOUS
 62
     3
100
AcDbLine
 10
286.491429
 20
229.75
 30
0.0
 11
286.496429
 21
229.75
 31
0.0
  0
ARC
  5
2A1
100
AcDbEntity
  8
LAY-3
  6
CONTINUOUS
 62
     3
100
AcDbCircle
 10
286.496429
 20
234.4
 30
0.0
 40
0.15
100
AcDbArc
 50
0.0
 51
90.0
  0
ARC
  5
2A2
100
AcDbEntity
  8
LAY-3
  6
CONTINUOUS
 62
     3
100
AcDbCircle
 10
286.496429
 20
229.9
 30
0.0
 40
0.15
100
AcDbArc
 50
270.0
 51
0.0
  0
ARC
  5
2A3
100
AcDbEntity
  8
LAY-3
  6
CONTINUOUS
 62
     3
100
AcDbCircle
 10
271.796429
 20
229.9
 30
0.0
 40
0.15
100
AcDbArc
 50
180.0
 51
270.0
  0
ARC
  5
2A4
100
AcDbEntity
  8
LAY-3
  6
CONTINUOUS
 62
     3
100
AcDbCircle
 10
271.796429
 20
234.4
 30
0.0
 40
0.15
100
AcDbArc
 50
90.0
 51
180.0
  0
LINE
  5
2A5
100
AcDbEntity
  8
LAY-3
  6
EXLTYPE3
 62
     1
100
AcDbLine
 10
270.811429
 20
232.15
 30
0.0
 11
287.671429
 21
232.15
 31
0.0
  0
LINE
  5
2A6
100
AcDbEntity
  8
LAY-3
  6
CONTINUOUS
 62
     3
100
AcDbLine
 10
272.846429
 20
230.4
 30
0.0
 11
285.441429
 21
230.4
 31
0.0
  0
LINE
  5
2A7
100
AcDbEntity
  8
LAY-3
  6
CONTINUOUS
 62
     3
100
AcDbLine
 10
272.846429
 20
233.9
 30
0.0
 11
285.441429
 21
233.9
 31
0.0
  0
LINE
  5
2A8
100
AcDbEntity
  8
LAY-3
  6
CONTINUOUS
 62
     3
100
AcDbLine
 10
272.596429
 20
233.65
 30
0.0
 11
272.846429
 21
233.65
 31
0.0
  0
LINE
  5
2A9
100
AcDbEntity
  8
LAY-3
  6
CONTINUOUS
 62
     3
100
AcDbLine
 10
272.596429
 20
230.65
 30
0.0
 11
272.846429
 21
230.65
 31
0.0
  0
LINE
  5
2AA
100
AcDbEntity
  8
LAY-3
  6
CONTINUOUS
 62
     3
100
AcDbLine
 10
285.441429
 20
230.65
 30
0.0
 11
285.691429
 21
230.65
 31
0.0
  0
LINE
  5
2AB
100
AcDbEntity
  8
LAY-3
  6
CONTINUOUS
 62
     3
100
AcDbLine
 10
285.441429
 20
233.65
 30
0.0
 11
285.691429
 21
233.65
 31
0.0
  0
LINE
  5
2AC
100
AcDbEntity
  8
LAY-3
  6
CONTINUOUS
 62
     3
100
AcDbLine
 10
230.57625
 20
230.85
 30
0.0
 11
230.58125
 21
230.85
 31
0.0
  0
LINE
  5
2AD
100
AcDbEntity
  8
LAY-3
  6
CONTINUOUS
 62
     3
100
AcDbLine
 10
230.57625
 20
233.75
 30
0.0
 11
230.58125
 21
233.75
 31
0.0
  0
LINE
  5
2AE
100
AcDbEntity
  8
LAY-3
  6
CONTINUOUS
 62
     3
100
AcDbLine
 10
230.57625
 20
235.8
 30
0.0
 11
230.57625
 21
228.8
 31
0.0
  0
LINE
  5
2AF
100
AcDbEntity
  8
LAY-3
  6
CONTINUOUS
 62
     3
100
AcDbLine
 10
215.88125
 20
235.8
 30
0.0
 11
215.88125
 21
228.8
 31
0.0
  0
LINE
  5
2B0
100
AcDbEntity
  8
LAY-3
  6
CONTINUOUS
 62
     3
100
AcDbLine
 10
216.68125
 20
235.8
 30
0.0
 11
216.68125
 21
228.8
 31
0.0
  0
LINE
  5
2B1
100
AcDbEntity
  8
LAY-3
  6
CONTINUOUS
 62
     3
100
AcDbLine
 10
229.77625
 20
235.8
 30
0.0
 11
229.77625
 21
228.8
 31
0.0
  0
ARC
  5
2B2
100
AcDbEntity
  8
LAY-3
  6
CONTINUOUS
 62
     3
100
AcDbCircle
 10
215.88125
 20
230.45
 30
0.0
 40
0.15
100
AcDbArc
 50
180.0
 51
270.0
  0
LINE
  5
2B3
100
AcDbEntity
  8
LAY-3
  6
CONTINUOUS
 62
     3
100
AcDbLine
 10
230.57625
 20
230.3
 30
0.0
 11
230.58125
 21
230.3
 31
0.0
  0
ARC
  5
2B4
100
AcDbEntity
  8
LAY-3
  6
CONTINUOUS
 62
     3
100
AcDbCircle
 10
230.58125
 20
230.45
 30
0.0
 40
0.15
100
AcDbArc
 50
270.0
 51
0.0
  0
LINE
  5
2B5
100
AcDbEntity
  8
LAY-3
  6
CONTINUOUS
 62
     3
100
AcDbLine
 10
230.57625
 20
234.3
 30
0.0
 11
230.58125
 21
234.3
 31
0.0
  0
LINE
  5
2B6
100
AcDbEntity
  8
LAY-3
  6
CONTINUOUS
 62
     3
100
AcDbLine
 10
230.73125
 20
234.15
 30
0.0
 11
230.73125
 21
230.45
 31
0.0
  0
ARC
  5
2B7
100
AcDbEntity
  8
LAY-3
  6
CONTINUOUS
 62
     3
100
AcDbCircle
 10
230.58125
 20
234.15
 30
0.0
 40
0.15
100
AcDbArc
 50
0.0
 51
90.0
  0
LINE
  5
2B8
100
AcDbEntity
  8
LAY-3
  6
CONTINUOUS
 62
     3
100
AcDbLine
 10
215.73125
 20
234.15
 30
0.0
 11
215.73125
 21
230.45
 31
0.0
  0
ARC
  5
2B9
100
AcDbEntity
  8
LAY-3
  6
CONTINUOUS
 62
     3
100
AcDbCircle
 10
215.88125
 20
234.15
 30
0.0
 40
0.15
100
AcDbArc
 50
90.0
 51
180.0
  0
LINE
  5
2BA
100
AcDbEntity
  8
LAY-3
  6
CONTINUOUS
 62
     3
100
AcDbLine
 10
216.93125
 20
233.8
 30
0.0
 11
216.93125
 21
230.8
 31
0.0
  0
LINE
  5
2BB
100
AcDbEntity
  8
LAY-3
  6
CONTINUOUS
 62
     3
100
AcDbLine
 10
229.52625
 20
233.8
 30
0.0
 11
229.52625
 21
230.8
 31
0.0
  0
LINE
  5
2BC
100
AcDbEntity
  8
LAY-3
  6
CONTINUOUS
 62
     3
100
AcDbLine
 10
216.93125
 20
233.8
 30
0.0
 11
229.52625
 21
233.8
 31
0.0
  0
LINE
  5
2BD
100
AcDbEntity
  8
LAY-3
  6
CONTINUOUS
 62
     3
100
AcDbLine
 10
216.93125
 20
230.8
 30
0.0
 11
229.52625
 21
230.8
 31
0.0
  0
LINE
  5
2BE
100
AcDbEntity
  8
LAY-3
  6
CONTINUOUS
 62
     3
100
AcDbLine
 10
215.88125
 20
235.8
 30
0.0
 11
216.68125
 21
235.8
 31
0.0
  0
LINE
  5
2BF
100
AcDbEntity
  8
LAY-3
  6
CONTINUOUS
 62
     3
100
AcDbLine
 10
215.88125
 20
228.8
 30
0.0
 11
216.68125
 21
228.8
 31
0.0
  0
LINE
  5
2C0
100
AcDbEntity
  8
LAY-3
  6
CONTINUOUS
 62
     3
100
AcDbLine
 10
230.57625
 20
228.8
 30
0.0
 11
229.77625
 21
228.8
 31
0.0
  0
LINE
  5
2C1
100
AcDbEntity
  8
LAY-3
  6
CONTINUOUS
 62
     3
100
AcDbLine
 10
230.57625
 20
235.8
 30
0.0
 11
229.77625
 21
235.8
 31
0.0
  0
LINE
  5
2C2
100
AcDbEntity
  8
LAY-3
  6
CONTINUOUS
 62
     3
100
AcDbLine
 10
216.68125
 20
231.05
 30
0.0
 11
216.93125
 21
231.05
 31
0.0
  0
LINE
  5
2C3
100
AcDbEntity
  8
LAY-3
  6
CONTINUOUS
 62
     3
100
AcDbLine
 10
216.68125
 20
233.55
 30
0.0
 11
216.93125
 21
233.55
 31
0.0
  0
LINE
  5
2C4
100
AcDbEntity
  8
LAY-3
  6
CONTINUOUS
 62
     3
100
AcDbLine
 10
229.52625
 20
233.55
 30
0.0
 11
229.77625
 21
233.55
 31
0.0
  0
LINE
  5
2C5
100
AcDbEntity
  8
LAY-3
  6
CONTINUOUS
 62
     3
100
AcDbLine
 10
229.52625
 20
231.05
 30
0.0
 11
229.77625
 21
231.05
 31
0.0
  0
LINE
  5
2C6
100
AcDbEntity
  8
LAY-3
  6
EXLTYPE3
 62
     1
100
AcDbLine
 10
214.58625
 20
232.3
 30
0.0
 11
231.64625
 21
232.3
 31
0.0
  0
LINE
  5
2C7
100
AcDbEntity
  8
LAY-3
  6
CONTINUOUS
 62
     3
100
AcDbLine
 10
397.734286
 20
230.7
 30
0.0
 11
397.739286
 21
230.7
 31
0.0
  0
LINE
  5
2C8
100
AcDbEntity
  8
LAY-3
  6
CONTINUOUS
 62
     3
100
AcDbLine
 10
397.734286
 20
233.6
 30
0.0
 11
397.739286
 21
233.6
 31
0.0
  0
LINE
  5
2C9
100
AcDbEntity
  8
LAY-3
  6
CONTINUOUS
 62
     3
100
AcDbLine
 10
397.734286
 20
230.15
 30
0.0
 11
397.739286
 21
230.15
 31
0.0
  0
LINE
  5
2CA
100
AcDbEntity
  8
LAY-3
  6
CONTINUOUS
 62
     3
100
AcDbLine
 10
397.734286
 20
234.15
 30
0.0
 11
397.739286
 21
234.15
 31
0.0
  0
LINE
  5
2CB
100
AcDbEntity
  8
LAY-3
  6
CONTINUOUS
 62
     3
100
AcDbLine
 10
383.039286
 20
236.525
 30
0.0
 11
383.039286
 21
227.775
 31
0.0
  0
LINE
  5
2CC
100
AcDbEntity
  8
LAY-3
  6
CONTINUOUS
 62
     3
100
AcDbLine
 10
397.734286
 20
236.525
 30
0.0
 11
397.734286
 21
227.775
 31
0.0
  0
LINE
  5
2CD
100
AcDbEntity
  8
LAY-3
  6
CONTINUOUS
 62
     3
100
AcDbLine
 10
397.734286
 20
234.55
 30
0.0
 11
397.739286
 21
234.55
 31
0.0
  0
LINE
  5
2CE
100
AcDbEntity
  8
LAY-3
  6
CONTINUOUS
 62
     3
100
AcDbLine
 10
397.889286
 20
234.875
 30
0.0
 11
397.889286
 21
229.425
 31
0.0
  0
LINE
  5
2CF
100
AcDbEntity
  8
LAY-3
  6
CONTINUOUS
 62
     3
100
AcDbLine
 10
397.734286
 20
229.75
 30
0.0
 11
397.739286
 21
229.75
 31
0.0
  0
LINE
  5
2D0
100
AcDbEntity
  8
LAY-3
  6
CONTINUOUS
 62
     3
100
AcDbLine
 10
382.889286
 20
234.875
 30
0.0
 11
382.889286
 21
229.425
 31
0.0
  0
LINE
  5
2D1
100
AcDbEntity
  8
LAY-3
  6
CONTINUOUS
 62
     3
100
AcDbLine
 10
383.039286
 20
236.525
 30
0.0
 11
383.939286
 21
236.525
 31
0.0
  0
LINE
  5
2D2
100
AcDbEntity
  8
LAY-3
  6
CONTINUOUS
 62
     3
100
AcDbLine
 10
383.039286
 20
227.775
 30
0.0
 11
383.939286
 21
227.775
 31
0.0
  0
LINE
  5
2D3
100
AcDbEntity
  8
LAY-3
  6
CONTINUOUS
 62
     3
100
AcDbLine
 10
383.939286
 20
236.525
 30
0.0
 11
383.939286
 21
227.775
 31
0.0
  0
LINE
  5
2D4
100
AcDbEntity
  8
LAY-3
  6
CONTINUOUS
 62
     3
100
AcDbLine
 10
396.834286
 20
236.525
 30
0.0
 11
396.834286
 21
227.775
 31
0.0
  0
LINE
  5
2D5
100
AcDbEntity
  8
LAY-3
  6
CONTINUOUS
 62
     3
100
AcDbLine
 10
396.834286
 20
236.525
 30
0.0
 11
397.734286
 21
236.525
 31
0.0
  0
LINE
  5
2D6
100
AcDbEntity
  8
LAY-3
  6
CONTINUOUS
 62
     3
100
AcDbLine
 10
396.834286
 20
227.775
 30
0.0
 11
397.734286
 21
227.775
 31
0.0
  0
LINE
  5
2D7
100
AcDbEntity
  8
LAY-3
  6
CONTINUOUS
 62
     3
100
AcDbLine
 10
397.734286
 20
235.025
 30
0.0
 11
397.739286
 21
235.025
 31
0.0
  0
LINE
  5
2D8
100
AcDbEntity
  8
LAY-3
  6
CONTINUOUS
 62
     3
100
AcDbLine
 10
397.734286
 20
229.275
 30
0.0
 11
397.739286
 21
229.275
 31
0.0
  0
ARC
  5
2D9
100
AcDbEntity
  8
LAY-3
  6
CONTINUOUS
 62
     3
100
AcDbCircle
 10
383.039286
 20
234.875
 30
0.0
 40
0.15
100
AcDbArc
 50
90.0
 51
180.0
  0
ARC
  5
2DA
100
AcDbEntity
  8
LAY-3
  6
CONTINUOUS
 62
     3
100
AcDbCircle
 10
383.039286
 20
229.425
 30
0.0
 40
0.15
100
AcDbArc
 50
180.0
 51
270.0
  0
ARC
  5
2DB
100
AcDbEntity
  8
LAY-3
  6
CONTINUOUS
 62
     3
100
AcDbCircle
 10
397.739286
 20
229.425
 30
0.0
 40
0.15
100
AcDbArc
 50
270.0
 51
0.0
  0
ARC
  5
2DC
100
AcDbEntity
  8
LAY-3
  6
CONTINUOUS
 62
     3
100
AcDbCircle
 10
397.739286
 20
234.875
 30
0.0
 40
0.15
100
AcDbArc
 50
0.0
 51
90.0
  0
LINE
  5
2DD
100
AcDbEntity
  8
LAY-3
  6
CONTINUOUS
 62
     3
100
AcDbLine
 10
396.584286
 20
234.275
 30
0.0
 11
396.584286
 21
230.025
 31
0.0
  0
LINE
  5
2DE
100
AcDbEntity
  8
LAY-3
  6
CONTINUOUS
 62
     3
100
AcDbLine
 10
384.189286
 20
234.275
 30
0.0
 11
384.189286
 21
230.025
 31
0.0
  0
LINE
  5
2DF
100
AcDbEntity
  8
LAY-3
  6
EXLTYPE3
 62
     1
100
AcDbLine
 10
381.889286
 20
232.15
 30
0.0
 11
398.364286
 21
232.15
 31
0.0
  0
LINE
  5
2E0
100
AcDbEntity
  8
LAY-3
  6
CONTINUOUS
 62
     3
100
AcDbLine
 10
384.189286
 20
234.275
 30
0.0
 11
396.584286
 21
234.275
 31
0.0
  0
LINE
  5
2E1
100
AcDbEntity
  8
LAY-3
  6
CONTINUOUS
 62
     3
100
AcDbLine
 10
384.189286
 20
230.025
 30
0.0
 11
396.584286
 21
230.025
 31
0.0
  0
LINE
  5
2E2
100
AcDbEntity
  8
LAY-3
  6
CONTINUOUS
 62
     3
100
AcDbLine
 10
383.939286
 20
230.275
 30
0.0
 11
384.189286
 21
230.275
 31
0.0
  0
LINE
  5
2E3
100
AcDbEntity
  8
LAY-3
  6
CONTINUOUS
 62
     3
100
AcDbLine
 10
383.939286
 20
234.025
 30
0.0
 11
384.189286
 21
234.025
 31
0.0
  0
LINE
  5
2E4
100
AcDbEntity
  8
LAY-3
  6
CONTINUOUS
 62
     3
100
AcDbLine
 10
396.584286
 20
234.025
 30
0.0
 11
396.834286
 21
234.025
 31
0.0
  0
LINE
  5
2E5
100
AcDbEntity
  8
LAY-3
  6
CONTINUOUS
 62
     3
100
AcDbLine
 10
396.584286
 20
230.275
 30
0.0
 11
396.834286
 21
230.275
 31
0.0
  0
LINE
  5
2E6
100
AcDbEntity
  8
LAY-3
  6
EXLTYPE3
 62
     1
100
AcDbLine
 10
42.495714
 20
194.65
 30
0.0
 11
70.860714
 21
194.65
 31
0.0
  0
LINE
  5
2E7
100
AcDbEntity
  8
LAY-3
  6
CONTINUOUS
 62
     3
100
AcDbLine
 10
68.420714
 20
193.2
 30
0.0
 11
68.425714
 21
193.2
 31
0.0
  0
LINE
  5
2E8
100
AcDbEntity
  8
LAY-3
  6
CONTINUOUS
 62
     3
100
AcDbLine
 10
68.420714
 20
196.1
 30
0.0
 11
68.425714
 21
196.1
 31
0.0
  0
LINE
  5
2E9
100
AcDbEntity
  8
LAY-3
  6
CONTINUOUS
 62
     3
100
AcDbLine
 10
68.420714
 20
192.65
 30
0.0
 11
68.425714
 21
192.65
 31
0.0
  0
LINE
  5
2EA
100
AcDbEntity
  8
LAY-3
  6
CONTINUOUS
 62
     3
100
AcDbLine
 10
68.420714
 20
196.65
 30
0.0
 11
68.425714
 21
196.65
 31
0.0
  0
LINE
  5
2EB
100
AcDbEntity
  8
LAY-3
  6
CONTINUOUS
 62
     3
100
AcDbLine
 10
68.420714
 20
197.05
 30
0.0
 11
68.425714
 21
197.05
 31
0.0
  0
LINE
  5
2EC
100
AcDbEntity
  8
LAY-3
  6
CONTINUOUS
 62
     3
100
AcDbLine
 10
68.420714
 20
192.25
 30
0.0
 11
68.425714
 21
192.25
 31
0.0
  0
LINE
  5
2ED
100
AcDbEntity
  8
LAY-3
  6
CONTINUOUS
 62
     3
100
AcDbLine
 10
68.420714
 20
199.025
 30
0.0
 11
68.420714
 21
190.275
 31
0.0
  0
LINE
  5
2EE
100
AcDbEntity
  8
LAY-3
  6
CONTINUOUS
 62
     3
100
AcDbLine
 10
67.520714
 20
199.025
 30
0.0
 11
67.520714
 21
190.275
 31
0.0
  0
LINE
  5
2EF
100
AcDbEntity
  8
LAY-3
  6
CONTINUOUS
 62
     3
100
AcDbLine
 10
44.425714
 20
199.025
 30
0.0
 11
44.425714
 21
190.275
 31
0.0
  0
LINE
  5
2F0
100
AcDbEntity
  8
LAY-3
  6
CONTINUOUS
 62
     3
100
AcDbLine
 10
45.325714
 20
199.025
 30
0.0
 11
45.325714
 21
190.275
 31
0.0
  0
LINE
  5
2F1
100
AcDbEntity
  8
LAY-3
  6
CONTINUOUS
 62
     3
100
AcDbLine
 10
44.425714
 20
199.025
 30
0.0
 11
45.325714
 21
199.025
 31
0.0
  0
LINE
  5
2F2
100
AcDbEntity
  8
LAY-3
  6
CONTINUOUS
 62
     3
100
AcDbLine
 10
44.425714
 20
190.275
 30
0.0
 11
45.325714
 21
190.275
 31
0.0
  0
LINE
  5
2F3
100
AcDbEntity
  8
LAY-3
  6
CONTINUOUS
 62
     3
100
AcDbLine
 10
67.520714
 20
199.025
 30
0.0
 11
68.420714
 21
199.025
 31
0.0
  0
LINE
  5
2F4
100
AcDbEntity
  8
LAY-3
  6
CONTINUOUS
 62
     3
100
AcDbLine
 10
67.520714
 20
190.275
 30
0.0
 11
68.420714
 21
190.275
 31
0.0
  0
ARC
  5
2F5
100
AcDbEntity
  8
LAY-3
  6
CONTINUOUS
 62
     3
100
AcDbCircle
 10
44.392186
 20
196.728427
 30
0.0
 40
0.797278
100
AcDbArc
 50
87.589811
 51
92.410189
  0
LINE
  5
2F6
100
AcDbEntity
  8
LAY-3
  6
CONTINUOUS
 62
     3
100
AcDbLine
 10
43.925714
 20
197.525
 30
0.0
 11
43.925714
 21
191.775
 31
0.0
  0
ARC
  5
2F7
100
AcDbEntity
  8
LAY-3
  6
CONTINUOUS
 62
     3
100
AcDbCircle
 10
44.392186
 20
192.571573
 30
0.0
 40
0.797278
100
AcDbArc
 50
267.589811
 51
272.410189
  0
ARC
  5
2F8
100
AcDbEntity
  8
LAY-3
  6
CONTINUOUS
 62
     3
100
AcDbCircle
 10
68.459242
 20
192.571573
 30
0.0
 40
0.797278
100
AcDbArc
 50
267.589811
 51
272.410189
  0
LINE
  5
2F9
100
AcDbEntity
  8
LAY-3
  6
CONTINUOUS
 62
     3
100
AcDbLine
 10
68.925714
 20
197.375
 30
0.0
 11
68.925714
 21
191.775
 31
0.0
  0
ARC
  5
2FA
100
AcDbEntity
  8
LAY-3
  6
CONTINUOUS
 62
     3
100
AcDbCircle
 10
68.459242
 20
196.728427
 30
0.0
 40
0.797278
100
AcDbArc
 50
87.589811
 51
92.410189
  0
LINE
  5
2FB
100
AcDbEntity
  8
LAY-3
  6
CONTINUOUS
 62
     3
100
AcDbLine
 10
45.325714
 20
192.525
 30
0.0
 11
67.520714
 21
192.525
 31
0.0
  0
LINE
  5
2FC
100
AcDbEntity
  8
LAY-3
  6
CONTINUOUS
 62
     3
100
AcDbLine
 10
45.325714
 20
196.775
 30
0.0
 11
67.520714
 21
196.775
 31
0.0
  0
LINE
  5
2FD
100
AcDbEntity
  8
LAY-3
  6
CONTINUOUS
 62
     3
100
AcDbLine
 10
68.420714
 20
197.525
 30
0.0
 11
68.925714
 21
197.525
 31
0.0
  0
LINE
  5
2FE
100
AcDbEntity
  8
LAY-3
  6
CONTINUOUS
 62
     3
100
AcDbLine
 10
68.925714
 20
197.3225
 30
0.0
 11
68.925714
 21
197.525
 31
0.0
  0
LINE
  5
2FF
100
AcDbEntity
  8
LAY-3
  6
CONTINUOUS
 62
     3
100
AcDbLine
 10
68.420714
 20
191.775
 30
0.0
 11
68.925714
 21
191.775
 31
0.0
  0
LINE
  5
300
100
AcDbEntity
  8
LAY-3
  6
CONTINUOUS
 62
     3
100
AcDbLine
 10
44.425714
 20
191.775
 30
0.0
 11
43.925714
 21
191.775
 31
0.0
  0
LINE
  5
301
100
AcDbEntity
  8
LAY-3
  6
CONTINUOUS
 62
     3
100
AcDbLine
 10
44.425714
 20
197.525
 30
0.0
 11
43.925714
 21
197.525
 31
0.0
  0
LINE
  5
302
100
AcDbEntity
  8
LAY-3
  6
CONTINUOUS
 62
     3
100
AcDbLine
 10
119.272143
 20
193.2
 30
0.0
 11
119.277143
 21
193.2
 31
0.0
  0
LINE
  5
303
100
AcDbEntity
  8
LAY-3
  6
CONTINUOUS
 62
     3
100
AcDbLine
 10
119.272143
 20
196.1
 30
0.0
 11
119.277143
 21
196.1
 31
0.0
  0
LINE
  5
304
100
AcDbEntity
  8
LAY-3
  6
CONTINUOUS
 62
     3
100
AcDbLine
 10
119.272143
 20
192.65
 30
0.0
 11
119.277143
 21
192.65
 31
0.0
  0
LINE
  5
305
100
AcDbEntity
  8
LAY-3
  6
CONTINUOUS
 62
     3
100
AcDbLine
 10
119.272143
 20
196.65
 30
0.0
 11
119.277143
 21
196.65
 31
0.0
  0
LINE
  5
306
100
AcDbEntity
  8
LAY-3
  6
CONTINUOUS
 62
     3
100
AcDbLine
 10
119.272143
 20
197.05
 30
0.0
 11
119.277143
 21
197.05
 31
0.0
  0
LINE
  5
307
100
AcDbEntity
  8
LAY-3
  6
CONTINUOUS
 62
     3
100
AcDbLine
 10
119.272143
 20
192.25
 30
0.0
 11
119.277143
 21
192.25
 31
0.0
  0
LINE
  5
308
100
AcDbEntity
  8
LAY-3
  6
CONTINUOUS
 62
     3
100
AcDbLine
 10
119.272143
 20
199.275
 30
0.0
 11
119.272143
 21
190.025
 31
0.0
  0
LINE
  5
309
100
AcDbEntity
  8
LAY-3
  6
CONTINUOUS
 62
     3
100
AcDbLine
 10
118.372143
 20
199.275
 30
0.0
 11
118.372143
 21
190.025
 31
0.0
  0
LINE
  5
30A
100
AcDbEntity
  8
LAY-3
  6
CONTINUOUS
 62
     3
100
AcDbLine
 10
104.577143
 20
199.275
 30
0.0
 11
104.577143
 21
190.025
 31
0.0
  0
LINE
  5
30B
100
AcDbEntity
  8
LAY-3
  6
CONTINUOUS
 62
     3
100
AcDbLine
 10
105.477143
 20
199.275
 30
0.0
 11
105.477143
 21
190.025
 31
0.0
  0
LINE
  5
30C
100
AcDbEntity
  8
LAY-3
  6
CONTINUOUS
 62
     3
100
AcDbLine
 10
104.427143
 20
197.625
 30
0.0
 11
104.427143
 21
191.675
 31
0.0
  0
LINE
  5
30D
100
AcDbEntity
  8
LAY-3
  6
CONTINUOUS
 62
     3
100
AcDbLine
 10
119.272143
 20
191.775
 30
0.0
 11
119.277143
 21
191.775
 31
0.0
  0
LINE
  5
30E
100
AcDbEntity
  8
LAY-3
  6
CONTINUOUS
 62
     3
100
AcDbLine
 10
119.272143
 20
197.525
 30
0.0
 11
119.277143
 21
197.525
 31
0.0
  0
LINE
  5
30F
100
AcDbEntity
  8
LAY-3
  6
CONTINUOUS
 62
     3
100
AcDbLine
 10
119.427143
 20
197.625
 30
0.0
 11
119.427143
 21
191.675
 31
0.0
  0
LINE
  5
310
100
AcDbEntity
  8
LAY-3
  6
CONTINUOUS
 62
     3
100
AcDbLine
 10
118.122143
 20
197.025
 30
0.0
 11
118.122143
 21
192.275
 31
0.0
  0
LINE
  5
311
100
AcDbEntity
  8
LAY-3
  6
CONTINUOUS
 62
     3
100
AcDbLine
 10
105.727143
 20
197.025
 30
0.0
 11
105.727143
 21
192.275
 31
0.0
  0
LINE
  5
312
100
AcDbEntity
  8
LAY-3
  6
EXLTYPE3
 62
     1
100
AcDbLine
 10
102.432143
 20
194.65
 30
0.0
 11
122.932143
 21
194.65
 31
0.0
  0
LINE
  5
313
100
AcDbEntity
  8
LAY-3
  6
CONTINUOUS
 62
     3
100
AcDbLine
 10
104.577143
 20
199.275
 30
0.0
 11
105.477143
 21
199.275
 31
0.0
  0
LINE
  5
314
100
AcDbEntity
  8
LAY-3
  6
CONTINUOUS
 62
     3
100
AcDbLine
 10
104.577143
 20
190.025
 30
0.0
 11
105.477143
 21
190.025
 31
0.0
  0
LINE
  5
315
100
AcDbEntity
  8
LAY-3
  6
CONTINUOUS
 62
     3
100
AcDbLine
 10
118.372143
 20
190.025
 30
0.0
 11
119.272143
 21
190.025
 31
0.0
  0
LINE
  5
316
100
AcDbEntity
  8
LAY-3
  6
CONTINUOUS
 62
     3
100
AcDbLine
 10
118.372143
 20
199.275
 30
0.0
 11
119.272143
 21
199.275
 31
0.0
  0
LINE
  5
317
100
AcDbEntity
  8
LAY-3
  6
CONTINUOUS
 62
     3
100
AcDbLine
 10
119.272143
 20
191.525
 30
0.0
 11
119.277143
 21
191.525
 31
0.0
  0
LINE
  5
318
100
AcDbEntity
  8
LAY-3
  6
CONTINUOUS
 62
     3
100
AcDbLine
 10
119.272143
 20
197.775
 30
0.0
 11
119.277143
 21
197.775
 31
0.0
  0
ARC
  5
319
100
AcDbEntity
  8
LAY-3
  6
CONTINUOUS
 62
     3
100
AcDbCircle
 10
104.577143
 20
191.675
 30
0.0
 40
0.15
100
AcDbArc
 50
180.0
 51
270.0
  0
ARC
  5
31A
100
AcDbEntity
  8
LAY-3
  6
CONTINUOUS
 62
     3
100
AcDbCircle
 10
104.577143
 20
197.625
 30
0.0
 40
0.15
100
AcDbArc
 50
90.0
 51
180.0
  0
ARC
  5
31B
100
AcDbEntity
  8
LAY-3
  6
CONTINUOUS
 62
     3
100
AcDbCircle
 10
119.277143
 20
197.625
 30
0.0
 40
0.15
100
AcDbArc
 50
0.0
 51
90.0
  0
ARC
  5
31C
100
AcDbEntity
  8
LAY-3
  6
CONTINUOUS
 62
     3
100
AcDbCircle
 10
119.277143
 20
191.675
 30
0.0
 40
0.15
100
AcDbArc
 50
270.0
 51
0.0
  0
LINE
  5
31D
100
AcDbEntity
  8
LAY-3
  6
CONTINUOUS
 62
     3
100
AcDbLine
 10
105.727143
 20
192.275
 30
0.0
 11
118.122143
 21
192.275
 31
0.0
  0
LINE
  5
31E
100
AcDbEntity
  8
LAY-3
  6
CONTINUOUS
 62
     3
100
AcDbLine
 10
105.727143
 20
197.025
 30
0.0
 11
118.122143
 21
197.025
 31
0.0
  0
LINE
  5
31F
100
AcDbEntity
  8
LAY-3
  6
CONTINUOUS
 62
     3
100
AcDbLine
 10
105.477143
 20
196.775
 30
0.0
 11
105.727143
 21
196.775
 31
0.0
  0
LINE
  5
320
100
AcDbEntity
  8
LAY-3
  6
CONTINUOUS
 62
     3
100
AcDbLine
 10
105.477143
 20
192.525
 30
0.0
 11
105.727143
 21
192.525
 31
0.0
  0
LINE
  5
321
100
AcDbEntity
  8
LAY-3
  6
CONTINUOUS
 62
     3
100
AcDbLine
 10
118.122143
 20
192.525
 30
0.0
 11
118.372143
 21
192.525
 31
0.0
  0
LINE
  5
322
100
AcDbEntity
  8
LAY-3
  6
CONTINUOUS
 62
     3
100
AcDbLine
 10
118.122143
 20
196.775
 30
0.0
 11
118.372143
 21
196.775
 31
0.0
  0
LINE
  5
323
100
AcDbEntity
  8
LAY-3
  6
CONTINUOUS
 62
     3
100
AcDbLine
 10
179.377738
 20
193.2
 30
0.0
 11
179.382738
 21
193.2
 31
0.0
  0
LINE
  5
324
100
AcDbEntity
  8
LAY-3
  6
CONTINUOUS
 62
     3
100
AcDbLine
 10
179.377738
 20
196.1
 30
0.0
 11
179.382738
 21
196.1
 31
0.0
  0
LINE
  5
325
100
AcDbEntity
  8
LAY-3
  6
CONTINUOUS
 62
     3
100
AcDbLine
 10
179.377738
 20
192.65
 30
0.0
 11
179.382738
 21
192.65
 31
0.0
  0
LINE
  5
326
100
AcDbEntity
  8
LAY-3
  6
CONTINUOUS
 62
     3
100
AcDbLine
 10
179.377738
 20
196.65
 30
0.0
 11
179.382738
 21
196.65
 31
0.0
  0
LINE
  5
327
100
AcDbEntity
  8
LAY-3
  6
CONTINUOUS
 62
     3
100
AcDbLine
 10
179.377738
 20
197.05
 30
0.0
 11
179.382738
 21
197.05
 31
0.0
  0
LINE
  5
328
100
AcDbEntity
  8
LAY-3
  6
CONTINUOUS
 62
     3
100
AcDbLine
 10
179.377738
 20
192.25
 30
0.0
 11
179.382738
 21
192.25
 31
0.0
  0
LINE
  5
329
100
AcDbEntity
  8
LAY-3
  6
CONTINUOUS
 62
     3
100
AcDbLine
 10
179.377738
 20
191.775
 30
0.0
 11
179.382738
 21
191.775
 31
0.0
  0
LINE
  5
32A
100
AcDbEntity
  8
LAY-3
  6
CONTINUOUS
 62
     3
100
AcDbLine
 10
179.377738
 20
197.525
 30
0.0
 11
179.382738
 21
197.525
 31
0.0
  0
LINE
  5
32B
100
AcDbEntity
  8
LAY-3
  6
CONTINUOUS
 62
     3
100
AcDbLine
 10
179.377738
 20
199.275
 30
0.0
 11
179.377738
 21
190.025
 31
0.0
  0
LINE
  5
32C
100
AcDbEntity
  8
LAY-3
  6
CONTINUOUS
 62
     3
100
AcDbLine
 10
178.477738
 20
199.275
 30
0.0
 11
178.477738
 21
190.025
 31
0.0
  0
LINE
  5
32D
100
AcDbEntity
  8
LAY-3
  6
CONTINUOUS
 62
     3
100
AcDbLine
 10
155.382738
 20
199.275
 30
0.0
 11
155.382738
 21
190.025
 31
0.0
  0
LINE
  5
32E
100
AcDbEntity
  8
LAY-3
  6
CONTINUOUS
 62
     3
100
AcDbLine
 10
156.282738
 20
199.275
 30
0.0
 11
156.282738
 21
194.65
 31
0.0
  0
LINE
  5
32F
100
AcDbEntity
  8
LAY-3
  6
CONTINUOUS
 62
     3
100
AcDbLine
 10
155.382738
 20
190.025
 30
0.0
 11
156.282738
 21
190.025
 31
0.0
  0
LINE
  5
330
100
AcDbEntity
  8
LAY-3
  6
CONTINUOUS
 62
     3
100
AcDbLine
 10
178.477738
 20
190.025
 30
0.0
 11
179.377738
 21
190.025
 31
0.0
  0
LINE
  5
331
100
AcDbEntity
  8
LAY-3
  6
CONTINUOUS
 62
     3
100
AcDbLine
 10
178.477738
 20
199.275
 30
0.0
 11
179.377738
 21
199.275
 31
0.0
  0
LINE
  5
332
100
AcDbEntity
  8
LAY-3
  6
CONTINUOUS
 62
     3
100
AcDbLine
 10
155.382738
 20
199.275
 30
0.0
 11
156.282738
 21
199.275
 31
0.0
  0
ARC
  5
333
100
AcDbEntity
  8
LAY-3
  6
CONTINUOUS
 62
     3
100
AcDbCircle
 10
155.34921
 20
192.321573
 30
0.0
 40
0.797278
100
AcDbArc
 50
267.589811
 51
272.410189
  0
LINE
  5
334
100
AcDbEntity
  8
LAY-3
  6
CONTINUOUS
 62
     3
100
AcDbLine
 10
154.882738
 20
197.775
 30
0.0
 11
154.882738
 21
191.525
 31
0.0
  0
ARC
  5
335
100
AcDbEntity
  8
LAY-3
  6
CONTINUOUS
 62
     3
100
AcDbCircle
 10
155.34921
 20
196.978427
 30
0.0
 40
0.797278
100
AcDbArc
 50
87.589811
 51
92.410189
  0
ARC
  5
336
100
AcDbEntity
  8
LAY-3
  6
CONTINUOUS
 62
     3
100
AcDbCircle
 10
179.416266
 20
196.978427
 30
0.0
 40
0.797278
100
AcDbArc
 50
87.589811
 51
92.410189
  0
LINE
  5
337
100
AcDbEntity
  8
LAY-3
  6
CONTINUOUS
 62
     3
100
AcDbLine
 10
179.882738
 20
197.775
 30
0.0
 11
179.882738
 21
191.525
 31
0.0
  0
ARC
  5
338
100
AcDbEntity
  8
LAY-3
  6
CONTINUOUS
 62
     3
100
AcDbCircle
 10
179.416266
 20
192.321573
 30
0.0
 40
0.797278
100
AcDbArc
 50
267.589811
 51
272.410189
  0
LINE
  5
339
100
AcDbEntity
  8
LAY-3
  6
CONTINUOUS
 62
     3
100
AcDbLine
 10
156.282738
 20
197.025
 30
0.0
 11
178.477738
 21
197.025
 31
0.0
  0
LINE
  5
33A
100
AcDbEntity
  8
LAY-3
  6
CONTINUOUS
 62
     3
100
AcDbLine
 10
156.282738
 20
192.275
 30
0.0
 11
178.477738
 21
192.275
 31
0.0
  0
LINE
  5
33B
100
AcDbEntity
  8
LAY-3
  6
CONTINUOUS
 62
     3
100
AcDbLine
 10
156.282738
 20
194.65
 30
0.0
 11
156.282738
 21
190.025
 31
0.0
  0
LINE
  5
33C
100
AcDbEntity
  8
LAY-3
  6
CONTINUOUS
 62
     3
100
AcDbLine
 10
179.377738
 20
197.775
 30
0.0
 11
179.882738
 21
197.775
 31
0.0
  0
LINE
  5
33D
100
AcDbEntity
  8
LAY-3
  6
CONTINUOUS
 62
     3
100
AcDbLine
 10
179.377738
 20
191.525
 30
0.0
 11
179.882738
 21
191.525
 31
0.0
  0
LINE
  5
33E
100
AcDbEntity
  8
LAY-3
  6
CONTINUOUS
 62
     3
100
AcDbLine
 10
155.382738
 20
191.525
 30
0.0
 11
154.882738
 21
191.525
 31
0.0
  0
LINE
  5
33F
100
AcDbEntity
  8
LAY-3
  6
CONTINUOUS
 62
     3
100
AcDbLine
 10
155.382738
 20
197.775
 30
0.0
 11
154.882738
 21
197.775
 31
0.0
  0
LINE
  5
340
100
AcDbEntity
  8
LAY-3
  6
EXLTYPE3
 62
     1
100
AcDbLine
 10
153.024405
 20
194.65
 30
0.0
 11
181.974405
 21
194.65
 31
0.0
  0
LINE
  5
341
100
AcDbEntity
  8
LAY-3
  6
EXLTYPE3
 62
     1
100
AcDbLine
 10
209.725
 20
194.65
 30
0.0
 11
236.375
 21
194.65
 31
0.0
  0
LINE
  5
342
100
AcDbEntity
  8
LAY-3
  6
CONTINUOUS
 62
     3
100
AcDbLine
 10
232.57
 20
193.2
 30
0.0
 11
232.575
 21
193.2
 31
0.0
  0
LINE
  5
343
100
AcDbEntity
  8
LAY-3
  6
CONTINUOUS
 62
     3
100
AcDbLine
 10
232.57
 20
196.1
 30
0.0
 11
232.575
 21
196.1
 31
0.0
  0
LINE
  5
344
100
AcDbEntity
  8
LAY-3
  6
CONTINUOUS
 62
     3
100
AcDbLine
 10
232.57
 20
192.65
 30
0.0
 11
232.575
 21
192.65
 31
0.0
  0
LINE
  5
345
100
AcDbEntity
  8
LAY-3
  6
CONTINUOUS
 62
     3
100
AcDbLine
 10
232.57
 20
196.65
 30
0.0
 11
232.575
 21
196.65
 31
0.0
  0
LINE
  5
346
100
AcDbEntity
  8
LAY-3
  6
CONTINUOUS
 62
     3
100
AcDbLine
 10
232.57
 20
197.05
 30
0.0
 11
232.575
 21
197.05
 31
0.0
  0
LINE
  5
347
100
AcDbEntity
  8
LAY-3
  6
CONTINUOUS
 62
     3
100
AcDbLine
 10
232.57
 20
192.25
 30
0.0
 11
232.575
 21
192.25
 31
0.0
  0
LINE
  5
348
100
AcDbEntity
  8
LAY-3
  6
CONTINUOUS
 62
     3
100
AcDbLine
 10
232.57
 20
191.775
 30
0.0
 11
232.575
 21
191.775
 31
0.0
  0
LINE
  5
349
100
AcDbEntity
  8
LAY-3
  6
CONTINUOUS
 62
     3
100
AcDbLine
 10
232.57
 20
197.525
 30
0.0
 11
232.575
 21
197.525
 31
0.0
  0
LINE
  5
34A
100
AcDbEntity
  8
LAY-3
  6
CONTINUOUS
 62
     3
100
AcDbLine
 10
232.57
 20
199.9
 30
0.0
 11
232.57
 21
189.4
 31
0.0
  0
LINE
  5
34B
100
AcDbEntity
  8
LAY-3
  6
CONTINUOUS
 62
     3
100
AcDbLine
 10
231.67
 20
199.9
 30
0.0
 11
231.67
 21
189.4
 31
0.0
  0
LINE
  5
34C
100
AcDbEntity
  8
LAY-3
  6
CONTINUOUS
 62
     3
100
AcDbLine
 10
213.575
 20
199.9
 30
0.0
 11
213.575
 21
189.4
 31
0.0
  0
LINE
  5
34D
100
AcDbEntity
  8
LAY-3
  6
CONTINUOUS
 62
     3
100
AcDbLine
 10
214.475
 20
199.9
 30
0.0
 11
214.475
 21
189.4
 31
0.0
  0
LINE
  5
34E
100
AcDbEntity
  8
LAY-3
  6
CONTINUOUS
 62
     3
100
AcDbLine
 10
213.075
 20
198.45
 30
0.0
 11
213.075
 21
190.85
 31
0.0
  0
LINE
  5
34F
100
AcDbEntity
  8
LAY-3
  6
CONTINUOUS
 62
     3
100
AcDbLine
 10
232.57
 20
191.525
 30
0.0
 11
232.575
 21
191.525
 31
0.0
  0
LINE
  5
350
100
AcDbEntity
  8
LAY-3
  6
CONTINUOUS
 62
     3
100
AcDbLine
 10
233.075
 20
198.45
 30
0.0
 11
233.075
 21
190.85
 31
0.0
  0
LINE
  5
351
100
AcDbEntity
  8
LAY-3
  6
CONTINUOUS
 62
     3
100
AcDbLine
 10
232.57
 20
197.775
 30
0.0
 11
232.575
 21
197.775
 31
0.0
  0
LINE
  5
352
100
AcDbEntity
  8
LAY-3
  6
CONTINUOUS
 62
     3
100
AcDbLine
 10
213.575
 20
199.9
 30
0.0
 11
214.475
 21
199.9
 31
0.0
  0
LINE
  5
353
100
AcDbEntity
  8
LAY-3
  6
CONTINUOUS
 62
     3
100
AcDbLine
 10
213.575
 20
189.4
 30
0.0
 11
214.475
 21
189.4
 31
0.0
  0
LINE
  5
354
100
AcDbEntity
  8
LAY-3
  6
CONTINUOUS
 62
     3
100
AcDbLine
 10
231.67
 20
189.4
 30
0.0
 11
232.57
 21
189.4
 31
0.0
  0
LINE
  5
355
100
AcDbEntity
  8
LAY-3
  6
CONTINUOUS
 62
     3
100
AcDbLine
 10
231.67
 20
199.9
 30
0.0
 11
232.57
 21
199.9
 31
0.0
  0
LINE
  5
356
100
AcDbEntity
  8
LAY-3
  6
CONTINUOUS
 62
     3
100
AcDbLine
 10
214.475
 20
191.65
 30
0.0
 11
231.67
 21
191.65
 31
0.0
  0
LINE
  5
357
100
AcDbEntity
  8
LAY-3
  6
CONTINUOUS
 62
     3
100
AcDbLine
 10
214.475
 20
197.65
 30
0.0
 11
231.67
 21
197.65
 31
0.0
  0
ARC
  5
358
100
AcDbEntity
  8
LAY-3
  6
CONTINUOUS
 62
     3
100
AcDbCircle
 10
232.608528
 20
191.646573
 30
0.0
 40
0.797278
100
AcDbArc
 50
267.589811
 51
272.410189
  0
ARC
  5
359
100
AcDbEntity
  8
LAY-3
  6
CONTINUOUS
 62
     3
100
AcDbCircle
 10
232.608528
 20
197.653427
 30
0.0
 40
0.797278
100
AcDbArc
 50
87.589811
 51
92.410189
  0
ARC
  5
35A
100
AcDbEntity
  8
LAY-3
  6
CONTINUOUS
 62
     3
100
AcDbCircle
 10
213.541472
 20
197.653427
 30
0.0
 40
0.797278
100
AcDbArc
 50
87.589811
 51
92.410189
  0
ARC
  5
35B
100
AcDbEntity
  8
LAY-3
  6
CONTINUOUS
 62
     3
100
AcDbCircle
 10
213.541472
 20
191.646573
 30
0.0
 40
0.797278
100
AcDbArc
 50
267.589811
 51
272.410189
  0
LINE
  5
35C
100
AcDbEntity
  8
LAY-3
  6
CONTINUOUS
 62
     3
100
AcDbLine
 10
213.575
 20
198.45
 30
0.0
 11
213.075
 21
198.45
 31
0.0
  0
LINE
  5
35D
100
AcDbEntity
  8
LAY-3
  6
CONTINUOUS
 62
     3
100
AcDbLine
 10
213.575
 20
190.85
 30
0.0
 11
213.075
 21
190.85
 31
0.0
  0
LINE
  5
35E
100
AcDbEntity
  8
LAY-3
  6
CONTINUOUS
 62
     3
100
AcDbLine
 10
232.57
 20
190.85
 30
0.0
 11
233.075
 21
190.85
 31
0.0
  0
LINE
  5
35F
100
AcDbEntity
  8
LAY-3
  6
CONTINUOUS
 62
     3
100
AcDbLine
 10
232.57
 20
198.45
 30
0.0
 11
233.075
 21
198.45
 31
0.0
  0
TEXT
  5
360
100
AcDbEntity
  8
LAY-3
  6
CONTINUOUS
 62
     7
100
AcDbText
 10
100.832143
 20
249.4
 30
0.0
 40
2.5
  1
２５Ａ×３００Ｌ
 41
0.987
  7
EXCADSTD
 72
     5
 11
124.332143
 21
249.4
 31
0.0
100
AcDbText
  0
TEXT
  5
361
100
AcDbEntity
  8
LAY-3
  6
CONTINUOUS
 62
     7
100
AcDbText
 10
155.828571
 20
249.55
 30
0.0
 40
2.5
  1
３２Ａ×３００Ｌ
 41
0.987
  7
EXCADSTD
 72
     5
 11
179.328571
 21
249.55
 31
0.0
100
AcDbText
  0
TEXT
  5
362
100
AcDbEntity
  8
LAY-3
  6
CONTINUOUS
 62
     7
100
AcDbText
 10
211.675
 20
249.8
 30
0.0
 40
2.5
  1
４０Ａ×３００Ｌ
 41
0.987
  7
EXCADSTD
 72
     5
 11
235.175
 21
249.8
 31
0.0
100
AcDbText
  0
TEXT
  5
363
100
AcDbEntity
  8
LAY-3
  6
CONTINUOUS
 62
     7
100
AcDbText
 10
44.779464
 20
212.15
 30
0.0
 40
2.5
  1
６５Ａ×５００Ｌ
 41
0.987
  7
EXCADSTD
 72
     5
 11
68.279464
 21
212.15
 31
0.0
100
AcDbText
  0
TEXT
  5
364
100
AcDbEntity
  8
LAY-3
  6
CONTINUOUS
 62
     7
100
AcDbText
 10
379.245536
 20
249.65
 30
0.0
 40
2.5
  1
６５Ａ×３００Ｌ
 41
0.987
  7
EXCADSTD
 72
     5
 11
402.745536
 21
249.65
 31
0.0
100
AcDbText
  0
TEXT
  5
365
100
AcDbEntity
  8
LAY-3
  6
CONTINUOUS
 62
     7
100
AcDbText
 10
323.111607
 20
249.45
 30
0.0
 40
2.5
  1
５０Ａ×５００Ｌ
 41
0.987
  7
EXCADSTD
 72
     5
 11
346.611607
 21
249.45
 31
0.0
100
AcDbText
  0
TEXT
  5
366
100
AcDbEntity
  8
LAY-3
  6
CONTINUOUS
 62
     7
100
AcDbText
 10
267.927679
 20
249.6
 30
0.0
 40
2.5
  1
５０Ａ×３００Ｌ
 41
0.987
  7
EXCADSTD
 72
     5
 11
291.427679
 21
249.6
 31
0.0
100
AcDbText
  0
TEXT
  5
367
100
AcDbEntity
  8
LAY-3
  6
CONTINUOUS
 62
     7
100
AcDbText
 10
100.813393
 20
212.05
 30
0.0
 40
2.5
  1
８０Ａ×３００Ｌ
 41
0.987
  7
EXCADSTD
 72
     5
 11
124.313393
 21
212.05
 31
0.0
100
AcDbText
  0
TEXT
  5
368
100
AcDbEntity
  8
LAY-3
  6
CONTINUOUS
 62
     7
100
AcDbText
 10
156.247321
 20
211.9
 30
0.0
 40
2.5
  1
８０Ａ×５００Ｌ
 41
0.987
  7
EXCADSTD
 72
     5
 11
179.747321
 21
211.9
 31
0.0
100
AcDbText
  0
TEXT
  5
369
100
AcDbEntity
  8
LAY-3
  6
CONTINUOUS
 62
     7
100
AcDbText
 10
209.58125
 20
212.15
 30
0.0
 40
2.5
  1
１００Ａ×４００Ｌ
 41
0.989333
  7
EXCADSTD
 72
     5
 11
236.08125
 21
212.15
 31
0.0
100
AcDbText
  0
TEXT
  5
36A
100
AcDbEntity
  8
LAY-3
  6
CONTINUOUS
 62
     7
100
AcDbText
 10
265.965179
 20
212.25
 30
0.0
 40
2.5
  1
１００Ａ×７００Ｌ
 41
0.989333
  7
EXCADSTD
 72
     5
 11
292.465179
 21
212.25
 31
0.0
100
AcDbText
  0
TEXT
  5
36B
100
AcDbEntity
  8
LAY-3
  6
CONTINUOUS
 62
     7
100
AcDbText
 10
45.141964
 20
249.7
 30
0.0
 40
2.5
  1
２０Ａ×３００Ｌ
 41
0.987
  7
EXCADSTD
 72
     5
 11
68.641964
 21
249.7
 31
0.0
100
AcDbText
  0
LINE
  5
36C
100
AcDbEntity
  8
LAY-3
  6
CONTINUOUS
 62
     2
100
AcDbLine
 10
418.2
 20
280.05
 30
0.0
 11
28.15
 21
280.05
 31
0.0
  0
LINE
  5
36D
100
AcDbEntity
  8
LAY-3
  6
CONTINUOUS
 62
     2
100
AcDbLine
 10
28.15
 20
98.4
 30
0.0
 11
418.2
 21
98.4
 31
0.0
  0
LINE
  5
36E
100
AcDbEntity
  8
LAY-3
  6
CONTINUOUS
 62
     2
100
AcDbLine
 10
28.15
 20
135.9
 30
0.0
 11
418.2
 21
135.9
 31
0.0
  0
LINE
  5
36F
100
AcDbEntity
  8
LAY-3
  6
CONTINUOUS
 62
     2
100
AcDbLine
 10
28.15
 20
140.9
 30
0.0
 11
418.2
 21
140.9
 31
0.0
  0
LINE
  5
370
100
AcDbEntity
  8
LAY-3
  6
CONTINUOUS
 62
     2
100
AcDbLine
 10
28.15
 20
173.4
 30
0.0
 11
418.2
 21
173.4
 31
0.0
  0
LINE
  5
371
100
AcDbEntity
  8
LAY-3
  6
CONTINUOUS
 62
     2
100
AcDbLine
 10
28.15
 20
178.4
 30
0.0
 11
418.2
 21
178.4
 31
0.0
  0
LINE
  5
372
100
AcDbEntity
  8
LAY-3
  6
CONTINUOUS
 62
     2
100
AcDbLine
 10
28.15
 20
210.9
 30
0.0
 11
418.2
 21
210.9
 31
0.0
  0
LINE
  5
373
100
AcDbEntity
  8
LAY-3
  6
CONTINUOUS
 62
     2
100
AcDbLine
 10
28.15
 20
215.9
 30
0.0
 11
418.2
 21
215.9
 31
0.0
  0
LINE
  5
374
100
AcDbEntity
  8
LAY-3
  6
CONTINUOUS
 62
     2
100
AcDbLine
 10
28.15
 20
248.4
 30
0.0
 11
418.2
 21
248.4
 31
0.0
  0
LINE
  5
375
100
AcDbEntity
  8
LAY-3
  6
CONTINUOUS
 62
     2
100
AcDbLine
 10
28.15
 20
253.4
 30
0.0
 11
418.2
 21
253.4
 31
0.0
  0
TEXT
  5
376
100
AcDbEntity
  8
LAY-3
  6
CONTINUOUS
 62
     7
100
AcDbText
 10
321.35
 20
212.05
 30
0.0
 40
2.5
  1
１２５Ａ×４００Ｌ
 41
0.989333
  7
EXCADSTD
 72
     5
 11
347.85
 21
212.05
 31
0.0
100
AcDbText
  0
TEXT
  5
377
100
AcDbEntity
  8
LAY-3
  6
CONTINUOUS
 62
     7
100
AcDbText
 10
377.4
 20
212.2
 30
0.0
 40
2.5
  1
１２５Ａ×７００Ｌ
 41
0.989333
  7
EXCADSTD
 72
     5
 11
403.9
 21
212.2
 31
0.0
100
AcDbText
  0
TEXT
  5
378
100
AcDbEntity
  8
LAY-3
  6
CONTINUOUS
 62
     7
100
AcDbText
 10
43.25
 20
174.6
 30
0.0
 40
2.5
  1
１５０Ａ×５００Ｌ
 41
0.989333
  7
EXCADSTD
 72
     5
 11
69.75
 21
174.6
 31
0.0
100
AcDbText
  0
TEXT
  5
379
100
AcDbEntity
  8
LAY-3
  6
CONTINUOUS
 62
     7
100
AcDbText
 10
99.4
 20
174.75
 30
0.0
 40
2.5
  1
１５０Ａ×７００Ｌ
 41
0.989333
  7
EXCADSTD
 72
     5
 11
125.9
 21
174.75
 31
0.0
100
AcDbText
  0
TEXT
  5
37A
100
AcDbEntity
  8
LAY-3
  6
CONTINUOUS
 62
     7
100
AcDbText
 10
154.6
 20
174.55
 30
0.0
 40
2.5
  1
２００Ａ×５００Ｌ
 41
0.989333
  7
EXCADSTD
 72
     5
 11
181.1
 21
174.55
 31
0.0
100
AcDbText
  0
TEXT
  5
37B
100
AcDbEntity
  8
LAY-3
  6
CONTINUOUS
 62
     7
100
AcDbText
 10
210.25
 20
174.55
 30
0.0
 40
2.5
  1
２００Ａ×７００Ｌ
 41
0.989333
  7
EXCADSTD
 72
     5
 11
236.75
 21
174.55
 31
0.0
100
AcDbText
  0
TEXT
  5
37C
100
AcDbEntity
  8
LAY-3
  6
CONTINUOUS
 62
     7
100
AcDbText
 10
266.3
 20
174.65
 30
0.0
 40
2.5
  1
２５０Ａ×５００Ｌ
 41
0.989333
  7
EXCADSTD
 72
     5
 11
292.8
 21
174.65
 31
0.0
100
AcDbText
  0
TEXT
  5
37D
100
AcDbEntity
  8
LAY-3
  6
CONTINUOUS
 62
     7
100
AcDbText
 10
322.3
 20
174.55
 30
0.0
 40
2.5
  1
２５０Ａ×７００Ｌ
 41
0.989333
  7
EXCADSTD
 72
     5
 11
348.8
 21
174.55
 31
0.0
100
AcDbText
  0
TEXT
  5
37E
100
AcDbEntity
  8
LAY-3
  6
CONTINUOUS
 62
     7
100
AcDbText
 10
377.25
 20
174.75
 30
0.0
 40
2.5
  1
３００Ａ×６００Ｌ
 41
0.989333
  7
EXCADSTD
 72
     5
 11
403.75
 21
174.75
 31
0.0
100
AcDbText
  0
TEXT
  5
37F
100
AcDbEntity
  8
LAY-3
  6
CONTINUOUS
 62
     7
100
AcDbText
 10
42.3
 20
137.2
 30
0.0
 40
2.5
  1
３００Ａ×７００Ｌ
 41
0.989333
  7
EXCADSTD
 72
     5
 11
68.8
 21
137.2
 31
0.0
100
AcDbText
  0
LINE
  5
380
100
AcDbEntity
  8
LAY-3
  6
EXLTYPE3
 62
     1
100
AcDbLine
 10
39.85
 20
157.15
 30
0.0
 11
73.7
 21
157.15
 31
0.0
  0
TEXT
  5
381
100
AcDbEntity
  8
LAY-3
  6
CONTINUOUS
 62
     7
100
AcDbText
 10
203.4
 20
261.95
 30
0.0
 40
10.0
  1
ライナーフレックス
 41
0.87675
  7
EXCADSTD
 72
     5
 11
297.3375
 21
261.95
 31
0.0
100
AcDbText
  0
TEXT
  5
382
100
AcDbEntity
  8
LAY-3
  6
CONTINUOUS
 62
     7
100
AcDbText
 10
39.95
 20
104.95
 30
0.0
 40
2.5
  1
国土交通省仕様書適合品
 41
0.989333
  7
EXCADSTD
 72
     5
 11
72.338889
 21
104.95
 31
0.0
100
AcDbText
  0
TEXT
  5
383
100
AcDbEntity
  8
LAY-3
  6
CONTINUOUS
 62
     7
100
AcDbText
 10
95.821429
 20
144.5
 30
0.0
 40
2.5
  1
国土交通省仕様書適合品
 41
0.989333
  7
EXCADSTD
 72
     5
 11
128.210318
 21
144.5
 31
0.0
100
AcDbText
  0
TEXT
  5
384
100
AcDbEntity
  8
LAY-3
  6
CONTINUOUS
 62
     7
100
AcDbText
 10
40.6
 20
183.75
 30
0.0
 40
2.5
  1
国土交通省仕様書適合品
 41
0.989333
  7
EXCADSTD
 72
     5
 11
72.988889
 21
183.75
 31
0.0
100
AcDbText
  0
TEXT
  5
385
100
AcDbEntity
  8
LAY-3
  6
CONTINUOUS
 62
     7
100
AcDbText
 10
41.1
 20
221.45
 30
0.0
 40
2.5
  1
国土交通省仕様書適合品
 41
0.989333
  7
EXCADSTD
 72
     5
 11
73.488889
 21
221.45
 31
0.0
100
AcDbText
  0
TEXT
  5
386
100
AcDbEntity
  8
LAY-3
  6
CONTINUOUS
 62
     7
100
AcDbText
 10
96.821429
 20
221.45
 30
0.0
 40
2.5
  1
国土交通省仕様書適合品
 41
0.989333
  7
EXCADSTD
 72
     5
 11
129.210318
 21
221.45
 31
0.0
100
AcDbText
  0
TEXT
  5
387
100
AcDbEntity
  8
LAY-3
  6
CONTINUOUS
 62
     7
100
AcDbText
 10
152.242857
 20
221.3
 30
0.0
 40
2.5
  1
国土交通省仕様書適合品
 41
0.989333
  7
EXCADSTD
 72
     5
 11
184.631746
 21
221.3
 31
0.0
100
AcDbText
  0
TEXT
  5
388
100
AcDbEntity
  8
LAY-3
  6
CONTINUOUS
 62
     7
100
AcDbText
 10
208.464286
 20
221.1
 30
0.0
 40
2.5
  1
国土交通省仕様書適合品
 41
0.989333
  7
EXCADSTD
 72
     5
 11
240.853175
 21
221.1
 31
0.0
100
AcDbText
  0
TEXT
  5
389
100
AcDbEntity
  8
LAY-3
  6
CONTINUOUS
 62
     7
100
AcDbText
 10
320.557143
 20
221.15
 30
0.0
 40
2.5
  1
国土交通省仕様書適合品
 41
0.989333
  7
EXCADSTD
 72
     5
 11
352.946032
 21
221.15
 31
0.0
100
AcDbText
  0
TEXT
  5
38A
100
AcDbEntity
  8
LAY-3
  6
CONTINUOUS
 62
     7
100
AcDbText
 10
376.278571
 20
182.45
 30
0.0
 40
2.5
  1
国土交通省仕様書適合品
 41
0.989333
  7
EXCADSTD
 72
     5
 11
408.66746
 21
182.45
 31
0.0
100
AcDbText
  0
TEXT
  5
38B
100
AcDbEntity
  8
LAY-3
  6
CONTINUOUS
 62
     7
100
AcDbText
 10
264.535714
 20
182.6
 30
0.0
 40
2.5
  1
国土交通省仕様書適合品
 41
0.989333
  7
EXCADSTD
 72
     5
 11
296.924603
 21
182.6
 31
0.0
100
AcDbText
  0
TEXT
  5
38C
100
AcDbEntity
  8
LAY-3
  6
CONTINUOUS
 62
     7
100
AcDbText
 10
152.242857
 20
182.25
 30
0.0
 40
2.5
  1
国土交通省仕様書適合品
 41
0.989333
  7
EXCADSTD
 72
     5
 11
184.631746
 21
182.25
 31
0.0
100
AcDbText
  0
TEXT
  5
38D
100
AcDbEntity
  8
LAY-3
  6
CONTINUOUS
 62
     7
100
AcDbText
 10
208.464286
 20
142.9
 30
0.0
 40
2.5
  1
国土交通省仕様書適合品
 41
0.989333
  7
EXCADSTD
 72
     5
 11
240.853175
 21
142.9
 31
0.0
100
AcDbText
  0
TEXT
  5
38E
100
AcDbEntity
  8
LAY-3
  6
CONTINUOUS
 62
     7
100
AcDbText
 10
319.057143
 20
142.6
 30
0.0
 40
2.5
  1
国土交通省仕様書適合品
 41
0.989333
  7
EXCADSTD
 72
     5
 11
351.446032
 21
142.6
 31
0.0
100
AcDbText
  0
LINE
  5
38F
100
AcDbEntity
  8
LAY-3
  6
CONTINUOUS
 62
     2
100
AcDbLine
 10
418.2
 20
98.4
 30
0.0
 11
418.2
 21
280.05
 31
0.0
  0
LINE
  5
390
100
AcDbEntity
  8
LAY-3
  6
CONTINUOUS
 62
     2
100
AcDbLine
 10
28.15
 20
280.05
 30
0.0
 11
28.15
 21
98.4
 31
0.0
  0
LINE
  5
391
100
AcDbEntity
  8
LAY-3
  6
CONTINUOUS
 62
     2
100
AcDbLine
 10
362.478571
 20
253.4
 30
0.0
 11
362.478571
 21
98.4
 31
0.0
  0
LINE
  5
392
100
AcDbEntity
  8
LAY-3
  6
CONTINUOUS
 62
     2
100
AcDbLine
 10
306.757143
 20
253.4
 30
0.0
 11
306.757143
 21
98.4
 31
0.0
  0
LINE
  5
393
100
AcDbEntity
  8
LAY-3
  6
CONTINUOUS
 62
     2
100
AcDbLine
 10
251.035714
 20
253.4
 30
0.0
 11
251.035714
 21
98.4
 31
0.0
  0
LINE
  5
394
100
AcDbEntity
  8
LAY-3
  6
CONTINUOUS
 62
     2
100
AcDbLine
 10
195.314286
 20
253.4
 30
0.0
 11
195.314286
 21
98.4
 31
0.0
  0
LINE
  5
395
100
AcDbEntity
  8
LAY-3
  6
CONTINUOUS
 62
     2
100
AcDbLine
 10
139.592857
 20
253.4
 30
0.0
 11
139.592857
 21
98.4
 31
0.0
  0
LINE
  5
396
100
AcDbEntity
  8
LAY-3
  6
CONTINUOUS
 62
     2
100
AcDbLine
 10
83.871429
 20
253.4
 30
0.0
 11
83.871429
 21
98.4
 31
0.0
  0
LINE
  5
397
100
AcDbEntity
  8
LAY-3
  6
EXLTYPE3
 62
     1
100
AcDbLine
 10
322.767857
 20
194.65
 30
0.0
 11
347.1
 21
194.65
 31
0.0
  0
LINE
  5
398
100
AcDbEntity
  8
LAY-4
  6
CONTINUOUS
 62
     2
100
AcDbLine
 10
171.273708
 20
272.2
 30
0.0
 11
172.726292
 21
272.2
 31
0.0
  0
LINE
  5
399
100
AcDbEntity
  8
LAY-4
  6
CONTINUOUS
 62
     2
100
AcDbLine
 10
170.24216
 20
271.95
 30
0.0
 11
173.75784
 21
271.95
 31
0.0
  0
LINE
  5
39A
100
AcDbEntity
  8
LAY-4
  6
CONTINUOUS
 62
     2
100
AcDbLine
 10
169.648936
 20
271.7
 30
0.0
 11
174.351064
 21
271.7
 31
0.0
  0
LINE
  5
39B
100
AcDbEntity
  8
LAY-4
  6
CONTINUOUS
 62
     2
100
AcDbLine
 10
169.2
 20
271.45
 30
0.0
 11
174.8
 21
271.45
 31
0.0
  0
LINE
  5
39C
100
AcDbEntity
  8
LAY-4
  6
CONTINUOUS
 62
     2
100
AcDbLine
 10
168.833377
 20
271.2
 30
0.0
 11
175.166623
 21
271.2
 31
0.0
  0
LINE
  5
39D
100
AcDbEntity
  8
LAY-4
  6
CONTINUOUS
 62
     2
100
AcDbLine
 10
168.522932
 20
270.95
 30
0.0
 11
175.477068
 21
270.95
 31
0.0
  0
LINE
  5
39E
100
AcDbEntity
  8
LAY-4
  6
CONTINUOUS
 62
     2
100
AcDbLine
 10
159.5
 20
270.7
 30
0.0
 11
167.555757
 21
270.7
 31
0.0
  0
LINE
  5
39F
100
AcDbEntity
  8
LAY-4
  6
CONTINUOUS
 62
     2
100
AcDbLine
 10
168.25467
 20
270.7
 30
0.0
 11
175.74533
 21
270.7
 31
0.0
  0
LINE
  5
3A0
100
AcDbEntity
  8
LAY-4
  6
CONTINUOUS
 62
     2
100
AcDbLine
 10
176.444243
 20
270.7
 30
0.0
 11
182.5
 21
270.7
 31
0.0
  0
LINE
  5
3A1
100
AcDbEntity
  8
LAY-4
  6
CONTINUOUS
 62
     2
100
AcDbLine
 10
183.35
 20
270.7
 30
0.0
 11
190.05
 21
270.7
 31
0.0
  0
LINE
  5
3A2
100
AcDbEntity
  8
LAY-4
  6
CONTINUOUS
 62
     2
100
AcDbLine
 10
190.8
 20
270.7
 30
0.0
 11
192.5
 21
270.7
 31
0.0
  0
LINE
  5
3A3
100
AcDbEntity
  8
LAY-4
  6
CONTINUOUS
 62
     2
100
AcDbLine
 10
196.0
 20
270.7
 30
0.0
 11
197.7
 21
270.7
 31
0.0
  0
LINE
  5
3A4
100
AcDbEntity
  8
LAY-4
  6
CONTINUOUS
 62
     2
100
AcDbLine
 10
159.5
 20
270.45
 30
0.0
 11
167.356316
 21
270.45
 31
0.0
  0
LINE
  5
3A5
100
AcDbEntity
  8
LAY-4
  6
CONTINUOUS
 62
     2
100
AcDbLine
 10
168.02005
 20
270.45
 30
0.0
 11
175.97995
 21
270.45
 31
0.0
  0
LINE
  5
3A6
100
AcDbEntity
  8
LAY-4
  6
CONTINUOUS
 62
     2
100
AcDbLine
 10
176.643684
 20
270.45
 30
0.0
 11
182.5
 21
270.45
 31
0.0
  0
LINE
  5
3A7
100
AcDbEntity
  8
LAY-4
  6
CONTINUOUS
 62
     2
100
AcDbLine
 10
183.35
 20
270.45
 30
0.0
 11
190.05
 21
270.45
 31
0.0
  0
LINE
  5
3A8
100
AcDbEntity
  8
LAY-4
  6
CONTINUOUS
 62
     2
100
AcDbLine
 10
190.8
 20
270.45
 30
0.0
 11
192.664522
 21
270.45
 31
0.0
  0
LINE
  5
3A9
100
AcDbEntity
  8
LAY-4
  6
CONTINUOUS
 62
     2
100
AcDbLine
 10
196.0
 20
270.45
 30
0.0
 11
197.7
 21
270.45
 31
0.0
  0
LINE
  5
3AA
100
AcDbEntity
  8
LAY-4
  6
CONTINUOUS
 62
     2
100
AcDbLine
 10
159.5
 20
270.2
 30
0.0
 11
167.17804
 21
270.2
 31
0.0
  0
LINE
  5
3AB
100
AcDbEntity
  8
LAY-4
  6
CONTINUOUS
 62
     2
100
AcDbLine
 10
167.813414
 20
270.2
 30
0.0
 11
170.700962
 21
270.2
 31
0.0
  0
LINE
  5
3AC
100
AcDbEntity
  8
LAY-4
  6
CONTINUOUS
 62
     2
100
AcDbLine
 10
173.299038
 20
270.2
 30
0.0
 11
176.186586
 21
270.2
 31
0.0
  0
LINE
  5
3AD
100
AcDbEntity
  8
LAY-4
  6
CONTINUOUS
 62
     2
100
AcDbLine
 10
176.82196
 20
270.2
 30
0.0
 11
182.5
 21
270.2
 31
0.0
  0
LINE
  5
3AE
100
AcDbEntity
  8
LAY-4
  6
CONTINUOUS
 62
     2
100
AcDbLine
 10
183.35
 20
270.2
 30
0.0
 11
190.05
 21
270.2
 31
0.0
  0
LINE
  5
3AF
100
AcDbEntity
  8
LAY-4
  6
CONTINUOUS
 62
     2
100
AcDbLine
 10
190.8
 20
270.2
 30
0.0
 11
192.829044
 21
270.2
 31
0.0
  0
LINE
  5
3B0
100
AcDbEntity
  8
LAY-4
  6
CONTINUOUS
 62
     2
100
AcDbLine
 10
196.0
 20
270.2
 30
0.0
 11
197.7
 21
270.2
 31
0.0
  0
LINE
  5
3B1
100
AcDbEntity
  8
LAY-4
  6
CONTINUOUS
 62
     2
100
AcDbLine
 10
159.5
 20
269.95
 30
0.0
 11
167.018655
 21
269.95
 31
0.0
  0
LINE
  5
3B2
100
AcDbEntity
  8
LAY-4
  6
CONTINUOUS
 62
     2
100
AcDbLine
 10
167.63079
 20
269.95
 30
0.0
 11
170.197224
 21
269.95
 31
0.0
  0
LINE
  5
3B3
100
AcDbEntity
  8
LAY-4
  6
CONTINUOUS
 62
     2
100
AcDbLine
 10
173.802776
 20
269.95
 30
0.0
 11
176.36921
 21
269.95
 31
0.0
  0
LINE
  5
3B4
100
AcDbEntity
  8
LAY-4
  6
CONTINUOUS
 62
     2
100
AcDbLine
 10
176.981345
 20
269.95
 30
0.0
 11
182.5
 21
269.95
 31
0.0
  0
LINE
  5
3B5
100
AcDbEntity
  8
LAY-4
  6
CONTINUOUS
 62
     2
100
AcDbLine
 10
183.35
 20
269.95
 30
0.0
 11
190.05
 21
269.95
 31
0.0
  0
LINE
  5
3B6
100
AcDbEntity
  8
LAY-4
  6
CONTINUOUS
 62
     2
100
AcDbLine
 10
190.8
 20
269.95
 30
0.0
 11
192.993566
 21
269.95
 31
0.0
  0
LINE
  5
3B7
100
AcDbEntity
  8
LAY-4
  6
CONTINUOUS
 62
     2
100
AcDbLine
 10
196.0
 20
269.95
 30
0.0
 11
197.7
 21
269.95
 31
0.0
  0
LINE
  5
3B8
100
AcDbEntity
  8
LAY-4
  6
CONTINUOUS
 62
     2
100
AcDbLine
 10
159.5
 20
269.7
 30
0.0
 11
166.876398
 21
269.7
 31
0.0
  0
LINE
  5
3B9
100
AcDbEntity
  8
LAY-4
  6
CONTINUOUS
 62
     2
100
AcDbLine
 10
167.469272
 20
269.7
 30
0.0
 11
169.834936
 21
269.7
 31
0.0
  0
LINE
  5
3BA
100
AcDbEntity
  8
LAY-4
  6
CONTINUOUS
 62
     2
100
AcDbLine
 10
174.165064
 20
269.7
 30
0.0
 11
176.530728
 21
269.7
 31
0.0
  0
LINE
  5
3BB
100
AcDbEntity
  8
LAY-4
  6
CONTINUOUS
 62
     2
100
AcDbLine
 10
177.123602
 20
269.7
 30
0.0
 11
182.5
 21
269.7
 31
0.0
  0
LINE
  5
3BC
100
AcDbEntity
  8
LAY-4
  6
CONTINUOUS
 62
     2
100
AcDbLine
 10
183.35
 20
269.7
 30
0.0
 11
190.05
 21
269.7
 31
0.0
  0
LINE
  5
3BD
100
AcDbEntity
  8
LAY-4
  6
CONTINUOUS
 62
     2
100
AcDbLine
 10
190.8
 20
269.7
 30
0.0
 11
193.158088
 21
269.7
 31
0.0
  0
LINE
  5
3BE
100
AcDbEntity
  8
LAY-4
  6
CONTINUOUS
 62
     2
100
AcDbLine
 10
196.0
 20
269.7
 30
0.0
 11
197.7
 21
269.7
 31
0.0
  0
LINE
  5
3BF
100
AcDbEntity
  8
LAY-4
  6
CONTINUOUS
 62
     2
100
AcDbLine
 10
159.5
 20
269.45
 30
0.0
 11
166.749876
 21
269.45
 31
0.0
  0
LINE
  5
3C0
100
AcDbEntity
  8
LAY-4
  6
CONTINUOUS
 62
     2
100
AcDbLine
 10
167.326671
 20
269.45
 30
0.0
 11
169.55051
 21
269.45
 31
0.0
  0
LINE
  5
3C1
100
AcDbEntity
  8
LAY-4
  6
CONTINUOUS
 62
     2
100
AcDbLine
 10
171.12108
 20
269.45
 30
0.0
 11
172.87892
 21
269.45
 31
0.0
  0
LINE
  5
3C2
100
AcDbEntity
  8
LAY-4
  6
CONTINUOUS
 62
     2
100
AcDbLine
 10
174.44949
 20
269.45
 30
0.0
 11
176.673329
 21
269.45
 31
0.0
  0
LINE
  5
3C3
100
AcDbEntity
  8
LAY-4
  6
CONTINUOUS
 62
     2
100
AcDbLine
 10
177.250124
 20
269.45
 30
0.0
 11
182.5
 21
269.45
 31
0.0
  0
LINE
  5
3C4
100
AcDbEntity
  8
LAY-4
  6
CONTINUOUS
 62
     2
100
AcDbLine
 10
183.35
 20
269.45
 30
0.0
 11
190.05
 21
269.45
 31
0.0
  0
LINE
  5
3C5
100
AcDbEntity
  8
LAY-4
  6
CONTINUOUS
 62
     2
100
AcDbLine
 10
190.8
 20
269.45
 30
0.0
 11
193.32261
 21
269.45
 31
0.0
  0
LINE
  5
3C6
100
AcDbEntity
  8
LAY-4
  6
CONTINUOUS
 62
     2
100
AcDbLine
 10
196.0
 20
269.45
 30
0.0
 11
197.7
 21
269.45
 31
0.0
  0
LINE
  5
3C7
100
AcDbEntity
  8
LAY-4
  6
CONTINUOUS
 62
     2
100
AcDbLine
 10
159.5
 20
269.2
 30
0.0
 11
166.637976
 21
269.2
 31
0.0
  0
LINE
  5
3C8
100
AcDbEntity
  8
LAY-4
  6
CONTINUOUS
 62
     2
100
AcDbLine
 10
167.201302
 20
269.2
 30
0.0
 11
169.319049
 21
269.2
 31
0.0
  0
LINE
  5
3C9
100
AcDbEntity
  8
LAY-4
  6
CONTINUOUS
 62
     2
100
AcDbLine
 10
170.6
 20
269.2
 30
0.0
 11
173.4
 21
269.2
 31
0.0
  0
LINE
  5
3CA
100
AcDbEntity
  8
LAY-4
  6
CONTINUOUS
 62
     2
100
AcDbLine
 10
174.680951
 20
269.2
 30
0.0
 11
176.798698
 21
269.2
 31
0.0
  0
LINE
  5
3CB
100
AcDbEntity
  8
LAY-4
  6
CONTINUOUS
 62
     2
100
AcDbLine
 10
177.362024
 20
269.2
 30
0.0
 11
182.5
 21
269.2
 31
0.0
  0
LINE
  5
3CC
100
AcDbEntity
  8
LAY-4
  6
CONTINUOUS
 62
     2
100
AcDbLine
 10
183.35
 20
269.2
 30
0.0
 11
190.05
 21
269.2
 31
0.0
  0
LINE
  5
3CD
100
AcDbEntity
  8
LAY-4
  6
CONTINUOUS
 62
     2
100
AcDbLine
 10
190.8
 20
269.2
 30
0.0
 11
193.487132
 21
269.2
 31
0.0
  0
LINE
  5
3CE
100
AcDbEntity
  8
LAY-4
  6
CONTINUOUS
 62
     2
100
AcDbLine
 10
196.0
 20
269.2
 30
0.0
 11
197.7
 21
269.2
 31
0.0
  0
LINE
  5
3CF
100
AcDbEntity
  8
LAY-4
  6
CONTINUOUS
 62
     2
100
AcDbLine
 10
163.0
 20
268.95
 30
0.0
 11
164.75
 21
268.95
 31
0.0
  0
LINE
  5
3D0
100
AcDbEntity
  8
LAY-4
  6
CONTINUOUS
 62
     2
100
AcDbLine
 10
167.091844
 20
268.95
 30
0.0
 11
169.127719
 21
268.95
 31
0.0
  0
LINE
  5
3D1
100
AcDbEntity
  8
LAY-4
  6
CONTINUOUS
 62
     2
100
AcDbLine
 10
170.261466
 20
268.95
 30
0.0
 11
173.738534
 21
268.95
 31
0.0
  0
LINE
  5
3D2
100
AcDbEntity
  8
LAY-4
  6
CONTINUOUS
 62
     2
100
AcDbLine
 10
174.872281
 20
268.95
 30
0.0
 11
176.908156
 21
268.95
 31
0.0
  0
LINE
  5
3D3
100
AcDbEntity
  8
LAY-4
  6
CONTINUOUS
 62
     2
100
AcDbLine
 10
180.57152
 20
268.95
 30
0.0
 11
182.5
 21
268.95
 31
0.0
  0
LINE
  5
3D4
100
AcDbEntity
  8
LAY-4
  6
CONTINUOUS
 62
     2
100
AcDbLine
 10
183.35
 20
268.95
 30
0.0
 11
185.1
 21
268.95
 31
0.0
  0
LINE
  5
3D5
100
AcDbEntity
  8
LAY-4
  6
CONTINUOUS
 62
     2
100
AcDbLine
 10
190.8
 20
268.95
 30
0.0
 11
193.651654
 21
268.95
 31
0.0
  0
LINE
  5
3D6
100
AcDbEntity
  8
LAY-4
  6
CONTINUOUS
 62
     2
100
AcDbLine
 10
196.0
 20
268.95
 30
0.0
 11
197.7
 21
268.95
 31
0.0
  0
LINE
  5
3D7
100
AcDbEntity
  8
LAY-4
  6
CONTINUOUS
 62
     2
100
AcDbLine
 10
163.0
 20
268.7
 30
0.0
 11
164.75
 21
268.7
 31
0.0
  0
LINE
  5
3D8
100
AcDbEntity
  8
LAY-4
  6
CONTINUOUS
 62
     2
100
AcDbLine
 10
166.997251
 20
268.7
 30
0.0
 11
168.968911
 21
268.7
 31
0.0
  0
LINE
  5
3D9
100
AcDbEntity
  8
LAY-4
  6
CONTINUOUS
 62
     2
100
AcDbLine
 10
170.010025
 20
268.7
 30
0.0
 11
173.989975
 21
268.7
 31
0.0
  0
LINE
  5
3DA
100
AcDbEntity
  8
LAY-4
  6
CONTINUOUS
 62
     2
100
AcDbLine
 10
175.031089
 20
268.7
 30
0.0
 11
177.002749
 21
268.7
 31
0.0
  0
LINE
  5
3DB
100
AcDbEntity
  8
LAY-4
  6
CONTINUOUS
 62
     2
100
AcDbLine
 10
180.346146
 20
268.7
 30
0.0
 11
182.274625
 21
268.7
 31
0.0
  0
LINE
  5
3DC
100
AcDbEntity
  8
LAY-4
  6
CONTINUOUS
 62
     2
100
AcDbLine
 10
183.35
 20
268.7
 30
0.0
 11
185.1
 21
268.7
 31
0.0
  0
LINE
  5
3DD
100
AcDbEntity
  8
LAY-4
  6
CONTINUOUS
 62
     2
100
AcDbLine
 10
190.8
 20
268.7
 30
0.0
 11
193.816176
 21
268.7
 31
0.0
  0
LINE
  5
3DE
100
AcDbEntity
  8
LAY-4
  6
CONTINUOUS
 62
     2
100
AcDbLine
 10
196.0
 20
268.7
 30
0.0
 11
197.7
 21
268.7
 31
0.0
  0
LINE
  5
3DF
100
AcDbEntity
  8
LAY-4
  6
CONTINUOUS
 62
     2
100
AcDbLine
 10
163.0
 20
268.45
 30
0.0
 11
164.75
 21
268.45
 31
0.0
  0
LINE
  5
3E0
100
AcDbEntity
  8
LAY-4
  6
CONTINUOUS
 62
     2
100
AcDbLine
 10
166.916694
 20
268.45
 30
0.0
 11
168.837722
 21
268.45
 31
0.0
  0
LINE
  5
3E1
100
AcDbEntity
  8
LAY-4
  6
CONTINUOUS
 62
     2
100
AcDbLine
 10
169.815395
 20
268.45
 30
0.0
 11
174.184605
 21
268.45
 31
0.0
  0
LINE
  5
3E2
100
AcDbEntity
  8
LAY-4
  6
CONTINUOUS
 62
     2
100
AcDbLine
 10
175.162278
 20
268.45
 30
0.0
 11
177.083306
 21
268.45
 31
0.0
  0
LINE
  5
3E3
100
AcDbEntity
  8
LAY-4
  6
CONTINUOUS
 62
     2
100
AcDbLine
 10
180.120771
 20
268.45
 30
0.0
 11
182.049251
 21
268.45
 31
0.0
  0
LINE
  5
3E4
100
AcDbEntity
  8
LAY-4
  6
CONTINUOUS
 62
     2
100
AcDbLine
 10
183.35
 20
268.45
 30
0.0
 11
185.1
 21
268.45
 31
0.0
  0
LINE
  5
3E5
100
AcDbEntity
  8
LAY-4
  6
CONTINUOUS
 62
     2
100
AcDbLine
 10
190.8
 20
268.45
 30
0.0
 11
192.5
 21
268.45
 31
0.0
  0
LINE
  5
3E6
100
AcDbEntity
  8
LAY-4
  6
CONTINUOUS
 62
     2
100
AcDbLine
 10
192.545037
 20
268.45
 30
0.0
 11
193.980699
 21
268.45
 31
0.0
  0
LINE
  5
3E7
100
AcDbEntity
  8
LAY-4
  6
CONTINUOUS
 62
     2
100
AcDbLine
 10
196.0
 20
268.45
 30
0.0
 11
197.7
 21
268.45
 31
0.0
  0
LINE
  5
3E8
100
AcDbEntity
  8
LAY-4
  6
CONTINUOUS
 62
     2
100
AcDbLine
 10
163.0
 20
268.2
 30
0.0
 11
164.75
 21
268.2
 31
0.0
  0
LINE
  5
3E9
100
AcDbEntity
  8
LAY-4
  6
CONTINUOUS
 62
     2
100
AcDbLine
 10
166.849515
 20
268.2
 30
0.0
 11
168.730826
 21
268.2
 31
0.0
  0
LINE
  5
3EA
100
AcDbEntity
  8
LAY-4
  6
CONTINUOUS
 62
     2
100
AcDbLine
 10
169.663336
 20
268.2
 30
0.0
 11
174.336664
 21
268.2
 31
0.0
  0
LINE
  5
3EB
100
AcDbEntity
  8
LAY-4
  6
CONTINUOUS
 62
     2
100
AcDbLine
 10
175.269174
 20
268.2
 30
0.0
 11
177.150485
 21
268.2
 31
0.0
  0
LINE
  5
3EC
100
AcDbEntity
  8
LAY-4
  6
CONTINUOUS
 62
     2
100
AcDbLine
 10
179.895396
 20
268.2
 30
0.0
 11
181.823876
 21
268.2
 31
0.0
  0
LINE
  5
3ED
100
AcDbEntity
  8
LAY-4
  6
CONTINUOUS
 62
     2
100
AcDbLine
 10
183.35
 20
268.2
 30
0.0
 11
185.1
 21
268.2
 31
0.0
  0
LINE
  5
3EE
100
AcDbEntity
  8
LAY-4
  6
CONTINUOUS
 62
     2
100
AcDbLine
 10
190.8
 20
268.2
 30
0.0
 11
192.5
 21
268.2
 31
0.0
  0
LINE
  5
3EF
100
AcDbEntity
  8
LAY-4
  6
CONTINUOUS
 62
     2
100
AcDbLine
 10
192.709559
 20
268.2
 30
0.0
 11
194.145221
 21
268.2
 31
0.0
  0
LINE
  5
3F0
100
AcDbEntity
  8
LAY-4
  6
CONTINUOUS
 62
     2
100
AcDbLine
 10
196.0
 20
268.2
 30
0.0
 11
197.7
 21
268.2
 31
0.0
  0
LINE
  5
3F1
100
AcDbEntity
  8
LAY-4
  6
CONTINUOUS
 62
     2
100
AcDbLine
 10
163.0
 20
267.95
 30
0.0
 11
164.75
 21
267.95
 31
0.0
  0
LINE
  5
3F2
100
AcDbEntity
  8
LAY-4
  6
CONTINUOUS
 62
     2
100
AcDbLine
 10
166.795195
 20
267.95
 30
0.0
 11
168.645898
 21
267.95
 31
0.0
  0
LINE
  5
3F3
100
AcDbEntity
  8
LAY-4
  6
CONTINUOUS
 62
     2
100
AcDbLine
 10
169.545922
 20
267.95
 30
0.0
 11
174.454078
 21
267.95
 31
0.0
  0
LINE
  5
3F4
100
AcDbEntity
  8
LAY-4
  6
CONTINUOUS
 62
     2
100
AcDbLine
 10
175.354102
 20
267.95
 30
0.0
 11
177.204805
 21
267.95
 31
0.0
  0
LINE
  5
3F5
100
AcDbEntity
  8
LAY-4
  6
CONTINUOUS
 62
     2
100
AcDbLine
 10
179.670021
 20
267.95
 30
0.0
 11
181.598501
 21
267.95
 31
0.0
  0
LINE
  5
3F6
100
AcDbEntity
  8
LAY-4
  6
CONTINUOUS
 62
     2
100
AcDbLine
 10
183.35
 20
267.95
 30
0.0
 11
185.1
 21
267.95
 31
0.0
  0
LINE
  5
3F7
100
AcDbEntity
  8
LAY-4
  6
CONTINUOUS
 62
     2
100
AcDbLine
 10
190.8
 20
267.95
 30
0.0
 11
192.5
 21
267.95
 31
0.0
  0
LINE
  5
3F8
100
AcDbEntity
  8
LAY-4
  6
CONTINUOUS
 62
     2
100
AcDbLine
 10
192.874081
 20
267.95
 30
0.0
 11
194.309743
 21
267.95
 31
0.0
  0
LINE
  5
3F9
100
AcDbEntity
  8
LAY-4
  6
CONTINUOUS
 62
     2
100
AcDbLine
 10
196.0
 20
267.95
 30
0.0
 11
197.7
 21
267.95
 31
0.0
  0
LINE
  5
3FA
100
AcDbEntity
  8
LAY-4
  6
CONTINUOUS
 62
     2
100
AcDbLine
 10
163.0
 20
267.7
 30
0.0
 11
164.75
 21
267.7
 31
0.0
  0
LINE
  5
3FB
100
AcDbEntity
  8
LAY-4
  6
CONTINUOUS
 62
     2
100
AcDbLine
 10
166.753334
 20
267.7
 30
0.0
 11
168.581301
 21
267.7
 31
0.0
  0
LINE
  5
3FC
100
AcDbEntity
  8
LAY-4
  6
CONTINUOUS
 62
     2
100
AcDbLine
 10
169.458347
 20
267.7
 30
0.0
 11
174.541653
 21
267.7
 31
0.0
  0
LINE
  5
3FD
100
AcDbEntity
  8
LAY-4
  6
CONTINUOUS
 62
     2
100
AcDbLine
 10
175.418699
 20
267.7
 30
0.0
 11
177.246666
 21
267.7
 31
0.0
  0
LINE
  5
3FE
100
AcDbEntity
  8
LAY-4
  6
CONTINUOUS
 62
     2
100
AcDbLine
 10
179.444647
 20
267.7
 30
0.0
 11
181.373126
 21
267.7
 31
0.0
  0
LINE
  5
3FF
100
AcDbEntity
  8
LAY-4
  6
CONTINUOUS
 62
     2
100
AcDbLine
 10
183.35
 20
267.7
 30
0.0
 11
190.05
 21
267.7
 31
0.0
  0
LINE
  5
400
100
AcDbEntity
  8
LAY-4
  6
CONTINUOUS
 62
     2
100
AcDbLine
 10
190.8
 20
267.7
 30
0.0
 11
192.5
 21
267.7
 31
0.0
  0
LINE
  5
401
100
AcDbEntity
  8
LAY-4
  6
CONTINUOUS
 62
     2
100
AcDbLine
 10
193.038603
 20
267.7
 30
0.0
 11
194.474265
 21
267.7
 31
0.0
  0
LINE
  5
402
100
AcDbEntity
  8
LAY-4
  6
CONTINUOUS
 62
     2
100
AcDbLine
 10
196.0
 20
267.7
 30
0.0
 11
197.7
 21
267.7
 31
0.0
  0
LINE
  5
403
100
AcDbEntity
  8
LAY-4
  6
CONTINUOUS
 62
     2
100
AcDbLine
 10
163.0
 20
267.45
 30
0.0
 11
164.75
 21
267.45
 31
0.0
  0
LINE
  5
404
100
AcDbEntity
  8
LAY-4
  6
CONTINUOUS
 62
     2
100
AcDbLine
 10
166.723638
 20
267.45
 30
0.0
 11
168.535898
 21
267.45
 31
0.0
  0
LINE
  5
405
100
AcDbEntity
  8
LAY-4
  6
CONTINUOUS
 62
     2
100
AcDbLine
 10
169.397597
 20
267.45
 30
0.0
 11
174.602403
 21
267.45
 31
0.0
  0
LINE
  5
406
100
AcDbEntity
  8
LAY-4
  6
CONTINUOUS
 62
     2
100
AcDbLine
 10
175.464102
 20
267.45
 30
0.0
 11
177.276362
 21
267.45
 31
0.0
  0
LINE
  5
407
100
AcDbEntity
  8
LAY-4
  6
CONTINUOUS
 62
     2
100
AcDbLine
 10
179.219272
 20
267.45
 30
0.0
 11
181.147752
 21
267.45
 31
0.0
  0
LINE
  5
408
100
AcDbEntity
  8
LAY-4
  6
CONTINUOUS
 62
     2
100
AcDbLine
 10
183.35
 20
267.45
 30
0.0
 11
190.05
 21
267.45
 31
0.0
  0
LINE
  5
409
100
AcDbEntity
  8
LAY-4
  6
CONTINUOUS
 62
     2
100
AcDbLine
 10
190.8
 20
267.45
 30
0.0
 11
192.5
 21
267.45
 31
0.0
  0
LINE
  5
40A
100
AcDbEntity
  8
LAY-4
  6
CONTINUOUS
 62
     2
100
AcDbLine
 10
193.203125
 20
267.45
 30
0.0
 11
194.638787
 21
267.45
 31
0.0
  0
LINE
  5
40B
100
AcDbEntity
  8
LAY-4
  6
CONTINUOUS
 62
     2
100
AcDbLine
 10
196.0
 20
267.45
 30
0.0
 11
197.7
 21
267.45
 31
0.0
  0
LINE
  5
40C
100
AcDbEntity
  8
LAY-4
  6
CONTINUOUS
 62
     2
100
AcDbLine
 10
163.0
 20
267.2
 30
0.0
 11
164.75
 21
267.2
 31
0.0
  0
LINE
  5
40D
100
AcDbEntity
  8
LAY-4
  6
CONTINUOUS
 62
     2
100
AcDbLine
 10
166.7059
 20
267.2
 30
0.0
 11
168.50894
 21
267.2
 31
0.0
  0
LINE
  5
40E
100
AcDbEntity
  8
LAY-4
  6
CONTINUOUS
 62
     2
100
AcDbLine
 10
169.361819
 20
267.2
 30
0.0
 11
174.638181
 21
267.2
 31
0.0
  0
LINE
  5
40F
100
AcDbEntity
  8
LAY-4
  6
CONTINUOUS
 62
     2
100
AcDbLine
 10
175.49106
 20
267.2
 30
0.0
 11
177.2941
 21
267.2
 31
0.0
  0
LINE
  5
410
100
AcDbEntity
  8
LAY-4
  6
CONTINUOUS
 62
     2
100
AcDbLine
 10
178.993897
 20
267.2
 30
0.0
 11
180.922377
 21
267.2
 31
0.0
  0
LINE
  5
411
100
AcDbEntity
  8
LAY-4
  6
CONTINUOUS
 62
     2
100
AcDbLine
 10
183.35
 20
267.2
 30
0.0
 11
190.05
 21
267.2
 31
0.0
  0
LINE
  5
412
100
AcDbEntity
  8
LAY-4
  6
CONTINUOUS
 62
     2
100
AcDbLine
 10
190.8
 20
267.2
 30
0.0
 11
192.5
 21
267.2
 31
0.0
  0
LINE
  5
413
100
AcDbEntity
  8
LAY-4
  6
CONTINUOUS
 62
     2
100
AcDbLine
 10
193.367647
 20
267.2
 30
0.0
 11
194.803309
 21
267.2
 31
0.0
  0
LINE
  5
414
100
AcDbEntity
  8
LAY-4
  6
CONTINUOUS
 62
     2
100
AcDbLine
 10
196.0
 20
267.2
 30
0.0
 11
197.7
 21
267.2
 31
0.0
  0
LINE
  5
415
100
AcDbEntity
  8
LAY-4
  6
CONTINUOUS
 62
     2
100
AcDbLine
 10
163.0
 20
266.95
 30
0.0
 11
164.75
 21
266.95
 31
0.0
  0
LINE
  5
416
100
AcDbEntity
  8
LAY-4
  6
CONTINUOUS
 62
     2
100
AcDbLine
 10
166.7
 20
266.95
 30
0.0
 11
168.5
 21
266.95
 31
0.0
  0
LINE
  5
417
100
AcDbEntity
  8
LAY-4
  6
CONTINUOUS
 62
     2
100
AcDbLine
 10
169.35
 20
266.95
 30
0.0
 11
174.65
 21
266.95
 31
0.0
  0
LINE
  5
418
100
AcDbEntity
  8
LAY-4
  6
CONTINUOUS
 62
     2
100
AcDbLine
 10
175.5
 20
266.95
 30
0.0
 11
177.3
 21
266.95
 31
0.0
  0
LINE
  5
419
100
AcDbEntity
  8
LAY-4
  6
CONTINUOUS
 62
     2
100
AcDbLine
 10
178.768522
 20
266.95
 30
0.0
 11
180.697002
 21
266.95
 31
0.0
  0
LINE
  5
41A
100
AcDbEntity
  8
LAY-4
  6
CONTINUOUS
 62
     2
100
AcDbLine
 10
183.35
 20
266.95
 30
0.0
 11
190.05
 21
266.95
 31
0.0
  0
LINE
  5
41B
100
AcDbEntity
  8
LAY-4
  6
CONTINUOUS
 62
     2
100
AcDbLine
 10
190.8
 20
266.95
 30
0.0
 11
192.5
 21
266.95
 31
0.0
  0
LINE
  5
41C
100
AcDbEntity
  8
LAY-4
  6
CONTINUOUS
 62
     2
100
AcDbLine
 10
193.532169
 20
266.95
 30
0.0
 11
194.967831
 21
266.95
 31
0.0
  0
LINE
  5
41D
100
AcDbEntity
  8
LAY-4
  6
CONTINUOUS
 62
     2
100
AcDbLine
 10
196.0
 20
266.95
 30
0.0
 11
197.7
 21
266.95
 31
0.0
  0
LINE
  5
41E
100
AcDbEntity
  8
LAY-4
  6
CONTINUOUS
 62
     2
100
AcDbLine
 10
163.0
 20
266.7
 30
0.0
 11
164.75
 21
266.7
 31
0.0
  0
LINE
  5
41F
100
AcDbEntity
  8
LAY-4
  6
CONTINUOUS
 62
     2
100
AcDbLine
 10
166.7059
 20
266.7
 30
0.0
 11
168.50894
 21
266.7
 31
0.0
  0
LINE
  5
420
100
AcDbEntity
  8
LAY-4
  6
CONTINUOUS
 62
     2
100
AcDbLine
 10
169.361819
 20
266.7
 30
0.0
 11
174.638181
 21
266.7
 31
0.0
  0
LINE
  5
421
100
AcDbEntity
  8
LAY-4
  6
CONTINUOUS
 62
     2
100
AcDbLine
 10
175.49106
 20
266.7
 30
0.0
 11
177.2941
 21
266.7
 31
0.0
  0
LINE
  5
422
100
AcDbEntity
  8
LAY-4
  6
CONTINUOUS
 62
     2
100
AcDbLine
 10
178.543148
 20
266.7
 30
0.0
 11
180.471627
 21
266.7
 31
0.0
  0
LINE
  5
423
100
AcDbEntity
  8
LAY-4
  6
CONTINUOUS
 62
     2
100
AcDbLine
 10
183.35
 20
266.7
 30
0.0
 11
190.05
 21
266.7
 31
0.0
  0
LINE
  5
424
100
AcDbEntity
  8
LAY-4
  6
CONTINUOUS
 62
     2
100
AcDbLine
 10
190.8
 20
266.7
 30
0.0
 11
192.5
 21
266.7
 31
0.0
  0
LINE
  5
425
100
AcDbEntity
  8
LAY-4
  6
CONTINUOUS
 62
     2
100
AcDbLine
 10
193.696691
 20
266.7
 30
0.0
 11
195.132353
 21
266.7
 31
0.0
  0
LINE
  5
426
100
AcDbEntity
  8
LAY-4
  6
CONTINUOUS
 62
     2
100
AcDbLine
 10
196.0
 20
266.7
 30
0.0
 11
197.7
 21
266.7
 31
0.0
  0
LINE
  5
427
100
AcDbEntity
  8
LAY-4
  6
CONTINUOUS
 62
     2
100
AcDbLine
 10
163.0
 20
266.45
 30
0.0
 11
164.75
 21
266.45
 31
0.0
  0
LINE
  5
428
100
AcDbEntity
  8
LAY-4
  6
CONTINUOUS
 62
     2
100
AcDbLine
 10
166.723638
 20
266.45
 30
0.0
 11
168.535898
 21
266.45
 31
0.0
  0
LINE
  5
429
100
AcDbEntity
  8
LAY-4
  6
CONTINUOUS
 62
     2
100
AcDbLine
 10
169.397597
 20
266.45
 30
0.0
 11
174.602403
 21
266.45
 31
0.0
  0
LINE
  5
42A
100
AcDbEntity
  8
LAY-4
  6
CONTINUOUS
 62
     2
100
AcDbLine
 10
175.464102
 20
266.45
 30
0.0
 11
177.276362
 21
266.45
 31
0.0
  0
LINE
  5
42B
100
AcDbEntity
  8
LAY-4
  6
CONTINUOUS
 62
     2
100
AcDbLine
 10
178.317773
 20
266.45
 30
0.0
 11
180.246253
 21
266.45
 31
0.0
  0
LINE
  5
42C
100
AcDbEntity
  8
LAY-4
  6
CONTINUOUS
 62
     2
100
AcDbLine
 10
183.35
 20
266.45
 30
0.0
 11
190.05
 21
266.45
 31
0.0
  0
LINE
  5
42D
100
AcDbEntity
  8
LAY-4
  6
CONTINUOUS
 62
     2
100
AcDbLine
 10
190.8
 20
266.45
 30
0.0
 11
192.5
 21
266.45
 31
0.0
  0
LINE
  5
42E
100
AcDbEntity
  8
LAY-4
  6
CONTINUOUS
 62
     2
100
AcDbLine
 10
193.861213
 20
266.45
 30
0.0
 11
195.296875
 21
266.45
 31
0.0
  0
LINE
  5
42F
100
AcDbEntity
  8
LAY-4
  6
CONTINUOUS
 62
     2
100
AcDbLine
 10
196.0
 20
266.45
 30
0.0
 11
197.7
 21
266.45
 31
0.0
  0
LINE
  5
430
100
AcDbEntity
  8
LAY-4
  6
CONTINUOUS
 62
     2
100
AcDbLine
 10
163.0
 20
266.2
 30
0.0
 11
164.75
 21
266.2
 31
0.0
  0
LINE
  5
431
100
AcDbEntity
  8
LAY-4
  6
CONTINUOUS
 62
     2
100
AcDbLine
 10
166.753334
 20
266.2
 30
0.0
 11
168.581301
 21
266.2
 31
0.0
  0
LINE
  5
432
100
AcDbEntity
  8
LAY-4
  6
CONTINUOUS
 62
     2
100
AcDbLine
 10
169.458347
 20
266.2
 30
0.0
 11
174.541653
 21
266.2
 31
0.0
  0
LINE
  5
433
100
AcDbEntity
  8
LAY-4
  6
CONTINUOUS
 62
     2
100
AcDbLine
 10
175.418699
 20
266.2
 30
0.0
 11
177.246666
 21
266.2
 31
0.0
  0
LINE
  5
434
100
AcDbEntity
  8
LAY-4
  6
CONTINUOUS
 62
     2
100
AcDbLine
 10
178.092398
 20
266.2
 30
0.0
 11
180.020878
 21
266.2
 31
0.0
  0
LINE
  5
435
100
AcDbEntity
  8
LAY-4
  6
CONTINUOUS
 62
     2
100
AcDbLine
 10
183.35
 20
266.2
 30
0.0
 11
185.1
 21
266.2
 31
0.0
  0
LINE
  5
436
100
AcDbEntity
  8
LAY-4
  6
CONTINUOUS
 62
     2
100
AcDbLine
 10
190.8
 20
266.2
 30
0.0
 11
192.5
 21
266.2
 31
0.0
  0
LINE
  5
437
100
AcDbEntity
  8
LAY-4
  6
CONTINUOUS
 62
     2
100
AcDbLine
 10
194.025735
 20
266.2
 30
0.0
 11
195.461397
 21
266.2
 31
0.0
  0
LINE
  5
438
100
AcDbEntity
  8
LAY-4
  6
CONTINUOUS
 62
     2
100
AcDbLine
 10
196.0
 20
266.2
 30
0.0
 11
197.7
 21
266.2
 31
0.0
  0
LINE
  5
439
100
AcDbEntity
  8
LAY-4
  6
CONTINUOUS
 62
     2
100
AcDbLine
 10
163.0
 20
265.95
 30
0.0
 11
164.75
 21
265.95
 31
0.0
  0
LINE
  5
43A
100
AcDbEntity
  8
LAY-4
  6
CONTINUOUS
 62
     2
100
AcDbLine
 10
166.795195
 20
265.95
 30
0.0
 11
168.645898
 21
265.95
 31
0.0
  0
LINE
  5
43B
100
AcDbEntity
  8
LAY-4
  6
CONTINUOUS
 62
     2
100
AcDbLine
 10
169.545922
 20
265.95
 30
0.0
 11
174.454078
 21
265.95
 31
0.0
  0
LINE
  5
43C
100
AcDbEntity
  8
LAY-4
  6
CONTINUOUS
 62
     2
100
AcDbLine
 10
175.354102
 20
265.95
 30
0.0
 11
177.204805
 21
265.95
 31
0.0
  0
LINE
  5
43D
100
AcDbEntity
  8
LAY-4
  6
CONTINUOUS
 62
     2
100
AcDbLine
 10
177.867024
 20
265.95
 30
0.0
 11
179.795503
 21
265.95
 31
0.0
  0
LINE
  5
43E
100
AcDbEntity
  8
LAY-4
  6
CONTINUOUS
 62
     2
100
AcDbLine
 10
183.35
 20
265.95
 30
0.0
 11
185.1
 21
265.95
 31
0.0
  0
LINE
  5
43F
100
AcDbEntity
  8
LAY-4
  6
CONTINUOUS
 62
     2
100
AcDbLine
 10
190.8
 20
265.95
 30
0.0
 11
192.5
 21
265.95
 31
0.0
  0
LINE
  5
440
100
AcDbEntity
  8
LAY-4
  6
CONTINUOUS
 62
     2
100
AcDbLine
 10
194.190257
 20
265.95
 30
0.0
 11
195.625919
 21
265.95
 31
0.0
  0
LINE
  5
441
100
AcDbEntity
  8
LAY-4
  6
CONTINUOUS
 62
     2
100
AcDbLine
 10
196.0
 20
265.95
 30
0.0
 11
197.7
 21
265.95
 31
0.0
  0
LINE
  5
442
100
AcDbEntity
  8
LAY-4
  6
CONTINUOUS
 62
     2
100
AcDbLine
 10
163.0
 20
265.7
 30
0.0
 11
164.75
 21
265.7
 31
0.0
  0
LINE
  5
443
100
AcDbEntity
  8
LAY-4
  6
CONTINUOUS
 62
     2
100
AcDbLine
 10
166.849515
 20
265.7
 30
0.0
 11
168.730826
 21
265.7
 31
0.0
  0
LINE
  5
444
100
AcDbEntity
  8
LAY-4
  6
CONTINUOUS
 62
     2
100
AcDbLine
 10
169.663336
 20
265.7
 30
0.0
 11
174.336664
 21
265.7
 31
0.0
  0
LINE
  5
445
100
AcDbEntity
  8
LAY-4
  6
CONTINUOUS
 62
     2
100
AcDbLine
 10
175.269174
 20
265.7
 30
0.0
 11
177.150485
 21
265.7
 31
0.0
  0
LINE
  5
446
100
AcDbEntity
  8
LAY-4
  6
CONTINUOUS
 62
     2
100
AcDbLine
 10
177.679023
 20
265.7
 30
0.0
 11
179.570128
 21
265.7
 31
0.0
  0
LINE
  5
447
100
AcDbEntity
  8
LAY-4
  6
CONTINUOUS
 62
     2
100
AcDbLine
 10
183.35
 20
265.7
 30
0.0
 11
185.1
 21
265.7
 31
0.0
  0
LINE
  5
448
100
AcDbEntity
  8
LAY-4
  6
CONTINUOUS
 62
     2
100
AcDbLine
 10
190.8
 20
265.7
 30
0.0
 11
192.5
 21
265.7
 31
0.0
  0
LINE
  5
449
100
AcDbEntity
  8
LAY-4
  6
CONTINUOUS
 62
     2
100
AcDbLine
 10
194.354779
 20
265.7
 30
0.0
 11
195.790441
 21
265.7
 31
0.0
  0
LINE
  5
44A
100
AcDbEntity
  8
LAY-4
  6
CONTINUOUS
 62
     2
100
AcDbLine
 10
196.0
 20
265.7
 30
0.0
 11
197.7
 21
265.7
 31
0.0
  0
LINE
  5
44B
100
AcDbEntity
  8
LAY-4
  6
CONTINUOUS
 62
     2
100
AcDbLine
 10
163.0
 20
265.45
 30
0.0
 11
164.75
 21
265.45
 31
0.0
  0
LINE
  5
44C
100
AcDbEntity
  8
LAY-4
  6
CONTINUOUS
 62
     2
100
AcDbLine
 10
166.916694
 20
265.45
 30
0.0
 11
168.837722
 21
265.45
 31
0.0
  0
LINE
  5
44D
100
AcDbEntity
  8
LAY-4
  6
CONTINUOUS
 62
     2
100
AcDbLine
 10
169.815395
 20
265.45
 30
0.0
 11
174.184605
 21
265.45
 31
0.0
  0
LINE
  5
44E
100
AcDbEntity
  8
LAY-4
  6
CONTINUOUS
 62
     2
100
AcDbLine
 10
175.162278
 20
265.45
 30
0.0
 11
177.083306
 21
265.45
 31
0.0
  0
LINE
  5
44F
100
AcDbEntity
  8
LAY-4
  6
CONTINUOUS
 62
     2
100
AcDbLine
 10
177.618167
 20
265.45
 30
0.0
 11
179.344754
 21
265.45
 31
0.0
  0
LINE
  5
450
100
AcDbEntity
  8
LAY-4
  6
CONTINUOUS
 62
     2
100
AcDbLine
 10
183.35
 20
265.45
 30
0.0
 11
185.1
 21
265.45
 31
0.0
  0
LINE
  5
451
100
AcDbEntity
  8
LAY-4
  6
CONTINUOUS
 62
     2
100
AcDbLine
 10
190.8
 20
265.45
 30
0.0
 11
192.5
 21
265.45
 31
0.0
  0
LINE
  5
452
100
AcDbEntity
  8
LAY-4
  6
CONTINUOUS
 62
     2
100
AcDbLine
 10
194.519301
 20
265.45
 30
0.0
 11
195.954963
 21
265.45
 31
0.0
  0
LINE
  5
453
100
AcDbEntity
  8
LAY-4
  6
CONTINUOUS
 62
     2
100
AcDbLine
 10
196.0
 20
265.45
 30
0.0
 11
197.7
 21
265.45
 31
0.0
  0
LINE
  5
454
100
AcDbEntity
  8
LAY-4
  6
CONTINUOUS
 62
     2
100
AcDbLine
 10
163.0
 20
265.2
 30
0.0
 11
164.75
 21
265.2
 31
0.0
  0
LINE
  5
455
100
AcDbEntity
  8
LAY-4
  6
CONTINUOUS
 62
     2
100
AcDbLine
 10
166.997251
 20
265.2
 30
0.0
 11
168.968911
 21
265.2
 31
0.0
  0
LINE
  5
456
100
AcDbEntity
  8
LAY-4
  6
CONTINUOUS
 62
     2
100
AcDbLine
 10
170.010025
 20
265.2
 30
0.0
 11
173.989975
 21
265.2
 31
0.0
  0
LINE
  5
457
100
AcDbEntity
  8
LAY-4
  6
CONTINUOUS
 62
     2
100
AcDbLine
 10
175.031089
 20
265.2
 30
0.0
 11
177.002749
 21
265.2
 31
0.0
  0
LINE
  5
458
100
AcDbEntity
  8
LAY-4
  6
CONTINUOUS
 62
     2
100
AcDbLine
 10
177.545385
 20
265.2
 30
0.0
 11
179.119379
 21
265.2
 31
0.0
  0
LINE
  5
459
100
AcDbEntity
  8
LAY-4
  6
CONTINUOUS
 62
     2
100
AcDbLine
 10
183.35
 20
265.2
 30
0.0
 11
185.1
 21
265.2
 31
0.0
  0
LINE
  5
45A
100
AcDbEntity
  8
LAY-4
  6
CONTINUOUS
 62
     2
100
AcDbLine
 10
190.8
 20
265.2
 30
0.0
 11
192.5
 21
265.2
 31
0.0
  0
LINE
  5
45B
100
AcDbEntity
  8
LAY-4
  6
CONTINUOUS
 62
     2
100
AcDbLine
 10
194.683824
 20
265.2
 30
0.0
 11
197.7
 21
265.2
 31
0.0
  0
LINE
  5
45C
100
AcDbEntity
  8
LAY-4
  6
CONTINUOUS
 62
     2
100
AcDbLine
 10
163.0
 20
264.95
 30
0.0
 11
164.75
 21
264.95
 31
0.0
  0
LINE
  5
45D
100
AcDbEntity
  8
LAY-4
  6
CONTINUOUS
 62
     2
100
AcDbLine
 10
167.091844
 20
264.95
 30
0.0
 11
169.127719
 21
264.95
 31
0.0
  0
LINE
  5
45E
100
AcDbEntity
  8
LAY-4
  6
CONTINUOUS
 62
     2
100
AcDbLine
 10
170.261466
 20
264.95
 30
0.0
 11
173.738534
 21
264.95
 31
0.0
  0
LINE
  5
45F
100
AcDbEntity
  8
LAY-4
  6
CONTINUOUS
 62
     2
100
AcDbLine
 10
174.872281
 20
264.95
 30
0.0
 11
176.908156
 21
264.95
 31
0.0
  0
LINE
  5
460
100
AcDbEntity
  8
LAY-4
  6
CONTINUOUS
 62
     2
100
AcDbLine
 10
177.460201
 20
264.95
 30
0.0
 11
182.5
 21
264.95
 31
0.0
  0
LINE
  5
461
100
AcDbEntity
  8
LAY-4
  6
CONTINUOUS
 62
     2
100
AcDbLine
 10
183.35
 20
264.95
 30
0.0
 11
190.05
 21
264.95
 31
0.0
  0
LINE
  5
462
100
AcDbEntity
  8
LAY-4
  6
CONTINUOUS
 62
     2
100
AcDbLine
 10
190.8
 20
264.95
 30
0.0
 11
192.5
 21
264.95
 31
0.0
  0
LINE
  5
463
100
AcDbEntity
  8
LAY-4
  6
CONTINUOUS
 62
     2
100
AcDbLine
 10
194.848346
 20
264.95
 30
0.0
 11
197.7
 21
264.95
 31
0.0
  0
LINE
  5
464
100
AcDbEntity
  8
LAY-4
  6
CONTINUOUS
 62
     2
100
AcDbLine
 10
163.0
 20
264.7
 30
0.0
 11
164.75
 21
264.7
 31
0.0
  0
LINE
  5
465
100
AcDbEntity
  8
LAY-4
  6
CONTINUOUS
 62
     2
100
AcDbLine
 10
167.201302
 20
264.7
 30
0.0
 11
169.319049
 21
264.7
 31
0.0
  0
LINE
  5
466
100
AcDbEntity
  8
LAY-4
  6
CONTINUOUS
 62
     2
100
AcDbLine
 10
170.6
 20
264.7
 30
0.0
 11
173.4
 21
264.7
 31
0.0
  0
LINE
  5
467
100
AcDbEntity
  8
LAY-4
  6
CONTINUOUS
 62
     2
100
AcDbLine
 10
174.680951
 20
264.7
 30
0.0
 11
176.798698
 21
264.7
 31
0.0
  0
LINE
  5
468
100
AcDbEntity
  8
LAY-4
  6
CONTINUOUS
 62
     2
100
AcDbLine
 10
177.362024
 20
264.7
 30
0.0
 11
182.5
 21
264.7
 31
0.0
  0
LINE
  5
469
100
AcDbEntity
  8
LAY-4
  6
CONTINUOUS
 62
     2
100
AcDbLine
 10
183.35
 20
264.7
 30
0.0
 11
190.05
 21
264.7
 31
0.0
  0
LINE
  5
46A
100
AcDbEntity
  8
LAY-4
  6
CONTINUOUS
 62
     2
100
AcDbLine
 10
190.8
 20
264.7
 30
0.0
 11
192.5
 21
264.7
 31
0.0
  0
LINE
  5
46B
100
AcDbEntity
  8
LAY-4
  6
CONTINUOUS
 62
     2
100
AcDbLine
 10
195.012868
 20
264.7
 30
0.0
 11
197.7
 21
264.7
 31
0.0
  0
LINE
  5
46C
100
AcDbEntity
  8
LAY-4
  6
CONTINUOUS
 62
     2
100
AcDbLine
 10
163.0
 20
264.45
 30
0.0
 11
164.75
 21
264.45
 31
0.0
  0
LINE
  5
46D
100
AcDbEntity
  8
LAY-4
  6
CONTINUOUS
 62
     2
100
AcDbLine
 10
167.326671
 20
264.45
 30
0.0
 11
169.55051
 21
264.45
 31
0.0
  0
LINE
  5
46E
100
AcDbEntity
  8
LAY-4
  6
CONTINUOUS
 62
     2
100
AcDbLine
 10
171.12108
 20
264.45
 30
0.0
 11
172.87892
 21
264.45
 31
0.0
  0
LINE
  5
46F
100
AcDbEntity
  8
LAY-4
  6
CONTINUOUS
 62
     2
100
AcDbLine
 10
174.44949
 20
264.45
 30
0.0
 11
176.673329
 21
264.45
 31
0.0
  0
LINE
  5
470
100
AcDbEntity
  8
LAY-4
  6
CONTINUOUS
 62
     2
100
AcDbLine
 10
177.250124
 20
264.45
 30
0.0
 11
182.5
 21
264.45
 31
0.0
  0
LINE
  5
471
100
AcDbEntity
  8
LAY-4
  6
CONTINUOUS
 62
     2
100
AcDbLine
 10
183.35
 20
264.45
 30
0.0
 11
190.05
 21
264.45
 31
0.0
  0
LINE
  5
472
100
AcDbEntity
  8
LAY-4
  6
CONTINUOUS
 62
     2
100
AcDbLine
 10
190.8
 20
264.45
 30
0.0
 11
192.5
 21
264.45
 31
0.0
  0
LINE
  5
473
100
AcDbEntity
  8
LAY-4
  6
CONTINUOUS
 62
     2
100
AcDbLine
 10
195.17739
 20
264.45
 30
0.0
 11
197.7
 21
264.45
 31
0.0
  0
LINE
  5
474
100
AcDbEntity
  8
LAY-4
  6
CONTINUOUS
 62
     2
100
AcDbLine
 10
163.0
 20
264.2
 30
0.0
 11
164.75
 21
264.2
 31
0.0
  0
LINE
  5
475
100
AcDbEntity
  8
LAY-4
  6
CONTINUOUS
 62
     2
100
AcDbLine
 10
167.469272
 20
264.2
 30
0.0
 11
169.834936
 21
264.2
 31
0.0
  0
LINE
  5
476
100
AcDbEntity
  8
LAY-4
  6
CONTINUOUS
 62
     2
100
AcDbLine
 10
174.165064
 20
264.2
 30
0.0
 11
176.530728
 21
264.2
 31
0.0
  0
LINE
  5
477
100
AcDbEntity
  8
LAY-4
  6
CONTINUOUS
 62
     2
100
AcDbLine
 10
177.123602
 20
264.2
 30
0.0
 11
182.5
 21
264.2
 31
0.0
  0
LINE
  5
478
100
AcDbEntity
  8
LAY-4
  6
CONTINUOUS
 62
     2
100
AcDbLine
 10
183.35
 20
264.2
 30
0.0
 11
190.05
 21
264.2
 31
0.0
  0
LINE
  5
479
100
AcDbEntity
  8
LAY-4
  6
CONTINUOUS
 62
     2
100
AcDbLine
 10
190.8
 20
264.2
 30
0.0
 11
192.5
 21
264.2
 31
0.0
  0
LINE
  5
47A
100
AcDbEntity
  8
LAY-4
  6
CONTINUOUS
 62
     2
100
AcDbLine
 10
195.341912
 20
264.2
 30
0.0
 11
197.7
 21
264.2
 31
0.0
  0
LINE
  5
47B
100
AcDbEntity
  8
LAY-4
  6
CONTINUOUS
 62
     2
100
AcDbLine
 10
163.0
 20
263.95
 30
0.0
 11
164.75
 21
263.95
 31
0.0
  0
LINE
  5
47C
100
AcDbEntity
  8
LAY-4
  6
CONTINUOUS
 62
     2
100
AcDbLine
 10
167.63079
 20
263.95
 30
0.0
 11
170.197224
 21
263.95
 31
0.0
  0
LINE
  5
47D
100
AcDbEntity
  8
LAY-4
  6
CONTINUOUS
 62
     2
100
AcDbLine
 10
173.802776
 20
263.95
 30
0.0
 11
176.36921
 21
263.95
 31
0.0
  0
LINE
  5
47E
100
AcDbEntity
  8
LAY-4
  6
CONTINUOUS
 62
     2
100
AcDbLine
 10
176.981345
 20
263.95
 30
0.0
 11
182.5
 21
263.95
 31
0.0
  0
LINE
  5
47F
100
AcDbEntity
  8
LAY-4
  6
CONTINUOUS
 62
     2
100
AcDbLine
 10
183.35
 20
263.95
 30
0.0
 11
190.05
 21
263.95
 31
0.0
  0
LINE
  5
480
100
AcDbEntity
  8
LAY-4
  6
CONTINUOUS
 62
     2
100
AcDbLine
 10
190.8
 20
263.95
 30
0.0
 11
192.5
 21
263.95
 31
0.0
  0
LINE
  5
481
100
AcDbEntity
  8
LAY-4
  6
CONTINUOUS
 62
     2
100
AcDbLine
 10
195.506434
 20
263.95
 30
0.0
 11
197.7
 21
263.95
 31
0.0
  0
LINE
  5
482
100
AcDbEntity
  8
LAY-4
  6
CONTINUOUS
 62
     2
100
AcDbLine
 10
163.0
 20
263.7
 30
0.0
 11
164.75
 21
263.7
 31
0.0
  0
LINE
  5
483
100
AcDbEntity
  8
LAY-4
  6
CONTINUOUS
 62
     2
100
AcDbLine
 10
167.813414
 20
263.7
 30
0.0
 11
170.700962
 21
263.7
 31
0.0
  0
LINE
  5
484
100
AcDbEntity
  8
LAY-4
  6
CONTINUOUS
 62
     2
100
AcDbLine
 10
173.299038
 20
263.7
 30
0.0
 11
176.186586
 21
263.7
 31
0.0
  0
LINE
  5
485
100
AcDbEntity
  8
LAY-4
  6
CONTINUOUS
 62
     2
100
AcDbLine
 10
176.82196
 20
263.7
 30
0.0
 11
182.5
 21
263.7
 31
0.0
  0
LINE
  5
486
100
AcDbEntity
  8
LAY-4
  6
CONTINUOUS
 62
     2
100
AcDbLine
 10
183.35
 20
263.7
 30
0.0
 11
190.05
 21
263.7
 31
0.0
  0
LINE
  5
487
100
AcDbEntity
  8
LAY-4
  6
CONTINUOUS
 62
     2
100
AcDbLine
 10
190.8
 20
263.7
 30
0.0
 11
192.5
 21
263.7
 31
0.0
  0
LINE
  5
488
100
AcDbEntity
  8
LAY-4
  6
CONTINUOUS
 62
     2
100
AcDbLine
 10
195.670956
 20
263.7
 30
0.0
 11
197.7
 21
263.7
 31
0.0
  0
LINE
  5
489
100
AcDbEntity
  8
LAY-4
  6
CONTINUOUS
 62
     2
100
AcDbLine
 10
163.0
 20
263.45
 30
0.0
 11
164.75
 21
263.45
 31
0.0
  0
LINE
  5
48A
100
AcDbEntity
  8
LAY-4
  6
CONTINUOUS
 62
     2
100
AcDbLine
 10
168.02005
 20
263.45
 30
0.0
 11
175.97995
 21
263.45
 31
0.0
  0
LINE
  5
48B
100
AcDbEntity
  8
LAY-4
  6
CONTINUOUS
 62
     2
100
AcDbLine
 10
176.643684
 20
263.45
 30
0.0
 11
182.5
 21
263.45
 31
0.0
  0
LINE
  5
48C
100
AcDbEntity
  8
LAY-4
  6
CONTINUOUS
 62
     2
100
AcDbLine
 10
183.35
 20
263.45
 30
0.0
 11
190.05
 21
263.45
 31
0.0
  0
LINE
  5
48D
100
AcDbEntity
  8
LAY-4
  6
CONTINUOUS
 62
     2
100
AcDbLine
 10
190.8
 20
263.45
 30
0.0
 11
192.5
 21
263.45
 31
0.0
  0
LINE
  5
48E
100
AcDbEntity
  8
LAY-4
  6
CONTINUOUS
 62
     2
100
AcDbLine
 10
195.835478
 20
263.45
 30
0.0
 11
197.7
 21
263.45
 31
0.0
  0
LINE
  5
48F
100
AcDbEntity
  8
LAY-4
  6
CONTINUOUS
 62
     2
100
AcDbLine
 10
168.25467
 20
263.2
 30
0.0
 11
175.74533
 21
263.2
 31
0.0
  0
LINE
  5
490
100
AcDbEntity
  8
LAY-4
  6
CONTINUOUS
 62
     2
100
AcDbLine
 10
168.522932
 20
262.95
 30
0.0
 11
175.477068
 21
262.95
 31
0.0
  0
LINE
  5
491
100
AcDbEntity
  8
LAY-4
  6
CONTINUOUS
 62
     2
100
AcDbLine
 10
168.833377
 20
262.7
 30
0.0
 11
175.166623
 21
262.7
 31
0.0
  0
LINE
  5
492
100
AcDbEntity
  8
LAY-4
  6
CONTINUOUS
 62
     2
100
AcDbLine
 10
169.2
 20
262.45
 30
0.0
 11
174.8
 21
262.45
 31
0.0
  0
LINE
  5
493
100
AcDbEntity
  8
LAY-4
  6
CONTINUOUS
 62
     2
100
AcDbLine
 10
169.648936
 20
262.2
 30
0.0
 11
174.351064
 21
262.2
 31
0.0
  0
LINE
  5
494
100
AcDbEntity
  8
LAY-4
  6
CONTINUOUS
 62
     2
100
AcDbLine
 10
170.24216
 20
261.95
 30
0.0
 11
173.75784
 21
261.95
 31
0.0
  0
LINE
  5
495
100
AcDbEntity
  8
LAY-4
  6
CONTINUOUS
 62
     2
100
AcDbLine
 10
171.273708
 20
261.7
 30
0.0
 11
172.726292
 21
261.7
 31
0.0
  0
LINE
  5
496
100
AcDbEntity
  8
LAY-4
  6
CONTINUOUS
 62
     2
100
AcDbLine
 10
163.0
 20
268.95
 30
0.0
 11
163.0
 21
263.2
 31
0.0
  0
LINE
  5
497
100
AcDbEntity
  8
LAY-4
  6
CONTINUOUS
 62
     2
100
AcDbLine
 10
164.75
 20
268.95
 30
0.0
 11
164.75
 21
263.2
 31
0.0
  0
CIRCLE
  5
498
100
AcDbEntity
  8
LAY-4
  6
CONTINUOUS
 62
     2
100
AcDbCircle
 10
172.0
 20
266.95
 30
0.0
 40
2.65
  0
CIRCLE
  5
499
100
AcDbEntity
  8
LAY-4
  6
CONTINUOUS
 62
     2
100
AcDbCircle
 10
172.0
 20
266.95
 30
0.0
 40
3.5
  0
CIRCLE
  5
49A
100
AcDbEntity
  8
LAY-4
  6
CONTINUOUS
 62
     2
100
AcDbCircle
 10
172.0
 20
266.95
 30
0.0
 40
5.3
  0
LINE
  5
49B
100
AcDbEntity
  8
LAY-4
  6
CONTINUOUS
 62
     2
100
AcDbLine
 10
159.5
 20
270.7
 30
0.0
 11
159.5
 21
268.95
 31
0.0
  0
LINE
  5
49C
100
AcDbEntity
  8
LAY-4
  6
CONTINUOUS
 62
     2
100
AcDbLine
 10
163.0
 20
263.2
 30
0.0
 11
164.75
 21
263.2
 31
0.0
  0
ARC
  5
49D
100
AcDbEntity
  8
LAY-4
  6
CONTINUOUS
 62
     2
100
AcDbCircle
 10
172.0
 20
266.95
 30
0.0
 40
5.814963
100
AcDbArc
 50
139.842723
 51
159.882882
  0
ARC
  5
49E
100
AcDbEntity
  8
LAY-4
  6
CONTINUOUS
 62
     2
100
AcDbCircle
 10
172.0
 20
266.95
 30
0.0
 40
5.814963
100
AcDbArc
 50
20.117118
 51
40.157277
  0
LINE
  5
49F
100
AcDbEntity
  8
LAY-4
  6
CONTINUOUS
 62
     2
100
AcDbLine
 10
182.5
 20
264.95
 30
0.0
 11
182.5
 21
263.2
 31
0.0
  0
LINE
  5
4A0
100
AcDbEntity
  8
LAY-4
  6
CONTINUOUS
 62
     2
100
AcDbLine
 10
182.5
 20
270.7
 30
0.0
 11
182.5
 21
268.95
 31
0.0
  0
ARC
  5
4A1
100
AcDbEntity
  8
LAY-4
  6
CONTINUOUS
 62
     2
100
AcDbCircle
 10
172.0
 20
266.95
 30
0.0
 40
5.814963
100
AcDbArc
 50
319.842723
 51
348.135428
  0
LINE
  5
4A2
100
AcDbEntity
  8
LAY-4
  6
CONTINUOUS
 62
     2
100
AcDbLine
 10
182.5
 20
268.95
 30
0.0
 11
178.894004
 21
264.95
 31
0.0
  0
LINE
  5
4A3
100
AcDbEntity
  8
LAY-4
  6
CONTINUOUS
 62
     2
100
AcDbLine
 10
180.57152
 20
268.95
 30
0.0
 11
177.690734
 21
265.754449
 31
0.0
  0
LINE
  5
4A4
100
AcDbEntity
  8
LAY-4
  6
CONTINUOUS
 62
     2
100
AcDbLine
 10
183.35
 20
270.7
 30
0.0
 11
183.35
 21
263.2
 31
0.0
  0
LINE
  5
4A5
100
AcDbEntity
  8
LAY-4
  6
CONTINUOUS
 62
     2
100
AcDbLine
 10
185.1
 20
267.7
 30
0.0
 11
190.05
 21
267.7
 31
0.0
  0
LINE
  5
4A6
100
AcDbEntity
  8
LAY-4
  6
CONTINUOUS
 62
     2
100
AcDbLine
 10
185.1
 20
266.2
 30
0.0
 11
190.05
 21
266.2
 31
0.0
  0
LINE
  5
4A7
100
AcDbEntity
  8
LAY-4
  6
CONTINUOUS
 62
     2
100
AcDbLine
 10
190.8
 20
270.7
 30
0.0
 11
190.8
 21
263.2
 31
0.0
  0
LINE
  5
4A8
100
AcDbEntity
  8
LAY-4
  6
CONTINUOUS
 62
     2
100
AcDbLine
 10
197.7
 20
270.7
 30
0.0
 11
197.7
 21
263.2
 31
0.0
  0
LINE
  5
4A9
100
AcDbEntity
  8
LAY-4
  6
CONTINUOUS
 62
     2
100
AcDbLine
 10
196.0
 20
263.2
 30
0.0
 11
192.5
 21
268.518436
 31
0.0
  0
LINE
  5
4AA
100
AcDbEntity
  8
LAY-4
  6
CONTINUOUS
 62
     2
100
AcDbLine
 10
192.5
 20
270.7
 30
0.0
 11
196.0
 21
265.381564
 31
0.0
  0
LINE
  5
4AB
100
AcDbEntity
  8
LAY-4
  6
CONTINUOUS
 62
     2
100
AcDbLine
 10
190.05
 20
270.7
 30
0.0
 11
190.05
 21
268.95
 31
0.0
  0
LINE
  5
4AC
100
AcDbEntity
  8
LAY-4
  6
CONTINUOUS
 62
     2
100
AcDbLine
 10
190.05
 20
267.7
 30
0.0
 11
190.05
 21
266.2
 31
0.0
  0
LINE
  5
4AD
100
AcDbEntity
  8
LAY-4
  6
CONTINUOUS
 62
     2
100
AcDbLine
 10
190.05
 20
264.95
 30
0.0
 11
190.05
 21
263.2
 31
0.0
  0
LINE
  5
4AE
100
AcDbEntity
  8
LAY-4
  6
CONTINUOUS
 62
     2
100
AcDbLine
 10
185.1
 20
268.95
 30
0.0
 11
190.05
 21
268.95
 31
0.0
  0
LINE
  5
4AF
100
AcDbEntity
  8
LAY-4
  6
CONTINUOUS
 62
     2
100
AcDbLine
 10
183.35
 20
270.7
 30
0.0
 11
190.05
 21
270.7
 31
0.0
  0
LINE
  5
4B0
100
AcDbEntity
  8
LAY-4
  6
CONTINUOUS
 62
     2
100
AcDbLine
 10
185.1
 20
266.2
 30
0.0
 11
185.1
 21
264.95
 31
0.0
  0
LINE
  5
4B1
100
AcDbEntity
  8
LAY-4
  6
CONTINUOUS
 62
     2
100
AcDbLine
 10
183.35
 20
263.2
 30
0.0
 11
190.05
 21
263.2
 31
0.0
  0
LINE
  5
4B2
100
AcDbEntity
  8
LAY-4
  6
CONTINUOUS
 62
     2
100
AcDbLine
 10
185.1
 20
264.95
 30
0.0
 11
190.05
 21
264.95
 31
0.0
  0
LINE
  5
4B3
100
AcDbEntity
  8
LAY-4
  6
CONTINUOUS
 62
     2
100
AcDbLine
 10
192.5
 20
268.518436
 30
0.0
 11
192.5
 21
263.2
 31
0.0
  0
LINE
  5
4B4
100
AcDbEntity
  8
LAY-4
  6
CONTINUOUS
 62
     2
100
AcDbLine
 10
190.8
 20
270.7
 30
0.0
 11
192.5
 21
270.7
 31
0.0
  0
LINE
  5
4B5
100
AcDbEntity
  8
LAY-4
  6
CONTINUOUS
 62
     2
100
AcDbLine
 10
196.0
 20
270.7
 30
0.0
 11
197.7
 21
270.7
 31
0.0
  0
LINE
  5
4B6
100
AcDbEntity
  8
LAY-4
  6
CONTINUOUS
 62
     2
100
AcDbLine
 10
190.8
 20
263.2
 30
0.0
 11
192.5
 21
263.2
 31
0.0
  0
LINE
  5
4B7
100
AcDbEntity
  8
LAY-4
  6
CONTINUOUS
 62
     2
100
AcDbLine
 10
196.0
 20
263.2
 30
0.0
 11
197.7
 21
263.2
 31
0.0
  0
LINE
  5
4B8
100
AcDbEntity
  8
LAY-4
  6
CONTINUOUS
 62
     2
100
AcDbLine
 10
196.0
 20
270.7
 30
0.0
 11
196.0
 21
265.381564
 31
0.0
  0
LINE
  5
4B9
100
AcDbEntity
  8
LAY-4
  6
CONTINUOUS
 62
     2
100
AcDbLine
 10
159.5
 20
268.95
 30
0.0
 11
163.0
 21
268.95
 31
0.0
  0
LINE
  5
4BA
100
AcDbEntity
  8
LAY-4
  6
CONTINUOUS
 62
     2
100
AcDbLine
 10
164.75
 20
268.95
 30
0.0
 11
166.539799
 21
268.95
 31
0.0
  0
LINE
  5
4BB
100
AcDbEntity
  8
LAY-4
  6
CONTINUOUS
 62
     2
100
AcDbLine
 10
159.5
 20
270.7
 30
0.0
 11
167.555757
 21
270.7
 31
0.0
  0
LINE
  5
4BC
100
AcDbEntity
  8
LAY-4
  6
CONTINUOUS
 62
     2
100
AcDbLine
 10
176.444243
 20
270.7
 30
0.0
 11
182.5
 21
270.7
 31
0.0
  0
LINE
  5
4BD
100
AcDbEntity
  8
LAY-4
  6
CONTINUOUS
 62
     2
100
AcDbLine
 10
177.460201
 20
268.95
 30
0.0
 11
180.57152
 21
268.95
 31
0.0
  0
LINE
  5
4BE
100
AcDbEntity
  8
LAY-4
  6
CONTINUOUS
 62
     2
100
AcDbLine
 10
176.444243
 20
263.2
 30
0.0
 11
182.5
 21
263.2
 31
0.0
  0
LINE
  5
4BF
100
AcDbEntity
  8
LAY-4
  6
CONTINUOUS
 62
     2
100
AcDbLine
 10
178.894004
 20
264.95
 30
0.0
 11
182.5
 21
264.95
 31
0.0
  0
LINE
  5
4C0
100
AcDbEntity
  8
LAY-4
  6
CONTINUOUS
 62
     2
100
AcDbLine
 10
185.1
 20
268.95
 30
0.0
 11
185.1
 21
267.7
 31
0.0
  0
TEXT
  5
4C2
100
AcDbEntity
  8
LAY-4
  6
CONTINUOUS
 62
     1
100
AcDbText
 10
-27.749998
 20
-17.6
 30
0.0
 40
11.25
  1
スケールは１／２０となっています。必要に応じてサイズを２０倍して下さい。
 41
0.967593
  7
EXCADTTF1
 72
     5
 11
494.750062
 21
-17.6
 31
0.0
100
AcDbText
  0
ENDSEC
  0
SECTION
  2
OBJECTS
  0
DICTIONARY
  5
19
100
AcDbDictionary
  3
ACAD_GROUP
350
1A
  3
ACAD_MLINESTYLE
350
1B
  0
DICTIONARY
  5
1A
102
{ACAD_REACTORS
330
19
102
}
100
AcDbDictionary
  0
DICTIONARY
  5
1B
102
{ACAD_REACTORS
330
19
102
}
100
AcDbDictionary
  3
STANDARD
350
1C
  0
MLINESTYLE
  5
1C
102
{ACAD_REACTORS
330
1B
102
}
100
AcDbMlineStyle
  2
Standard
 70
     0
  3

 62
     0
 51
90.0
 52
90.0
 71
     2
 49
0.5
 62
   256
  6
ByLayer
 49
-0.5
 62
   256
  6
ByLayer
  0
ENDSEC
  0
EOF
