  0
SECTION
  2
HEADER
  9
$ACADVER
  1
AC1014
  9
$ACADMAINTVER
 70
     0
  9
$DWGCODEPAGE
  3
DOS932
  9
$INSBASE
 10
0.0
 20
0.0
 30
0.0
  9
$EXTMIN
 10
31.1
 20
-30.2
 30
0.0
  9
$EXTMAX
 10
564.6
 20
381.9
 30
0.0
  9
$LIMMIN
 10
0.0
 20
0.0
  9
$LIMMAX
 10
594.0
 20
420.0
  9
$ORTHOMODE
 70
     0
  9
$REGENMODE
 70
     1
  9
$FILLMODE
 70
     1
  9
$QTEXTMODE
 70
     0
  9
$MIRRTEXT
 70
     1
  9
$DRAGMODE
 70
     2
  9
$LTSCALE
 40
1.0
  9
$OSMODE
 70
     0
  9
$ATTMODE
 70
     1
  9
$TEXTSIZE
 40
0.2
  9
$TRACEWID
 40
0.05
  9
$TEXTSTYLE
  7
STANDARD
  9
$CLAYER
  8
LAY-2
  9
$CELTYPE
  6
CONTINUOUS
  9
$CECOLOR
 62
   256
  9
$CELTSCALE
 40
1.0
  9
$DELOBJ
 70
     1
  9
$DISPSILH
 70
     0
  9
$DIMSCALE
 40
1.0
  9
$DIMASZ
 40
0.18
  9
$DIMEXO
 40
0.0625
  9
$DIMDLI
 40
0.38
  9
$DIMRND
 40
0.0
  9
$DIMDLE
 40
0.0
  9
$DIMEXE
 40
0.18
  9
$DIMTP
 40
0.0
  9
$DIMTM
 40
0.0
  9
$DIMTXT
 40
0.18
  9
$DIMCEN
 40
0.09
  9
$DIMTSZ
 40
0.0
  9
$DIMTOL
 70
     0
  9
$DIMLIM
 70
     0
  9
$DIMTIH
 70
     1
  9
$DIMTOH
 70
     1
  9
$DIMSE1
 70
     0
  9
$DIMSE2
 70
     0
  9
$DIMTAD
 70
     0
  9
$DIMZIN
 70
     0
  9
$DIMBLK
  1

  9
$DIMASO
 70
     1
  9
$DIMSHO
 70
     1
  9
$DIMPOST
  1

  9
$DIMAPOST
  1

  9
$DIMALT
 70
     0
  9
$DIMALTD
 70
     2
  9
$DIMALTF
 40
25.4
  9
$DIMLFAC
 40
1.0
  9
$DIMTOFL
 70
     0
  9
$DIMTVP
 40
0.0
  9
$DIMTIX
 70
     0
  9
$DIMSOXD
 70
     0
  9
$DIMSAH
 70
     0
  9
$DIMBLK1
  1

  9
$DIMBLK2
  1

  9
$DIMSTYLE
  2
STANDARD
  9
$DIMCLRD
 70
     0
  9
$DIMCLRE
 70
     0
  9
$DIMCLRT
 70
     0
  9
$DIMTFAC
 40
1.0
  9
$DIMGAP
 40
0.09
  9
$DIMJUST
 70
     0
  9
$DIMSD1
 70
     0
  9
$DIMSD2
 70
     0
  9
$DIMTOLJ
 70
     1
  9
$DIMTZIN
 70
     0
  9
$DIMALTZ
 70
     0
  9
$DIMALTTZ
 70
     0
  9
$DIMFIT
 70
     3
  9
$DIMUPT
 70
     0
  9
$DIMUNIT
 70
     2
  9
$DIMDEC
 70
     4
  9
$DIMTDEC
 70
     4
  9
$DIMALTU
 70
     2
  9
$DIMALTTD
 70
     2
  9
$DIMTXSTY
  7
STANDARD
  9
$DIMAUNIT
 70
     0
  9
$LUNITS
 70
     2
  9
$LUPREC
 70
     4
  9
$SKETCHINC
 40
0.1
  9
$FILLETRAD
 40
0.0
  9
$AUNITS
 70
     0
  9
$AUPREC
 70
     0
  9
$MENU
  1
acad
  9
$ELEVATION
 40
0.0
  9
$PELEVATION
 40
0.0
  9
$THICKNESS
 40
0.0
  9
$LIMCHECK
 70
     0
  9
$BLIPMODE
 70
     1
  9
$CHAMFERA
 40
0.0
  9
$CHAMFERB
 40
0.0
  9
$CHAMFERC
 40
0.0
  9
$CHAMFERD
 40
0.0
  9
$SKPOLY
 70
     0
  9
$TDCREATE
 40
2453456.843938415
  9
$TDUPDATE
 40
2453456.843938415
  9
$TDINDWG
 40
0.0000000000
  9
$TDUSRTIMER
 40
0.0000000000
  9
$USRTIMER
 70
     1
  9
$ANGBASE
 50
0.0
  9
$ANGDIR
 70
     0
  9
$PDMODE
 70
     0
  9
$PDSIZE
 40
0.0
  9
$PLINEWID
 40
0.0
  9
$COORDS
 70
     1
  9
$SPLFRAME
 70
     0
  9
$SPLINETYPE
 70
     6
  9
$SPLINESEGS
 70
     8
  9
$ATTDIA
 70
     0
  9
$ATTREQ
 70
     1
  9
$HANDLING
 70
     1
  9
$HANDSEED
  5
377
  9
$SURFTAB1
 70
     6
  9
$SURFTAB2
 70
     6
  9
$SURFTYPE
 70
     6
  9
$SURFU
 70
     6
  9
$SURFV
 70
     6
  9
$UCSNAME
  2

  9
$UCSORG
 10
0.0
 20
0.0
 30
0.0
  9
$UCSXDIR
 10
1.0
 20
0.0
 30
0.0
  9
$UCSYDIR
 10
0.0
 20
1.0
 30
0.0
  9
$PUCSNAME
  2

  9
$PUCSORG
 10
0.0
 20
0.0
 30
0.0
  9
$PUCSXDIR
 10
1.0
 20
0.0
 30
0.0
  9
$PUCSYDIR
 10
0.0
 20
1.0
 30
0.0
  9
$USERI1
 70
     0
  9
$USERI2
 70
     0
  9
$USERI3
 70
     0
  9
$USERI4
 70
     0
  9
$USERI5
 70
     0
  9
$USERR1
 40
0.0
  9
$USERR2
 40
0.0
  9
$USERR3
 40
0.0
  9
$USERR4
 40
0.0
  9
$USERR5
 40
0.0
  9
$WORLDVIEW
 70
     1
  9
$SHADEDGE
 70
     3
  9
$SHADEDIF
 70
    70
  9
$TILEMODE
 70
     1
  9
$MAXACTVP
 70
    16
  9
$PINSBASE
 10
0.0
 20
0.0
 30
0.0
  9
$PLIMCHECK
 70
     0
  9
$PEXTMIN
 10
1.000000E+20
 20
1.000000E+20
 30
1.000000E+20
  9
$PEXTMAX
 10
-1.000000E+20
 20
-1.000000E+20
 30
-1.000000E+20
  9
$PLIMMIN
 10
0.0
 20
0.0
  9
$PLIMMAX
 10
12.0
 20
9.0
  9
$UNITMODE
 70
     0
  9
$VISRETAIN
 70
     0
  9
$PLINEGEN
 70
     1
  9
$PSLTSCALE
 70
     0
  9
$TREEDEPTH
 70
  3020
  9
$PICKSTYLE
 70
     1
  9
$CMLSTYLE
  2
Standard
  9
$CMLJUST
 70
     0
  9
$CMLSCALE
 40
1.0
  9
$PROXYGRAPHICS
 70
     0
  9
$MEASUREMENT
 70
     0
  0
ENDSEC
  0
SECTION
  2
CLASSES
  0
CLASS
  1
LWPOLYLINE
  2
AcDbPolyline
  3
"AutoCAD"
 90
        0
280
     0
281
     1
  0
CLASS
  1
IMAGE
  2
AcDbRasterImage
  3
ISM
 90
      127
280
     0
281
     1
  0
CLASS
  1
OLE2FRAME
  2
AcDbOle2Frame
  3
""
 90
        0
280
     0
281
     1
  0
CLASS
  1
HATCH
  2
AcDbHatch
  3
"ACAD_SEDONA"
 90
        0
280
     0
281
     1
  0
CLASS
  1
DICTIONARYVAR
  2
AcDbDictionaryVar
  3
"AutoCAD"
 90
        0
280
     0
281
     0
  0
CLASS
  1
RASTERVARIABLES
  2
AcDbRasterVariables
  3
ISM
 90
        0
280
     0
281
     0
  0
CLASS
  1
IMAGEDEF
  2
AcDbRasterImageDef
  3
ISM
 90
        0
280
     0
281
     0
  0
CLASS
  1
IMAGEDEF_REACTOR
  2
AcDbRasterImageDefReactor
  3
ISM
 90
        1
280
     0
281
     0
  0
CLASS
  1
IDBUFFER
  2
AcDbIdBuffer
  3
"Acad"
 90
        0
280
     0
281
     0
  0
CLASS
  1
SPATIAL_FILTER
  2
AcDbSpatialFilter
  3
"Acad"
 90
        0
280
     0
281
     0
  0
CLASS
  1
XRECORD
  2
AcDbXrecord
  3
"<Built In>"
 90
        0
280
     0
281
     0
  0
CLASS
  1
SORTENTSTABLE
  2
AcDbSortentsTable
  3
"AutoCAD"
 90
        0
280
     0
281
     0
  0
CLASS
  1
LAYER_INDEX
  2
AcDbLayerIndex
  3
"Acad"
 90
        0
280
     0
281
     0
  0
CLASS
  1
SPATIAL_INDEX
  2
AcDbSpatialIndex
  3
"Acad"
 90
        0
280
     0
281
     0
  0
CLASS
  1
OBJECT_PTR
  2
CAseDLPNTableRecord
  3
"ASE-LPNTableRecord"
 90
        1
280
     0
281
     0
  0
CLASS
  1
LAYOUT
  2
AcDbLayout
  3
"AutoCAD 2000"
 90
        1
280
     0
281
     0
  0
CLASS
  1
PLOTSETTINGS
  2
AcDbPlotSettings
  3
"AutoCAD 2000"
 90
        1
280
     0
281
     0
  0
CLASS
  1
ACDBDICTIONARYWDFLT
  2
AcDbDictionaryWithDefault
  3
"AutoCAD 2000"
 90
        1
280
     0
281
     0
  0
CLASS
  1
ACDBPLACEHOLDER
  2
AcDbPlaceHolder
  3
"AutoCAD 2000"
 90
        1
280
     0
281
     0
  0
CLASS
  1
VBA_PROJECT
  2
AcDbVbaProject
  3
"acadvba"
 90
        1
280
     0
281
     0
  0
CLASS
  1
WIPEOUT
  2
AcDbWipeout
  3
WipeOut|AutoCAD Express Tool|expresstools@autodesk.com
 90
      127
280
     0
281
     1
  0
CLASS
  1
WIPEOUTVARIABLES
  2
AcDbWipeoutVariables
  3
WipeOut|AutoCAD Express Tool|expresstools@autodesk.com
 90
        0
280
     0
281
     0
  0
CLASS
  1
RTEXT
  2
RText
  3
RText|AutoCAD Express Tool|expresstools@autodesk.com
 90
        0
280
     0
281
     1
  0
CLASS
  1
ARCALIGNEDTEXT
  2
AcDbArcAlignedText
  3
ATEXT|AutoCAD Express Tool|expresstools@autodesk.com
 90
        0
280
     0
281
     1
  0
ENDSEC
  0
SECTION
  2
TABLES
  0
TABLE
  2
VPORT
  5
7
100
AcDbSymbolTable
 70
     1
  0
VPORT
  5
15
100
AcDbSymbolTableRecord
100
AcDbViewportTableRecord
  2
*ACTIVE
 70
     0
 10
0.0
 20
0.0
 11
1.0
 21
1.0
 12
297.85
 22
175.85
 13
0.0
 23
0.0
 14
1.0
 24
1.0
 15
0.0
 25
0.0
 16
0.0
 26
0.0
 36
1.0
 17
0.0
 27
0.0
 37
0.0
 40
412.1
 41
1.722533
 42
50.0
 43
0.0
 44
0.0
 50
0.0
 51
0.0
 71
     0
 72
   100
 73
     1
 74
     1
 75
     0
 76
     0
 77
     0
 78
     0
  0
ENDTAB
  0
TABLE
  2
LTYPE
  5
4
100
AcDbSymbolTable
 70
     9
  0
LTYPE
  5
11
100
AcDbSymbolTableRecord
100
AcDbLinetypeTableRecord
  2
BYBLOCK
 70
    64
  3

 72
    65
 73
     0
 40
0.0
  0
LTYPE
  5
12
100
AcDbSymbolTableRecord
100
AcDbLinetypeTableRecord
  2
BYLAYER
 70
    64
  3

 72
    65
 73
     0
 40
0.0
  0
LTYPE
  5
13
100
AcDbSymbolTableRecord
100
AcDbLinetypeTableRecord
  2
CONTINUOUS
 70
    64
  3
実線
 72
    65
 73
     0
 40
0.0
  0
LTYPE
  5
1D
100
AcDbSymbolTableRecord
100
AcDbLinetypeTableRecord
  2
EXLTYPE1
 70
    64
  3
破線
 72
    65
 73
     2
 40
4.0
 49
3.0
 74
     0
 49
-1.0
 74
     0
  0
LTYPE
  5
1E
100
AcDbSymbolTableRecord
100
AcDbLinetypeTableRecord
  2
EXLTYPE2
 70
    64
  3
点線
 72
    65
 73
     2
 40
2.0
 49
1.0
 74
     0
 49
-1.0
 74
     0
  0
LTYPE
  5
1F
100
AcDbSymbolTableRecord
100
AcDbLinetypeTableRecord
  2
EXLTYPE3
 70
    64
  3
一点鎖線
 72
    65
 73
     4
 40
33.0
 49
30.0
 74
     0
 49
-1.0
 74
     0
 49
1.0
 74
     0
 49
-1.0
 74
     0
  0
LTYPE
  5
20
100
AcDbSymbolTableRecord
100
AcDbLinetypeTableRecord
  2
EXLTYPE4
 70
    64
  3
二点鎖線
 72
    65
 73
     6
 40
35.0
 49
30.0
 74
     0
 49
-1.0
 74
     0
 49
1.0
 74
     0
 49
-1.0
 74
     0
 49
1.0
 74
     0
 49
-1.0
 74
     0
  0
LTYPE
  5
21
100
AcDbSymbolTableRecord
100
AcDbLinetypeTableRecord
  2
EXLTYPE5
 70
    64
  3
三点鎖線
 72
    65
 73
     8
 40
37.0
 49
30.0
 74
     0
 49
-1.0
 74
     0
 49
1.0
 74
     0
 49
-1.0
 74
     0
 49
1.0
 74
     0
 49
-1.0
 74
     0
 49
1.0
 74
     0
 49
-1.0
 74
     0
  0
LTYPE
  5
22
100
AcDbSymbolTableRecord
100
AcDbLinetypeTableRecord
  2
EXLTYPE6
 70
    64
  3
四点鎖線
 72
    65
 73
    10
 40
39.0
 49
30.0
 74
     0
 49
-1.0
 74
     0
 49
1.0
 74
     0
 49
-1.0
 74
     0
 49
1.0
 74
     0
 49
-1.0
 74
     0
 49
1.0
 74
     0
 49
-1.0
 74
     0
 49
1.0
 74
     0
 49
-1.0
 74
     0
  0
ENDTAB
  0
TABLE
  2
LAYER
  5
2
100
AcDbSymbolTable
 70
     3
  0
LAYER
  5
14
100
AcDbSymbolTableRecord
100
AcDbLayerTableRecord
  2
0
 70
     0
 62
     7
  6
CONTINUOUS
  0
LAYER
  5
25
100
AcDbSymbolTableRecord
100
AcDbLayerTableRecord
  2
LAY-1
 70
    64
 62
     7
  6
CONTINUOUS
  0
LAYER
  5
26
100
AcDbSymbolTableRecord
100
AcDbLayerTableRecord
  2
LAY-2
 70
    64
 62
     7
  6
CONTINUOUS
  0
ENDTAB
  0
TABLE
  2
STYLE
  5
3
100
AcDbSymbolTable
 70
     4
  0
STYLE
  5
17
100
AcDbSymbolTableRecord
100
AcDbTextStyleTableRecord
  2
STANDARD
 70
     0
 40
0.0
 41
1.0
 50
0.0
 71
     0
 42
0.0
  3
monotxt
  4
extfont
  0
STYLE
  5
23
100
AcDbSymbolTableRecord
100
AcDbTextStyleTableRecord
  2
EXCADSTD
 70
    64
 40
0.0
 41
1.0
 50
0.0
 71
     0
 42
0.2
  3
monotxt
  4
extfont
  0
STYLE
  5
24
100
AcDbSymbolTableRecord
100
AcDbTextStyleTableRecord
  2
EXCADVERT
 70
    68
 40
0.0
 41
1.0
 50
0.0
 71
     0
 42
0.286885
  3
monotxt
  4
extfont
  0
STYLE
  5
349
100
AcDbSymbolTableRecord
100
AcDbTextStyleTableRecord
  2
EXCADTTF1
 70
    64
 40
0.0
 41
1.0
 50
0.0
 71
     0
 42
0.2
  3
MS Gothic.ttf
  4

1001
ACAD
1000
MS Gothic
1071
    32817
  0
ENDTAB
  0
TABLE
  2
VIEW
  5
5
100
AcDbSymbolTable
 70
     0
  0
ENDTAB
  0
TABLE
  2
UCS
  5
6
100
AcDbSymbolTable
 70
     0
  0
ENDTAB
  0
TABLE
  2
APPID
  5
8
100
AcDbSymbolTable
 70
     1
  0
APPID
  5
16
100
AcDbSymbolTableRecord
100
AcDbRegAppTableRecord
  2
ACAD
 70
     0
  0
ENDTAB
  0
TABLE
  2
DIMSTYLE
  5
9
100
AcDbSymbolTable
 70
     1
  0
DIMSTYLE
105
18
100
AcDbSymbolTableRecord
100
AcDbDimStyleTableRecord
  2
STANDARD
 70
     0
  3

  4

  5

  6

  7

 40
1.0
 41
0.18
 42
0.0625
 43
0.38
 44
0.18
 45
0.0
 46
0.0
 47
0.0
 48
0.0
 71
     0
 72
     0
 73
     1
 74
     1
 75
     0
 76
     0
 77
     0
 78
     0
140
0.18
141
0.09
142
0.0
143
25.4
144
1.0
145
0.0
146
1.0
147
0.09
170
     0
171
     2
172
     0
173
     0
174
     0
175
     0
176
     0
177
     0
178
     0
270
     2
271
     4
272
     4
273
     2
274
     2
275
     0
280
     0
281
     0
282
     0
283
     1
284
     0
285
     0
286
     0
287
     0
288
     0
340
17
  0
ENDTAB
  0
TABLE
  2
BLOCK_RECORD
  5
1
100
AcDbSymbolTable
 70
    14
  0
BLOCK_RECORD
  5
A
100
AcDbSymbolTableRecord
100
AcDbBlockTableRecord
  2
*MODEL_SPACE
  0
BLOCK_RECORD
  5
B
100
AcDbSymbolTableRecord
100
AcDbBlockTableRecord
  2
*PAPER_SPACE
  0
BLOCK_RECORD
  5
27
100
AcDbSymbolTableRecord
100
AcDbBlockTableRecord
  2
_EX_NORM
  0
BLOCK_RECORD
  5
28
100
AcDbSymbolTableRecord
100
AcDbBlockTableRecord
  2
_EX_BNORM
  0
BLOCK_RECORD
  5
29
100
AcDbSymbolTableRecord
100
AcDbBlockTableRecord
  2
_EX_BCIR
  0
BLOCK_RECORD
  5
2A
100
AcDbSymbolTableRecord
100
AcDbBlockTableRecord
  2
_EX_RCIVIL
  0
BLOCK_RECORD
  5
2B
100
AcDbSymbolTableRecord
100
AcDbBlockTableRecord
  2
_EX_SLANT
  0
BLOCK_RECORD
  5
2C
100
AcDbSymbolTableRecord
100
AcDbBlockTableRecord
  2
_EX_NONE
  0
BLOCK_RECORD
  5
2D
100
AcDbSymbolTableRecord
100
AcDbBlockTableRecord
  2
_EX_CIVIL
  0
BLOCK_RECORD
  5
2E
100
AcDbSymbolTableRecord
100
AcDbBlockTableRecord
  2
_EX_WCIR
  0
BLOCK_RECORD
  5
2F
100
AcDbSymbolTableRecord
100
AcDbBlockTableRecord
  2
_EX_WCIR2
  0
BLOCK_RECORD
  5
30
100
AcDbSymbolTableRecord
100
AcDbBlockTableRecord
  2
_EX_WNORM
  0
BLOCK_RECORD
  5
31
100
AcDbSymbolTableRecord
100
AcDbBlockTableRecord
  2
_EX_NNORM
  0
BLOCK_RECORD
  5
32
100
AcDbSymbolTableRecord
100
AcDbBlockTableRecord
  2
_EX_BBOX
  0
BLOCK_RECORD
  5
33
100
AcDbSymbolTableRecord
100
AcDbBlockTableRecord
  2
_EX_WBOX
  0
BLOCK_RECORD
  5
34
100
AcDbSymbolTableRecord
100
AcDbBlockTableRecord
  2
_EX_INTEGRAL
  0
ENDTAB
  0
ENDSEC
  0
SECTION
  2
BLOCKS
  0
BLOCK
  5
D
100
AcDbEntity
  8
0
100
AcDbBlockBegin
  2
*MODEL_SPACE
 70
     0
 10
0.0
 20
0.0
 30
0.0
  3
*MODEL_SPACE
  1

  0
ENDBLK
  5
E
100
AcDbEntity
  8
0
100
AcDbBlockEnd
  0
BLOCK
  5
F
100
AcDbEntity
 67
     1
  8
0
100
AcDbBlockBegin
  2
*PAPER_SPACE
 70
     0
 10
0.0
 20
0.0
 30
0.0
  3
*PAPER_SPACE
  1

  0
ENDBLK
  5
10
100
AcDbEntity
 67
     1
  8
0
100
AcDbBlockEnd
  0
BLOCK
  5
35
100
AcDbEntity
  8
0
100
AcDbBlockBegin
  2
_EX_NORM
 70
     0
 10
0.0
 20
0.0
 30
0.0
  3
_EX_NORM
  1

  0
LINE
  5
36
100
AcDbEntity
  8
0
  6
CONTINUOUS
 62
     0
100
AcDbLine
 10
0.0
 20
0.0
 30
0.0
 11
-1.0
 21
0.0
 31
0.0
  0
LINE
  5
37
100
AcDbEntity
  8
0
  6
CONTINUOUS
 62
     0
100
AcDbLine
 10
0.0
 20
0.0
 30
0.0
 11
-1.0
 21
0.166667
 31
0.0
  0
LINE
  5
38
100
AcDbEntity
  8
0
  6
CONTINUOUS
 62
     0
100
AcDbLine
 10
0.0
 20
0.0
 30
0.0
 11
-1.0
 21
-0.166667
 31
0.0
  0
ENDBLK
  5
39
100
AcDbEntity
  8
0
100
AcDbBlockEnd
  0
BLOCK
  5
3A
100
AcDbEntity
  8
0
100
AcDbBlockBegin
  2
_EX_BNORM
 70
     0
 10
0.0
 20
0.0
 30
0.0
  3
_EX_BNORM
  1

  0
LINE
  5
3B
100
AcDbEntity
  8
0
  6
CONTINUOUS
 62
     0
100
AcDbLine
 10
0.0
 20
0.0
 30
0.0
 11
-1.0
 21
0.0
 31
0.0
  0
LINE
  5
3C
100
AcDbEntity
  8
0
  6
CONTINUOUS
 62
     0
100
AcDbLine
 10
0.0
 20
0.0
 30
0.0
 11
-1.0
 21
0.166667
 31
0.0
  0
LINE
  5
3D
100
AcDbEntity
  8
0
  6
CONTINUOUS
 62
     0
100
AcDbLine
 10
0.0
 20
0.0
 30
0.0
 11
-1.0
 21
-0.166667
 31
0.0
  0
LINE
  5
3E
100
AcDbEntity
  8
0
  6
CONTINUOUS
 62
     0
100
AcDbLine
 10
0.0
 20
0.0
 30
0.0
 11
-1.0
 21
0.083333
 31
0.0
  0
LINE
  5
3F
100
AcDbEntity
  8
0
  6
CONTINUOUS
 62
     0
100
AcDbLine
 10
0.0
 20
0.0
 30
0.0
 11
-1.0
 21
-0.083333
 31
0.0
  0
LINE
  5
40
100
AcDbEntity
  8
0
  6
CONTINUOUS
 62
     0
100
AcDbLine
 10
-1.0
 20
0.166667
 30
0.0
 11
-1.0
 21
-0.166667
 31
0.0
  0
ENDBLK
  5
41
100
AcDbEntity
  8
0
100
AcDbBlockEnd
  0
BLOCK
  5
42
100
AcDbEntity
  8
0
100
AcDbBlockBegin
  2
_EX_BCIR
 70
     0
 10
0.0
 20
0.0
 30
0.0
  3
_EX_BCIR
  1

  0
LINE
  5
43
100
AcDbEntity
  8
0
  6
CONTINUOUS
 62
     0
100
AcDbLine
 10
0.0
 20
0.0
 30
0.0
 11
-1.0
 21
0.0
 31
0.0
  0
CIRCLE
  5
44
100
AcDbEntity
  8
0
  6
CONTINUOUS
 62
     0
100
AcDbCircle
 10
0.0
 20
0.0
 30
0.0
 40
0.5
  0
CIRCLE
  5
45
100
AcDbEntity
  8
0
  6
CONTINUOUS
 62
     0
100
AcDbCircle
 10
0.0
 20
0.0
 30
0.0
 40
0.25
  0
ENDBLK
  5
46
100
AcDbEntity
  8
0
100
AcDbBlockEnd
  0
BLOCK
  5
47
100
AcDbEntity
  8
0
100
AcDbBlockBegin
  2
_EX_RCIVIL
 70
     0
 10
0.0
 20
0.0
 30
0.0
  3
_EX_RCIVIL
  1

  0
LINE
  5
48
100
AcDbEntity
  8
0
  6
CONTINUOUS
 62
     0
100
AcDbLine
 10
0.0
 20
0.0
 30
0.0
 11
-1.0
 21
0.0
 31
0.0
  0
LINE
  5
49
100
AcDbEntity
  8
0
  6
CONTINUOUS
 62
     0
100
AcDbLine
 10
-1.0
 20
-0.25
 30
0.0
 11
0.0
 21
-0.25
 31
0.0
  0
LINE
  5
4A
100
AcDbEntity
  8
0
  6
CONTINUOUS
 62
     0
100
AcDbLine
 10
-1.0
 20
-0.125
 30
0.0
 11
0.0
 21
-0.125
 31
0.0
  0
ENDBLK
  5
4B
100
AcDbEntity
  8
0
100
AcDbBlockEnd
  0
BLOCK
  5
4C
100
AcDbEntity
  8
0
100
AcDbBlockBegin
  2
_EX_SLANT
 70
     0
 10
0.0
 20
0.0
 30
0.0
  3
_EX_SLANT
  1

  0
LINE
  5
4D
100
AcDbEntity
  8
0
  6
CONTINUOUS
 62
     0
100
AcDbLine
 10
0.0
 20
0.0
 30
0.0
 11
-1.0
 21
0.0
 31
0.0
  0
LINE
  5
4E
100
AcDbEntity
  8
0
  6
CONTINUOUS
 62
     0
100
AcDbLine
 10
0.707107
 20
0.707107
 30
0.0
 11
-0.707107
 21
-0.707107
 31
0.0
  0
ENDBLK
  5
4F
100
AcDbEntity
  8
0
100
AcDbBlockEnd
  0
BLOCK
  5
50
100
AcDbEntity
  8
0
100
AcDbBlockBegin
  2
_EX_NONE
 70
     0
 10
0.0
 20
0.0
 30
0.0
  3
_EX_NONE
  1

  0
LINE
  5
51
100
AcDbEntity
  8
0
  6
CONTINUOUS
 62
     0
100
AcDbLine
 10
0.0
 20
0.0
 30
0.0
 11
-1.0
 21
0.0
 31
0.0
  0
ENDBLK
  5
52
100
AcDbEntity
  8
0
100
AcDbBlockEnd
  0
BLOCK
  5
53
100
AcDbEntity
  8
0
100
AcDbBlockBegin
  2
_EX_CIVIL
 70
     0
 10
0.0
 20
0.0
 30
0.0
  3
_EX_CIVIL
  1

  0
LINE
  5
54
100
AcDbEntity
  8
0
  6
CONTINUOUS
 62
     0
100
AcDbLine
 10
0.0
 20
0.0
 30
0.0
 11
-1.0
 21
0.0
 31
0.0
  0
LINE
  5
55
100
AcDbEntity
  8
0
  6
CONTINUOUS
 62
     0
100
AcDbLine
 10
-1.0
 20
0.25
 30
0.0
 11
0.0
 21
0.25
 31
0.0
  0
LINE
  5
56
100
AcDbEntity
  8
0
  6
CONTINUOUS
 62
     0
100
AcDbLine
 10
-1.0
 20
0.125
 30
0.0
 11
0.0
 21
0.125
 31
0.0
  0
ENDBLK
  5
57
100
AcDbEntity
  8
0
100
AcDbBlockEnd
  0
BLOCK
  5
58
100
AcDbEntity
  8
0
100
AcDbBlockBegin
  2
_EX_WCIR
 70
     0
 10
0.0
 20
0.0
 30
0.0
  3
_EX_WCIR
  1

  0
LINE
  5
59
100
AcDbEntity
  8
0
  6
CONTINUOUS
 62
     0
100
AcDbLine
 10
0.0
 20
0.0
 30
0.0
 11
-1.0
 21
0.0
 31
0.0
  0
CIRCLE
  5
5A
100
AcDbEntity
  8
0
  6
CONTINUOUS
 62
     0
100
AcDbCircle
 10
0.0
 20
0.0
 30
0.0
 40
0.5
  0
ENDBLK
  5
5B
100
AcDbEntity
  8
0
100
AcDbBlockEnd
  0
BLOCK
  5
5C
100
AcDbEntity
  8
0
100
AcDbBlockBegin
  2
_EX_WCIR2
 70
     0
 10
0.0
 20
0.0
 30
0.0
  3
_EX_WCIR2
  1

  0
LINE
  5
5D
100
AcDbEntity
  8
0
  6
CONTINUOUS
 62
     0
100
AcDbLine
 10
-0.5
 20
0.0
 30
0.0
 11
-1.0
 21
0.0
 31
0.0
  0
CIRCLE
  5
5E
100
AcDbEntity
  8
0
  6
CONTINUOUS
 62
     0
100
AcDbCircle
 10
0.0
 20
0.0
 30
0.0
 40
0.5
  0
ENDBLK
  5
5F
100
AcDbEntity
  8
0
100
AcDbBlockEnd
  0
BLOCK
  5
60
100
AcDbEntity
  8
0
100
AcDbBlockBegin
  2
_EX_WNORM
 70
     0
 10
0.0
 20
0.0
 30
0.0
  3
_EX_WNORM
  1

  0
LINE
  5
61
100
AcDbEntity
  8
0
  6
CONTINUOUS
 62
     0
100
AcDbLine
 10
-1.0
 20
0.0
 30
0.0
 11
-1.0
 21
0.0
 31
0.0
  0
LINE
  5
62
100
AcDbEntity
  8
0
  6
CONTINUOUS
 62
     0
100
AcDbLine
 10
0.0
 20
0.0
 30
0.0
 11
-1.0
 21
0.166667
 31
0.0
  0
LINE
  5
63
100
AcDbEntity
  8
0
  6
CONTINUOUS
 62
     0
100
AcDbLine
 10
0.0
 20
0.0
 30
0.0
 11
-1.0
 21
-0.166667
 31
0.0
  0
LINE
  5
64
100
AcDbEntity
  8
0
  6
CONTINUOUS
 62
     0
100
AcDbLine
 10
-1.0
 20
0.166667
 30
0.0
 11
-1.0
 21
-0.166667
 31
0.0
  0
ENDBLK
  5
65
100
AcDbEntity
  8
0
100
AcDbBlockEnd
  0
BLOCK
  5
66
100
AcDbEntity
  8
0
100
AcDbBlockBegin
  2
_EX_NNORM
 70
     0
 10
0.0
 20
0.0
 30
0.0
  3
_EX_NNORM
  1

  0
LINE
  5
67
100
AcDbEntity
  8
0
  6
CONTINUOUS
 62
     0
100
AcDbLine
 10
0.0
 20
0.0
 30
0.0
 11
-1.0
 21
0.0
 31
0.0
  0
LINE
  5
68
100
AcDbEntity
  8
0
  6
CONTINUOUS
 62
     0
100
AcDbLine
 10
0.0
 20
0.0
 30
0.0
 11
-1.0
 21
0.166667
 31
0.0
  0
LINE
  5
69
100
AcDbEntity
  8
0
  6
CONTINUOUS
 62
     0
100
AcDbLine
 10
0.0
 20
0.0
 30
0.0
 11
-1.0
 21
-0.166667
 31
0.0
  0
LINE
  5
6A
100
AcDbEntity
  8
0
  6
CONTINUOUS
 62
     0
100
AcDbLine
 10
-1.0
 20
0.166667
 30
0.0
 11
-1.0
 21
-0.166667
 31
0.0
  0
ENDBLK
  5
6B
100
AcDbEntity
  8
0
100
AcDbBlockEnd
  0
BLOCK
  5
6C
100
AcDbEntity
  8
0
100
AcDbBlockBegin
  2
_EX_BBOX
 70
     0
 10
0.0
 20
0.0
 30
0.0
  3
_EX_BBOX
  1

  0
LINE
  5
6D
100
AcDbEntity
  8
0
  6
CONTINUOUS
 62
     0
100
AcDbLine
 10
0.0
 20
0.0
 30
0.0
 11
-1.0
 21
0.0
 31
0.0
  0
LINE
  5
6E
100
AcDbEntity
  8
0
  6
CONTINUOUS
 62
     0
100
AcDbLine
 10
-0.5
 20
0.5
 30
0.0
 11
0.5
 21
0.5
 31
0.0
  0
LINE
  5
6F
100
AcDbEntity
  8
0
  6
CONTINUOUS
 62
     0
100
AcDbLine
 10
0.5
 20
0.5
 30
0.0
 11
0.5
 21
-0.5
 31
0.0
  0
LINE
  5
70
100
AcDbEntity
  8
0
  6
CONTINUOUS
 62
     0
100
AcDbLine
 10
0.5
 20
-0.5
 30
0.0
 11
-0.5
 21
-0.5
 31
0.0
  0
LINE
  5
71
100
AcDbEntity
  8
0
  6
CONTINUOUS
 62
     0
100
AcDbLine
 10
-0.5
 20
-0.5
 30
0.0
 11
-0.5
 21
0.5
 31
0.0
  0
LINE
  5
72
100
AcDbEntity
  8
0
  6
CONTINUOUS
 62
     0
100
AcDbLine
 10
-0.25
 20
0.25
 30
0.0
 11
0.25
 21
0.25
 31
0.0
  0
LINE
  5
73
100
AcDbEntity
  8
0
  6
CONTINUOUS
 62
     0
100
AcDbLine
 10
0.25
 20
0.25
 30
0.0
 11
0.25
 21
-0.25
 31
0.0
  0
LINE
  5
74
100
AcDbEntity
  8
0
  6
CONTINUOUS
 62
     0
100
AcDbLine
 10
0.25
 20
-0.25
 30
0.0
 11
-0.25
 21
-0.25
 31
0.0
  0
LINE
  5
75
100
AcDbEntity
  8
0
  6
CONTINUOUS
 62
     0
100
AcDbLine
 10
-0.25
 20
-0.25
 30
0.0
 11
-0.25
 21
0.25
 31
0.0
  0
ENDBLK
  5
76
100
AcDbEntity
  8
0
100
AcDbBlockEnd
  0
BLOCK
  5
77
100
AcDbEntity
  8
0
100
AcDbBlockBegin
  2
_EX_WBOX
 70
     0
 10
0.0
 20
0.0
 30
0.0
  3
_EX_WBOX
  1

  0
LINE
  5
78
100
AcDbEntity
  8
0
  6
CONTINUOUS
 62
     0
100
AcDbLine
 10
-0.5
 20
0.0
 30
0.0
 11
-1.0
 21
0.0
 31
0.0
  0
LINE
  5
79
100
AcDbEntity
  8
0
  6
CONTINUOUS
 62
     0
100
AcDbLine
 10
-0.5
 20
0.5
 30
0.0
 11
0.5
 21
0.5
 31
0.0
  0
LINE
  5
7A
100
AcDbEntity
  8
0
  6
CONTINUOUS
 62
     0
100
AcDbLine
 10
0.5
 20
0.5
 30
0.0
 11
0.5
 21
-0.5
 31
0.0
  0
LINE
  5
7B
100
AcDbEntity
  8
0
  6
CONTINUOUS
 62
     0
100
AcDbLine
 10
0.5
 20
-0.5
 30
0.0
 11
-0.5
 21
-0.5
 31
0.0
  0
LINE
  5
7C
100
AcDbEntity
  8
0
  6
CONTINUOUS
 62
     0
100
AcDbLine
 10
-0.5
 20
-0.5
 30
0.0
 11
-0.5
 21
0.5
 31
0.0
  0
ENDBLK
  5
7D
100
AcDbEntity
  8
0
100
AcDbBlockEnd
  0
BLOCK
  5
7E
100
AcDbEntity
  8
0
100
AcDbBlockBegin
  2
_EX_INTEGRAL
 70
     0
 10
0.0
 20
0.0
 30
0.0
  3
_EX_INTEGRAL
  1

  0
LINE
  5
7F
100
AcDbEntity
  8
0
  6
CONTINUOUS
 62
     0
100
AcDbLine
 10
0.0
 20
0.0
 30
0.0
 11
-1.0
 21
0.0
 31
0.0
  0
ARC
  5
80
100
AcDbEntity
  8
0
  6
CONTINUOUS
 62
     0
100
AcDbCircle
 10
0.0
 20
0.0
 30
0.0
 40
0.707107
100
AcDbArc
 50
90.0
 51
180.0
  0
ARC
  5
81
100
AcDbEntity
  8
0
  6
CONTINUOUS
 62
     0
100
AcDbCircle
 10
0.0
 20
0.0
 30
0.0
 40
0.707107
100
AcDbArc
 50
270.0
 51
0.0
  0
ENDBLK
  5
82
100
AcDbEntity
  8
0
100
AcDbBlockEnd
  0
ENDSEC
  0
SECTION
  2
ENTITIES
  0
LINE
  5
83
100
AcDbEntity
  8
LAY-2
  6
CONTINUOUS
 62
     2
100
AcDbLine
 10
206.610562
 20
384.075
 30
0.0
 11
208.789438
 21
384.075
 31
0.0
  0
LINE
  5
84
100
AcDbEntity
  8
LAY-2
  6
CONTINUOUS
 62
     2
100
AcDbLine
 10
205.063241
 20
383.7
 30
0.0
 11
210.336759
 21
383.7
 31
0.0
  0
LINE
  5
85
100
AcDbEntity
  8
LAY-2
  6
CONTINUOUS
 62
     2
100
AcDbLine
 10
204.173405
 20
383.325
 30
0.0
 11
211.226595
 21
383.325
 31
0.0
  0
LINE
  5
86
100
AcDbEntity
  8
LAY-2
  6
CONTINUOUS
 62
     2
100
AcDbLine
 10
203.5
 20
382.95
 30
0.0
 11
211.9
 21
382.95
 31
0.0
  0
LINE
  5
87
100
AcDbEntity
  8
LAY-2
  6
CONTINUOUS
 62
     2
100
AcDbLine
 10
202.950066
 20
382.575
 30
0.0
 11
212.449934
 21
382.575
 31
0.0
  0
LINE
  5
88
100
AcDbEntity
  8
LAY-2
  6
CONTINUOUS
 62
     2
100
AcDbLine
 10
202.484398
 20
382.2
 30
0.0
 11
212.915602
 21
382.2
 31
0.0
  0
LINE
  5
89
100
AcDbEntity
  8
LAY-2
  6
CONTINUOUS
 62
     2
100
AcDbLine
 10
188.95
 20
381.825
 30
0.0
 11
201.033635
 21
381.825
 31
0.0
  0
LINE
  5
8A
100
AcDbEntity
  8
LAY-2
  6
CONTINUOUS
 62
     2
100
AcDbLine
 10
202.082004
 20
381.825
 30
0.0
 11
213.317996
 21
381.825
 31
0.0
  0
LINE
  5
8B
100
AcDbEntity
  8
LAY-2
  6
CONTINUOUS
 62
     2
100
AcDbLine
 10
214.366365
 20
381.825
 30
0.0
 11
223.45
 21
381.825
 31
0.0
  0
LINE
  5
8C
100
AcDbEntity
  8
LAY-2
  6
CONTINUOUS
 62
     2
100
AcDbLine
 10
224.725
 20
381.825
 30
0.0
 11
234.775
 21
381.825
 31
0.0
  0
LINE
  5
8D
100
AcDbEntity
  8
LAY-2
  6
CONTINUOUS
 62
     2
100
AcDbLine
 10
235.9
 20
381.825
 30
0.0
 11
238.45
 21
381.825
 31
0.0
  0
LINE
  5
8E
100
AcDbEntity
  8
LAY-2
  6
CONTINUOUS
 62
     2
100
AcDbLine
 10
243.7
 20
381.825
 30
0.0
 11
246.25
 21
381.825
 31
0.0
  0
LINE
  5
8F
100
AcDbEntity
  8
LAY-2
  6
CONTINUOUS
 62
     2
100
AcDbLine
 10
188.95
 20
381.45
 30
0.0
 11
200.734474
 21
381.45
 31
0.0
  0
LINE
  5
90
100
AcDbEntity
  8
LAY-2
  6
CONTINUOUS
 62
     2
100
AcDbLine
 10
201.730075
 20
381.45
 30
0.0
 11
213.669925
 21
381.45
 31
0.0
  0
LINE
  5
91
100
AcDbEntity
  8
LAY-2
  6
CONTINUOUS
 62
     2
100
AcDbLine
 10
214.665526
 20
381.45
 30
0.0
 11
223.45
 21
381.45
 31
0.0
  0
LINE
  5
92
100
AcDbEntity
  8
LAY-2
  6
CONTINUOUS
 62
     2
100
AcDbLine
 10
224.725
 20
381.45
 30
0.0
 11
234.775
 21
381.45
 31
0.0
  0
LINE
  5
93
100
AcDbEntity
  8
LAY-2
  6
CONTINUOUS
 62
     2
100
AcDbLine
 10
235.9
 20
381.45
 30
0.0
 11
238.696783
 21
381.45
 31
0.0
  0
LINE
  5
94
100
AcDbEntity
  8
LAY-2
  6
CONTINUOUS
 62
     2
100
AcDbLine
 10
243.7
 20
381.45
 30
0.0
 11
246.25
 21
381.45
 31
0.0
  0
LINE
  5
95
100
AcDbEntity
  8
LAY-2
  6
CONTINUOUS
 62
     2
100
AcDbLine
 10
188.95
 20
381.075
 30
0.0
 11
200.46706
 21
381.075
 31
0.0
  0
LINE
  5
96
100
AcDbEntity
  8
LAY-2
  6
CONTINUOUS
 62
     2
100
AcDbLine
 10
201.420121
 20
381.075
 30
0.0
 11
205.751443
 21
381.075
 31
0.0
  0
LINE
  5
97
100
AcDbEntity
  8
LAY-2
  6
CONTINUOUS
 62
     2
100
AcDbLine
 10
209.648557
 20
381.075
 30
0.0
 11
213.979879
 21
381.075
 31
0.0
  0
LINE
  5
98
100
AcDbEntity
  8
LAY-2
  6
CONTINUOUS
 62
     2
100
AcDbLine
 10
214.93294
 20
381.075
 30
0.0
 11
223.45
 21
381.075
 31
0.0
  0
LINE
  5
99
100
AcDbEntity
  8
LAY-2
  6
CONTINUOUS
 62
     2
100
AcDbLine
 10
224.725
 20
381.075
 30
0.0
 11
234.775
 21
381.075
 31
0.0
  0
LINE
  5
9A
100
AcDbEntity
  8
LAY-2
  6
CONTINUOUS
 62
     2
100
AcDbLine
 10
235.9
 20
381.075
 30
0.0
 11
238.943566
 21
381.075
 31
0.0
  0
LINE
  5
9B
100
AcDbEntity
  8
LAY-2
  6
CONTINUOUS
 62
     2
100
AcDbLine
 10
243.7
 20
381.075
 30
0.0
 11
246.25
 21
381.075
 31
0.0
  0
LINE
  5
9C
100
AcDbEntity
  8
LAY-2
  6
CONTINUOUS
 62
     2
100
AcDbLine
 10
188.95
 20
380.7
 30
0.0
 11
200.227982
 21
380.7
 31
0.0
  0
LINE
  5
9D
100
AcDbEntity
  8
LAY-2
  6
CONTINUOUS
 62
     2
100
AcDbLine
 10
201.146184
 20
380.7
 30
0.0
 11
204.995837
 21
380.7
 31
0.0
  0
LINE
  5
9E
100
AcDbEntity
  8
LAY-2
  6
CONTINUOUS
 62
     2
100
AcDbLine
 10
210.404163
 20
380.7
 30
0.0
 11
214.253816
 21
380.7
 31
0.0
  0
LINE
  5
9F
100
AcDbEntity
  8
LAY-2
  6
CONTINUOUS
 62
     2
100
AcDbLine
 10
215.172018
 20
380.7
 30
0.0
 11
223.45
 21
380.7
 31
0.0
  0
LINE
  5
A0
100
AcDbEntity
  8
LAY-2
  6
CONTINUOUS
 62
     2
100
AcDbLine
 10
224.725
 20
380.7
 30
0.0
 11
234.775
 21
380.7
 31
0.0
  0
LINE
  5
A1
100
AcDbEntity
  8
LAY-2
  6
CONTINUOUS
 62
     2
100
AcDbLine
 10
235.9
 20
380.7
 30
0.0
 11
239.190349
 21
380.7
 31
0.0
  0
LINE
  5
A2
100
AcDbEntity
  8
LAY-2
  6
CONTINUOUS
 62
     2
100
AcDbLine
 10
243.7
 20
380.7
 30
0.0
 11
246.25
 21
380.7
 31
0.0
  0
LINE
  5
A3
100
AcDbEntity
  8
LAY-2
  6
CONTINUOUS
 62
     2
100
AcDbLine
 10
188.95
 20
380.325
 30
0.0
 11
200.014597
 21
380.325
 31
0.0
  0
LINE
  5
A4
100
AcDbEntity
  8
LAY-2
  6
CONTINUOUS
 62
     2
100
AcDbLine
 10
200.903907
 20
380.325
 30
0.0
 11
204.452405
 21
380.325
 31
0.0
  0
LINE
  5
A5
100
AcDbEntity
  8
LAY-2
  6
CONTINUOUS
 62
     2
100
AcDbLine
 10
210.947595
 20
380.325
 30
0.0
 11
214.496093
 21
380.325
 31
0.0
  0
LINE
  5
A6
100
AcDbEntity
  8
LAY-2
  6
CONTINUOUS
 62
     2
100
AcDbLine
 10
215.385403
 20
380.325
 30
0.0
 11
223.45
 21
380.325
 31
0.0
  0
LINE
  5
A7
100
AcDbEntity
  8
LAY-2
  6
CONTINUOUS
 62
     2
100
AcDbLine
 10
224.725
 20
380.325
 30
0.0
 11
234.775
 21
380.325
 31
0.0
  0
LINE
  5
A8
100
AcDbEntity
  8
LAY-2
  6
CONTINUOUS
 62
     2
100
AcDbLine
 10
235.9
 20
380.325
 30
0.0
 11
239.437132
 21
380.325
 31
0.0
  0
LINE
  5
A9
100
AcDbEntity
  8
LAY-2
  6
CONTINUOUS
 62
     2
100
AcDbLine
 10
243.7
 20
380.325
 30
0.0
 11
246.25
 21
380.325
 31
0.0
  0
LINE
  5
AA
100
AcDbEntity
  8
LAY-2
  6
CONTINUOUS
 62
     2
100
AcDbLine
 10
188.95
 20
379.95
 30
0.0
 11
199.824814
 21
379.95
 31
0.0
  0
LINE
  5
AB
100
AcDbEntity
  8
LAY-2
  6
CONTINUOUS
 62
     2
100
AcDbLine
 10
200.690007
 20
379.95
 30
0.0
 11
204.025765
 21
379.95
 31
0.0
  0
LINE
  5
AC
100
AcDbEntity
  8
LAY-2
  6
CONTINUOUS
 62
     2
100
AcDbLine
 10
206.38162
 20
379.95
 30
0.0
 11
209.01838
 21
379.95
 31
0.0
  0
LINE
  5
AD
100
AcDbEntity
  8
LAY-2
  6
CONTINUOUS
 62
     2
100
AcDbLine
 10
211.374235
 20
379.95
 30
0.0
 11
214.709993
 21
379.95
 31
0.0
  0
LINE
  5
AE
100
AcDbEntity
  8
LAY-2
  6
CONTINUOUS
 62
     2
100
AcDbLine
 10
215.575186
 20
379.95
 30
0.0
 11
223.45
 21
379.95
 31
0.0
  0
LINE
  5
AF
100
AcDbEntity
  8
LAY-2
  6
CONTINUOUS
 62
     2
100
AcDbLine
 10
224.725
 20
379.95
 30
0.0
 11
234.775
 21
379.95
 31
0.0
  0
LINE
  5
B0
100
AcDbEntity
  8
LAY-2
  6
CONTINUOUS
 62
     2
100
AcDbLine
 10
235.9
 20
379.95
 30
0.0
 11
239.683915
 21
379.95
 31
0.0
  0
LINE
  5
B1
100
AcDbEntity
  8
LAY-2
  6
CONTINUOUS
 62
     2
100
AcDbLine
 10
243.7
 20
379.95
 30
0.0
 11
246.25
 21
379.95
 31
0.0
  0
LINE
  5
B2
100
AcDbEntity
  8
LAY-2
  6
CONTINUOUS
 62
     2
100
AcDbLine
 10
188.95
 20
379.575
 30
0.0
 11
199.656964
 21
379.575
 31
0.0
  0
LINE
  5
B3
100
AcDbEntity
  8
LAY-2
  6
CONTINUOUS
 62
     2
100
AcDbLine
 10
200.501953
 20
379.575
 30
0.0
 11
203.678573
 21
379.575
 31
0.0
  0
LINE
  5
B4
100
AcDbEntity
  8
LAY-2
  6
CONTINUOUS
 62
     2
100
AcDbLine
 10
205.6
 20
379.575
 30
0.0
 11
209.8
 21
379.575
 31
0.0
  0
LINE
  5
B5
100
AcDbEntity
  8
LAY-2
  6
CONTINUOUS
 62
     2
100
AcDbLine
 10
211.721427
 20
379.575
 30
0.0
 11
214.898047
 21
379.575
 31
0.0
  0
LINE
  5
B6
100
AcDbEntity
  8
LAY-2
  6
CONTINUOUS
 62
     2
100
AcDbLine
 10
215.743036
 20
379.575
 30
0.0
 11
223.45
 21
379.575
 31
0.0
  0
LINE
  5
B7
100
AcDbEntity
  8
LAY-2
  6
CONTINUOUS
 62
     2
100
AcDbLine
 10
224.725
 20
379.575
 30
0.0
 11
234.775
 21
379.575
 31
0.0
  0
LINE
  5
B8
100
AcDbEntity
  8
LAY-2
  6
CONTINUOUS
 62
     2
100
AcDbLine
 10
235.9
 20
379.575
 30
0.0
 11
239.930699
 21
379.575
 31
0.0
  0
LINE
  5
B9
100
AcDbEntity
  8
LAY-2
  6
CONTINUOUS
 62
     2
100
AcDbLine
 10
243.7
 20
379.575
 30
0.0
 11
246.25
 21
379.575
 31
0.0
  0
LINE
  5
BA
100
AcDbEntity
  8
LAY-2
  6
CONTINUOUS
 62
     2
100
AcDbLine
 10
194.2
 20
379.2
 30
0.0
 11
196.825
 21
379.2
 31
0.0
  0
LINE
  5
BB
100
AcDbEntity
  8
LAY-2
  6
CONTINUOUS
 62
     2
100
AcDbLine
 10
200.337765
 20
379.2
 30
0.0
 11
203.391578
 21
379.2
 31
0.0
  0
LINE
  5
BC
100
AcDbEntity
  8
LAY-2
  6
CONTINUOUS
 62
     2
100
AcDbLine
 10
205.092199
 20
379.2
 30
0.0
 11
210.307801
 21
379.2
 31
0.0
  0
LINE
  5
BD
100
AcDbEntity
  8
LAY-2
  6
CONTINUOUS
 62
     2
100
AcDbLine
 10
212.008422
 20
379.2
 30
0.0
 11
215.062235
 21
379.2
 31
0.0
  0
LINE
  5
BE
100
AcDbEntity
  8
LAY-2
  6
CONTINUOUS
 62
     2
100
AcDbLine
 10
220.557281
 20
379.2
 30
0.0
 11
223.45
 21
379.2
 31
0.0
  0
LINE
  5
BF
100
AcDbEntity
  8
LAY-2
  6
CONTINUOUS
 62
     2
100
AcDbLine
 10
224.725
 20
379.2
 30
0.0
 11
227.35
 21
379.2
 31
0.0
  0
LINE
  5
C0
100
AcDbEntity
  8
LAY-2
  6
CONTINUOUS
 62
     2
100
AcDbLine
 10
235.9
 20
379.2
 30
0.0
 11
240.177482
 21
379.2
 31
0.0
  0
LINE
  5
C1
100
AcDbEntity
  8
LAY-2
  6
CONTINUOUS
 62
     2
100
AcDbLine
 10
243.7
 20
379.2
 30
0.0
 11
246.25
 21
379.2
 31
0.0
  0
LINE
  5
C2
100
AcDbEntity
  8
LAY-2
  6
CONTINUOUS
 62
     2
100
AcDbLine
 10
194.2
 20
378.825
 30
0.0
 11
196.825
 21
378.825
 31
0.0
  0
LINE
  5
C3
100
AcDbEntity
  8
LAY-2
  6
CONTINUOUS
 62
     2
100
AcDbLine
 10
200.195876
 20
378.825
 30
0.0
 11
203.153367
 21
378.825
 31
0.0
  0
LINE
  5
C4
100
AcDbEntity
  8
LAY-2
  6
CONTINUOUS
 62
     2
100
AcDbLine
 10
204.715038
 20
378.825
 30
0.0
 11
210.684962
 21
378.825
 31
0.0
  0
LINE
  5
C5
100
AcDbEntity
  8
LAY-2
  6
CONTINUOUS
 62
     2
100
AcDbLine
 10
212.246633
 20
378.825
 30
0.0
 11
215.204124
 21
378.825
 31
0.0
  0
LINE
  5
C6
100
AcDbEntity
  8
LAY-2
  6
CONTINUOUS
 62
     2
100
AcDbLine
 10
220.219218
 20
378.825
 30
0.0
 11
223.111938
 21
378.825
 31
0.0
  0
LINE
  5
C7
100
AcDbEntity
  8
LAY-2
  6
CONTINUOUS
 62
     2
100
AcDbLine
 10
224.725
 20
378.825
 30
0.0
 11
227.35
 21
378.825
 31
0.0
  0
LINE
  5
C8
100
AcDbEntity
  8
LAY-2
  6
CONTINUOUS
 62
     2
100
AcDbLine
 10
235.9
 20
378.825
 30
0.0
 11
240.424265
 21
378.825
 31
0.0
  0
LINE
  5
C9
100
AcDbEntity
  8
LAY-2
  6
CONTINUOUS
 62
     2
100
AcDbLine
 10
243.7
 20
378.825
 30
0.0
 11
246.25
 21
378.825
 31
0.0
  0
LINE
  5
CA
100
AcDbEntity
  8
LAY-2
  6
CONTINUOUS
 62
     2
100
AcDbLine
 10
194.2
 20
378.45
 30
0.0
 11
196.825
 21
378.45
 31
0.0
  0
LINE
  5
CB
100
AcDbEntity
  8
LAY-2
  6
CONTINUOUS
 62
     2
100
AcDbLine
 10
200.075041
 20
378.45
 30
0.0
 11
202.956584
 21
378.45
 31
0.0
  0
LINE
  5
CC
100
AcDbEntity
  8
LAY-2
  6
CONTINUOUS
 62
     2
100
AcDbLine
 10
204.423092
 20
378.45
 30
0.0
 11
210.976908
 21
378.45
 31
0.0
  0
LINE
  5
CD
100
AcDbEntity
  8
LAY-2
  6
CONTINUOUS
 62
     2
100
AcDbLine
 10
212.443416
 20
378.45
 30
0.0
 11
215.324959
 21
378.45
 31
0.0
  0
LINE
  5
CE
100
AcDbEntity
  8
LAY-2
  6
CONTINUOUS
 62
     2
100
AcDbLine
 10
219.881156
 20
378.45
 30
0.0
 11
222.773876
 21
378.45
 31
0.0
  0
LINE
  5
CF
100
AcDbEntity
  8
LAY-2
  6
CONTINUOUS
 62
     2
100
AcDbLine
 10
224.725
 20
378.45
 30
0.0
 11
227.35
 21
378.45
 31
0.0
  0
LINE
  5
D0
100
AcDbEntity
  8
LAY-2
  6
CONTINUOUS
 62
     2
100
AcDbLine
 10
235.9
 20
378.45
 30
0.0
 11
238.45
 21
378.45
 31
0.0
  0
LINE
  5
D1
100
AcDbEntity
  8
LAY-2
  6
CONTINUOUS
 62
     2
100
AcDbLine
 10
238.517555
 20
378.45
 30
0.0
 11
240.671048
 21
378.45
 31
0.0
  0
LINE
  5
D2
100
AcDbEntity
  8
LAY-2
  6
CONTINUOUS
 62
     2
100
AcDbLine
 10
243.7
 20
378.45
 30
0.0
 11
246.25
 21
378.45
 31
0.0
  0
LINE
  5
D3
100
AcDbEntity
  8
LAY-2
  6
CONTINUOUS
 62
     2
100
AcDbLine
 10
194.2
 20
378.075
 30
0.0
 11
196.825
 21
378.075
 31
0.0
  0
LINE
  5
D4
100
AcDbEntity
  8
LAY-2
  6
CONTINUOUS
 62
     2
100
AcDbLine
 10
199.974272
 20
378.075
 30
0.0
 11
202.796239
 21
378.075
 31
0.0
  0
LINE
  5
D5
100
AcDbEntity
  8
LAY-2
  6
CONTINUOUS
 62
     2
100
AcDbLine
 10
204.195004
 20
378.075
 30
0.0
 11
211.204996
 21
378.075
 31
0.0
  0
LINE
  5
D6
100
AcDbEntity
  8
LAY-2
  6
CONTINUOUS
 62
     2
100
AcDbLine
 10
212.603761
 20
378.075
 30
0.0
 11
215.425728
 21
378.075
 31
0.0
  0
LINE
  5
D7
100
AcDbEntity
  8
LAY-2
  6
CONTINUOUS
 62
     2
100
AcDbLine
 10
219.543094
 20
378.075
 30
0.0
 11
222.435814
 21
378.075
 31
0.0
  0
LINE
  5
D8
100
AcDbEntity
  8
LAY-2
  6
CONTINUOUS
 62
     2
100
AcDbLine
 10
224.725
 20
378.075
 30
0.0
 11
227.35
 21
378.075
 31
0.0
  0
LINE
  5
D9
100
AcDbEntity
  8
LAY-2
  6
CONTINUOUS
 62
     2
100
AcDbLine
 10
235.9
 20
378.075
 30
0.0
 11
238.45
 21
378.075
 31
0.0
  0
LINE
  5
DA
100
AcDbEntity
  8
LAY-2
  6
CONTINUOUS
 62
     2
100
AcDbLine
 10
238.764338
 20
378.075
 30
0.0
 11
240.917831
 21
378.075
 31
0.0
  0
LINE
  5
DB
100
AcDbEntity
  8
LAY-2
  6
CONTINUOUS
 62
     2
100
AcDbLine
 10
243.7
 20
378.075
 30
0.0
 11
246.25
 21
378.075
 31
0.0
  0
LINE
  5
DC
100
AcDbEntity
  8
LAY-2
  6
CONTINUOUS
 62
     2
100
AcDbLine
 10
194.2
 20
377.7
 30
0.0
 11
196.825
 21
377.7
 31
0.0
  0
LINE
  5
DD
100
AcDbEntity
  8
LAY-2
  6
CONTINUOUS
 62
     2
100
AcDbLine
 10
199.892792
 20
377.7
 30
0.0
 11
202.668847
 21
377.7
 31
0.0
  0
LINE
  5
DE
100
AcDbEntity
  8
LAY-2
  6
CONTINUOUS
 62
     2
100
AcDbLine
 10
204.018883
 20
377.7
 30
0.0
 11
211.381117
 21
377.7
 31
0.0
  0
LINE
  5
DF
100
AcDbEntity
  8
LAY-2
  6
CONTINUOUS
 62
     2
100
AcDbLine
 10
212.731153
 20
377.7
 30
0.0
 11
215.507208
 21
377.7
 31
0.0
  0
LINE
  5
E0
100
AcDbEntity
  8
LAY-2
  6
CONTINUOUS
 62
     2
100
AcDbLine
 10
219.205032
 20
377.7
 30
0.0
 11
222.097752
 21
377.7
 31
0.0
  0
LINE
  5
E1
100
AcDbEntity
  8
LAY-2
  6
CONTINUOUS
 62
     2
100
AcDbLine
 10
224.725
 20
377.7
 30
0.0
 11
227.35
 21
377.7
 31
0.0
  0
LINE
  5
E2
100
AcDbEntity
  8
LAY-2
  6
CONTINUOUS
 62
     2
100
AcDbLine
 10
235.9
 20
377.7
 30
0.0
 11
238.45
 21
377.7
 31
0.0
  0
LINE
  5
E3
100
AcDbEntity
  8
LAY-2
  6
CONTINUOUS
 62
     2
100
AcDbLine
 10
239.011121
 20
377.7
 30
0.0
 11
241.164614
 21
377.7
 31
0.0
  0
LINE
  5
E4
100
AcDbEntity
  8
LAY-2
  6
CONTINUOUS
 62
     2
100
AcDbLine
 10
243.7
 20
377.7
 30
0.0
 11
246.25
 21
377.7
 31
0.0
  0
LINE
  5
E5
100
AcDbEntity
  8
LAY-2
  6
CONTINUOUS
 62
     2
100
AcDbLine
 10
194.2
 20
377.325
 30
0.0
 11
196.825
 21
377.325
 31
0.0
  0
LINE
  5
E6
100
AcDbEntity
  8
LAY-2
  6
CONTINUOUS
 62
     2
100
AcDbLine
 10
199.830002
 20
377.325
 30
0.0
 11
202.571952
 21
377.325
 31
0.0
  0
LINE
  5
E7
100
AcDbEntity
  8
LAY-2
  6
CONTINUOUS
 62
     2
100
AcDbLine
 10
203.88752
 20
377.325
 30
0.0
 11
211.51248
 21
377.325
 31
0.0
  0
LINE
  5
E8
100
AcDbEntity
  8
LAY-2
  6
CONTINUOUS
 62
     2
100
AcDbLine
 10
212.828048
 20
377.325
 30
0.0
 11
215.569998
 21
377.325
 31
0.0
  0
LINE
  5
E9
100
AcDbEntity
  8
LAY-2
  6
CONTINUOUS
 62
     2
100
AcDbLine
 10
218.86697
 20
377.325
 30
0.0
 11
221.75969
 21
377.325
 31
0.0
  0
LINE
  5
EA
100
AcDbEntity
  8
LAY-2
  6
CONTINUOUS
 62
     2
100
AcDbLine
 10
224.725
 20
377.325
 30
0.0
 11
234.775
 21
377.325
 31
0.0
  0
LINE
  5
EB
100
AcDbEntity
  8
LAY-2
  6
CONTINUOUS
 62
     2
100
AcDbLine
 10
235.9
 20
377.325
 30
0.0
 11
238.45
 21
377.325
 31
0.0
  0
LINE
  5
EC
100
AcDbEntity
  8
LAY-2
  6
CONTINUOUS
 62
     2
100
AcDbLine
 10
239.257904
 20
377.325
 30
0.0
 11
241.411397
 21
377.325
 31
0.0
  0
LINE
  5
ED
100
AcDbEntity
  8
LAY-2
  6
CONTINUOUS
 62
     2
100
AcDbLine
 10
243.7
 20
377.325
 30
0.0
 11
246.25
 21
377.325
 31
0.0
  0
LINE
  5
EE
100
AcDbEntity
  8
LAY-2
  6
CONTINUOUS
 62
     2
100
AcDbLine
 10
194.2
 20
376.95
 30
0.0
 11
196.825
 21
376.95
 31
0.0
  0
LINE
  5
EF
100
AcDbEntity
  8
LAY-2
  6
CONTINUOUS
 62
     2
100
AcDbLine
 10
199.785456
 20
376.95
 30
0.0
 11
202.503848
 21
376.95
 31
0.0
  0
LINE
  5
F0
100
AcDbEntity
  8
LAY-2
  6
CONTINUOUS
 62
     2
100
AcDbLine
 10
203.796396
 20
376.95
 30
0.0
 11
211.603604
 21
376.95
 31
0.0
  0
LINE
  5
F1
100
AcDbEntity
  8
LAY-2
  6
CONTINUOUS
 62
     2
100
AcDbLine
 10
212.896152
 20
376.95
 30
0.0
 11
215.614544
 21
376.95
 31
0.0
  0
LINE
  5
F2
100
AcDbEntity
  8
LAY-2
  6
CONTINUOUS
 62
     2
100
AcDbLine
 10
218.528908
 20
376.95
 30
0.0
 11
221.421627
 21
376.95
 31
0.0
  0
LINE
  5
F3
100
AcDbEntity
  8
LAY-2
  6
CONTINUOUS
 62
     2
100
AcDbLine
 10
224.725
 20
376.95
 30
0.0
 11
234.775
 21
376.95
 31
0.0
  0
LINE
  5
F4
100
AcDbEntity
  8
LAY-2
  6
CONTINUOUS
 62
     2
100
AcDbLine
 10
235.9
 20
376.95
 30
0.0
 11
238.45
 21
376.95
 31
0.0
  0
LINE
  5
F5
100
AcDbEntity
  8
LAY-2
  6
CONTINUOUS
 62
     2
100
AcDbLine
 10
239.504687
 20
376.95
 30
0.0
 11
241.65818
 21
376.95
 31
0.0
  0
LINE
  5
F6
100
AcDbEntity
  8
LAY-2
  6
CONTINUOUS
 62
     2
100
AcDbLine
 10
243.7
 20
376.95
 30
0.0
 11
246.25
 21
376.95
 31
0.0
  0
LINE
  5
F7
100
AcDbEntity
  8
LAY-2
  6
CONTINUOUS
 62
     2
100
AcDbLine
 10
194.2
 20
376.575
 30
0.0
 11
196.825
 21
376.575
 31
0.0
  0
LINE
  5
F8
100
AcDbEntity
  8
LAY-2
  6
CONTINUOUS
 62
     2
100
AcDbLine
 10
199.758849
 20
376.575
 30
0.0
 11
202.46341
 21
376.575
 31
0.0
  0
LINE
  5
F9
100
AcDbEntity
  8
LAY-2
  6
CONTINUOUS
 62
     2
100
AcDbLine
 10
203.742728
 20
376.575
 30
0.0
 11
211.657272
 21
376.575
 31
0.0
  0
LINE
  5
FA
100
AcDbEntity
  8
LAY-2
  6
CONTINUOUS
 62
     2
100
AcDbLine
 10
212.93659
 20
376.575
 30
0.0
 11
215.641151
 21
376.575
 31
0.0
  0
LINE
  5
FB
100
AcDbEntity
  8
LAY-2
  6
CONTINUOUS
 62
     2
100
AcDbLine
 10
218.190846
 20
376.575
 30
0.0
 11
221.083565
 21
376.575
 31
0.0
  0
LINE
  5
FC
100
AcDbEntity
  8
LAY-2
  6
CONTINUOUS
 62
     2
100
AcDbLine
 10
224.725
 20
376.575
 30
0.0
 11
234.775
 21
376.575
 31
0.0
  0
LINE
  5
FD
100
AcDbEntity
  8
LAY-2
  6
CONTINUOUS
 62
     2
100
AcDbLine
 10
235.9
 20
376.575
 30
0.0
 11
238.45
 21
376.575
 31
0.0
  0
LINE
  5
FE
100
AcDbEntity
  8
LAY-2
  6
CONTINUOUS
 62
     2
100
AcDbLine
 10
239.751471
 20
376.575
 30
0.0
 11
241.904963
 21
376.575
 31
0.0
  0
LINE
  5
FF
100
AcDbEntity
  8
LAY-2
  6
CONTINUOUS
 62
     2
100
AcDbLine
 10
243.7
 20
376.575
 30
0.0
 11
246.25
 21
376.575
 31
0.0
  0
LINE
  5
100
100
AcDbEntity
  8
LAY-2
  6
CONTINUOUS
 62
     2
100
AcDbLine
 10
194.2
 20
376.2
 30
0.0
 11
196.825
 21
376.2
 31
0.0
  0
LINE
  5
101
100
AcDbEntity
  8
LAY-2
  6
CONTINUOUS
 62
     2
100
AcDbLine
 10
199.75
 20
376.2
 30
0.0
 11
202.45
 21
376.2
 31
0.0
  0
LINE
  5
102
100
AcDbEntity
  8
LAY-2
  6
CONTINUOUS
 62
     2
100
AcDbLine
 10
203.725
 20
376.2
 30
0.0
 11
211.675
 21
376.2
 31
0.0
  0
LINE
  5
103
100
AcDbEntity
  8
LAY-2
  6
CONTINUOUS
 62
     2
100
AcDbLine
 10
212.95
 20
376.2
 30
0.0
 11
215.65
 21
376.2
 31
0.0
  0
LINE
  5
104
100
AcDbEntity
  8
LAY-2
  6
CONTINUOUS
 62
     2
100
AcDbLine
 10
217.852784
 20
376.2
 30
0.0
 11
220.745503
 21
376.2
 31
0.0
  0
LINE
  5
105
100
AcDbEntity
  8
LAY-2
  6
CONTINUOUS
 62
     2
100
AcDbLine
 10
224.725
 20
376.2
 30
0.0
 11
234.775
 21
376.2
 31
0.0
  0
LINE
  5
106
100
AcDbEntity
  8
LAY-2
  6
CONTINUOUS
 62
     2
100
AcDbLine
 10
235.9
 20
376.2
 30
0.0
 11
238.45
 21
376.2
 31
0.0
  0
LINE
  5
107
100
AcDbEntity
  8
LAY-2
  6
CONTINUOUS
 62
     2
100
AcDbLine
 10
239.998254
 20
376.2
 30
0.0
 11
242.151746
 21
376.2
 31
0.0
  0
LINE
  5
108
100
AcDbEntity
  8
LAY-2
  6
CONTINUOUS
 62
     2
100
AcDbLine
 10
243.7
 20
376.2
 30
0.0
 11
246.25
 21
376.2
 31
0.0
  0
LINE
  5
109
100
AcDbEntity
  8
LAY-2
  6
CONTINUOUS
 62
     2
100
AcDbLine
 10
194.2
 20
375.825
 30
0.0
 11
196.825
 21
375.825
 31
0.0
  0
LINE
  5
10A
100
AcDbEntity
  8
LAY-2
  6
CONTINUOUS
 62
     2
100
AcDbLine
 10
199.758849
 20
375.825
 30
0.0
 11
202.46341
 21
375.825
 31
0.0
  0
LINE
  5
10B
100
AcDbEntity
  8
LAY-2
  6
CONTINUOUS
 62
     2
100
AcDbLine
 10
203.742728
 20
375.825
 30
0.0
 11
211.657272
 21
375.825
 31
0.0
  0
LINE
  5
10C
100
AcDbEntity
  8
LAY-2
  6
CONTINUOUS
 62
     2
100
AcDbLine
 10
212.93659
 20
375.825
 30
0.0
 11
215.641151
 21
375.825
 31
0.0
  0
LINE
  5
10D
100
AcDbEntity
  8
LAY-2
  6
CONTINUOUS
 62
     2
100
AcDbLine
 10
217.514722
 20
375.825
 30
0.0
 11
220.407441
 21
375.825
 31
0.0
  0
LINE
  5
10E
100
AcDbEntity
  8
LAY-2
  6
CONTINUOUS
 62
     2
100
AcDbLine
 10
224.725
 20
375.825
 30
0.0
 11
234.775
 21
375.825
 31
0.0
  0
LINE
  5
10F
100
AcDbEntity
  8
LAY-2
  6
CONTINUOUS
 62
     2
100
AcDbLine
 10
235.9
 20
375.825
 30
0.0
 11
238.45
 21
375.825
 31
0.0
  0
LINE
  5
110
100
AcDbEntity
  8
LAY-2
  6
CONTINUOUS
 62
     2
100
AcDbLine
 10
240.245037
 20
375.825
 30
0.0
 11
242.398529
 21
375.825
 31
0.0
  0
LINE
  5
111
100
AcDbEntity
  8
LAY-2
  6
CONTINUOUS
 62
     2
100
AcDbLine
 10
243.7
 20
375.825
 30
0.0
 11
246.25
 21
375.825
 31
0.0
  0
LINE
  5
112
100
AcDbEntity
  8
LAY-2
  6
CONTINUOUS
 62
     2
100
AcDbLine
 10
194.2
 20
375.45
 30
0.0
 11
196.825
 21
375.45
 31
0.0
  0
LINE
  5
113
100
AcDbEntity
  8
LAY-2
  6
CONTINUOUS
 62
     2
100
AcDbLine
 10
199.785456
 20
375.45
 30
0.0
 11
202.503848
 21
375.45
 31
0.0
  0
LINE
  5
114
100
AcDbEntity
  8
LAY-2
  6
CONTINUOUS
 62
     2
100
AcDbLine
 10
203.796396
 20
375.45
 30
0.0
 11
211.603604
 21
375.45
 31
0.0
  0
LINE
  5
115
100
AcDbEntity
  8
LAY-2
  6
CONTINUOUS
 62
     2
100
AcDbLine
 10
212.896152
 20
375.45
 30
0.0
 11
215.614544
 21
375.45
 31
0.0
  0
LINE
  5
116
100
AcDbEntity
  8
LAY-2
  6
CONTINUOUS
 62
     2
100
AcDbLine
 10
217.17666
 20
375.45
 30
0.0
 11
220.069379
 21
375.45
 31
0.0
  0
LINE
  5
117
100
AcDbEntity
  8
LAY-2
  6
CONTINUOUS
 62
     2
100
AcDbLine
 10
224.725
 20
375.45
 30
0.0
 11
234.775
 21
375.45
 31
0.0
  0
LINE
  5
118
100
AcDbEntity
  8
LAY-2
  6
CONTINUOUS
 62
     2
100
AcDbLine
 10
235.9
 20
375.45
 30
0.0
 11
238.45
 21
375.45
 31
0.0
  0
LINE
  5
119
100
AcDbEntity
  8
LAY-2
  6
CONTINUOUS
 62
     2
100
AcDbLine
 10
240.49182
 20
375.45
 30
0.0
 11
242.645312
 21
375.45
 31
0.0
  0
LINE
  5
11A
100
AcDbEntity
  8
LAY-2
  6
CONTINUOUS
 62
     2
100
AcDbLine
 10
243.7
 20
375.45
 30
0.0
 11
246.25
 21
375.45
 31
0.0
  0
LINE
  5
11B
100
AcDbEntity
  8
LAY-2
  6
CONTINUOUS
 62
     2
100
AcDbLine
 10
194.2
 20
375.075
 30
0.0
 11
196.825
 21
375.075
 31
0.0
  0
LINE
  5
11C
100
AcDbEntity
  8
LAY-2
  6
CONTINUOUS
 62
     2
100
AcDbLine
 10
199.830002
 20
375.075
 30
0.0
 11
202.571952
 21
375.075
 31
0.0
  0
LINE
  5
11D
100
AcDbEntity
  8
LAY-2
  6
CONTINUOUS
 62
     2
100
AcDbLine
 10
203.88752
 20
375.075
 30
0.0
 11
211.51248
 21
375.075
 31
0.0
  0
LINE
  5
11E
100
AcDbEntity
  8
LAY-2
  6
CONTINUOUS
 62
     2
100
AcDbLine
 10
212.828048
 20
375.075
 30
0.0
 11
215.569998
 21
375.075
 31
0.0
  0
LINE
  5
11F
100
AcDbEntity
  8
LAY-2
  6
CONTINUOUS
 62
     2
100
AcDbLine
 10
216.838597
 20
375.075
 30
0.0
 11
219.731317
 21
375.075
 31
0.0
  0
LINE
  5
120
100
AcDbEntity
  8
LAY-2
  6
CONTINUOUS
 62
     2
100
AcDbLine
 10
224.725
 20
375.075
 30
0.0
 11
227.35
 21
375.075
 31
0.0
  0
LINE
  5
121
100
AcDbEntity
  8
LAY-2
  6
CONTINUOUS
 62
     2
100
AcDbLine
 10
235.9
 20
375.075
 30
0.0
 11
238.45
 21
375.075
 31
0.0
  0
LINE
  5
122
100
AcDbEntity
  8
LAY-2
  6
CONTINUOUS
 62
     2
100
AcDbLine
 10
240.738603
 20
375.075
 30
0.0
 11
242.892096
 21
375.075
 31
0.0
  0
LINE
  5
123
100
AcDbEntity
  8
LAY-2
  6
CONTINUOUS
 62
     2
100
AcDbLine
 10
243.7
 20
375.075
 30
0.0
 11
246.25
 21
375.075
 31
0.0
  0
LINE
  5
124
100
AcDbEntity
  8
LAY-2
  6
CONTINUOUS
 62
     2
100
AcDbLine
 10
194.2
 20
374.7
 30
0.0
 11
196.825
 21
374.7
 31
0.0
  0
LINE
  5
125
100
AcDbEntity
  8
LAY-2
  6
CONTINUOUS
 62
     2
100
AcDbLine
 10
199.892792
 20
374.7
 30
0.0
 11
202.668847
 21
374.7
 31
0.0
  0
LINE
  5
126
100
AcDbEntity
  8
LAY-2
  6
CONTINUOUS
 62
     2
100
AcDbLine
 10
204.018883
 20
374.7
 30
0.0
 11
211.381117
 21
374.7
 31
0.0
  0
LINE
  5
127
100
AcDbEntity
  8
LAY-2
  6
CONTINUOUS
 62
     2
100
AcDbLine
 10
212.731153
 20
374.7
 30
0.0
 11
215.507208
 21
374.7
 31
0.0
  0
LINE
  5
128
100
AcDbEntity
  8
LAY-2
  6
CONTINUOUS
 62
     2
100
AcDbLine
 10
216.500535
 20
374.7
 30
0.0
 11
219.393255
 21
374.7
 31
0.0
  0
LINE
  5
129
100
AcDbEntity
  8
LAY-2
  6
CONTINUOUS
 62
     2
100
AcDbLine
 10
224.725
 20
374.7
 30
0.0
 11
227.35
 21
374.7
 31
0.0
  0
LINE
  5
12A
100
AcDbEntity
  8
LAY-2
  6
CONTINUOUS
 62
     2
100
AcDbLine
 10
235.9
 20
374.7
 30
0.0
 11
238.45
 21
374.7
 31
0.0
  0
LINE
  5
12B
100
AcDbEntity
  8
LAY-2
  6
CONTINUOUS
 62
     2
100
AcDbLine
 10
240.985386
 20
374.7
 30
0.0
 11
243.138879
 21
374.7
 31
0.0
  0
LINE
  5
12C
100
AcDbEntity
  8
LAY-2
  6
CONTINUOUS
 62
     2
100
AcDbLine
 10
243.7
 20
374.7
 30
0.0
 11
246.25
 21
374.7
 31
0.0
  0
LINE
  5
12D
100
AcDbEntity
  8
LAY-2
  6
CONTINUOUS
 62
     2
100
AcDbLine
 10
194.2
 20
374.325
 30
0.0
 11
196.825
 21
374.325
 31
0.0
  0
LINE
  5
12E
100
AcDbEntity
  8
LAY-2
  6
CONTINUOUS
 62
     2
100
AcDbLine
 10
199.974272
 20
374.325
 30
0.0
 11
202.796239
 21
374.325
 31
0.0
  0
LINE
  5
12F
100
AcDbEntity
  8
LAY-2
  6
CONTINUOUS
 62
     2
100
AcDbLine
 10
204.195004
 20
374.325
 30
0.0
 11
211.204996
 21
374.325
 31
0.0
  0
LINE
  5
130
100
AcDbEntity
  8
LAY-2
  6
CONTINUOUS
 62
     2
100
AcDbLine
 10
212.603761
 20
374.325
 30
0.0
 11
215.425728
 21
374.325
 31
0.0
  0
LINE
  5
131
100
AcDbEntity
  8
LAY-2
  6
CONTINUOUS
 62
     2
100
AcDbLine
 10
216.218534
 20
374.325
 30
0.0
 11
219.055193
 21
374.325
 31
0.0
  0
LINE
  5
132
100
AcDbEntity
  8
LAY-2
  6
CONTINUOUS
 62
     2
100
AcDbLine
 10
224.725
 20
374.325
 30
0.0
 11
227.35
 21
374.325
 31
0.0
  0
LINE
  5
133
100
AcDbEntity
  8
LAY-2
  6
CONTINUOUS
 62
     2
100
AcDbLine
 10
235.9
 20
374.325
 30
0.0
 11
238.45
 21
374.325
 31
0.0
  0
LINE
  5
134
100
AcDbEntity
  8
LAY-2
  6
CONTINUOUS
 62
     2
100
AcDbLine
 10
241.232169
 20
374.325
 30
0.0
 11
243.385662
 21
374.325
 31
0.0
  0
LINE
  5
135
100
AcDbEntity
  8
LAY-2
  6
CONTINUOUS
 62
     2
100
AcDbLine
 10
243.7
 20
374.325
 30
0.0
 11
246.25
 21
374.325
 31
0.0
  0
LINE
  5
136
100
AcDbEntity
  8
LAY-2
  6
CONTINUOUS
 62
     2
100
AcDbLine
 10
194.2
 20
373.95
 30
0.0
 11
196.825
 21
373.95
 31
0.0
  0
LINE
  5
137
100
AcDbEntity
  8
LAY-2
  6
CONTINUOUS
 62
     2
100
AcDbLine
 10
200.075041
 20
373.95
 30
0.0
 11
202.956584
 21
373.95
 31
0.0
  0
LINE
  5
138
100
AcDbEntity
  8
LAY-2
  6
CONTINUOUS
 62
     2
100
AcDbLine
 10
204.423092
 20
373.95
 30
0.0
 11
210.976908
 21
373.95
 31
0.0
  0
LINE
  5
139
100
AcDbEntity
  8
LAY-2
  6
CONTINUOUS
 62
     2
100
AcDbLine
 10
212.443416
 20
373.95
 30
0.0
 11
215.324959
 21
373.95
 31
0.0
  0
LINE
  5
13A
100
AcDbEntity
  8
LAY-2
  6
CONTINUOUS
 62
     2
100
AcDbLine
 10
216.12725
 20
373.95
 30
0.0
 11
218.717131
 21
373.95
 31
0.0
  0
LINE
  5
13B
100
AcDbEntity
  8
LAY-2
  6
CONTINUOUS
 62
     2
100
AcDbLine
 10
224.725
 20
373.95
 30
0.0
 11
227.35
 21
373.95
 31
0.0
  0
LINE
  5
13C
100
AcDbEntity
  8
LAY-2
  6
CONTINUOUS
 62
     2
100
AcDbLine
 10
235.9
 20
373.95
 30
0.0
 11
238.45
 21
373.95
 31
0.0
  0
LINE
  5
13D
100
AcDbEntity
  8
LAY-2
  6
CONTINUOUS
 62
     2
100
AcDbLine
 10
241.478952
 20
373.95
 30
0.0
 11
243.632445
 21
373.95
 31
0.0
  0
LINE
  5
13E
100
AcDbEntity
  8
LAY-2
  6
CONTINUOUS
 62
     2
100
AcDbLine
 10
243.7
 20
373.95
 30
0.0
 11
246.25
 21
373.95
 31
0.0
  0
LINE
  5
13F
100
AcDbEntity
  8
LAY-2
  6
CONTINUOUS
 62
     2
100
AcDbLine
 10
194.2
 20
373.575
 30
0.0
 11
196.825
 21
373.575
 31
0.0
  0
LINE
  5
140
100
AcDbEntity
  8
LAY-2
  6
CONTINUOUS
 62
     2
100
AcDbLine
 10
200.195876
 20
373.575
 30
0.0
 11
203.153367
 21
373.575
 31
0.0
  0
LINE
  5
141
100
AcDbEntity
  8
LAY-2
  6
CONTINUOUS
 62
     2
100
AcDbLine
 10
204.715038
 20
373.575
 30
0.0
 11
210.684962
 21
373.575
 31
0.0
  0
LINE
  5
142
100
AcDbEntity
  8
LAY-2
  6
CONTINUOUS
 62
     2
100
AcDbLine
 10
212.246633
 20
373.575
 30
0.0
 11
215.204124
 21
373.575
 31
0.0
  0
LINE
  5
143
100
AcDbEntity
  8
LAY-2
  6
CONTINUOUS
 62
     2
100
AcDbLine
 10
216.018078
 20
373.575
 30
0.0
 11
218.379069
 21
373.575
 31
0.0
  0
LINE
  5
144
100
AcDbEntity
  8
LAY-2
  6
CONTINUOUS
 62
     2
100
AcDbLine
 10
224.725
 20
373.575
 30
0.0
 11
227.35
 21
373.575
 31
0.0
  0
LINE
  5
145
100
AcDbEntity
  8
LAY-2
  6
CONTINUOUS
 62
     2
100
AcDbLine
 10
235.9
 20
373.575
 30
0.0
 11
238.45
 21
373.575
 31
0.0
  0
LINE
  5
146
100
AcDbEntity
  8
LAY-2
  6
CONTINUOUS
 62
     2
100
AcDbLine
 10
241.725735
 20
373.575
 30
0.0
 11
246.25
 21
373.575
 31
0.0
  0
LINE
  5
147
100
AcDbEntity
  8
LAY-2
  6
CONTINUOUS
 62
     2
100
AcDbLine
 10
194.2
 20
373.2
 30
0.0
 11
196.825
 21
373.2
 31
0.0
  0
LINE
  5
148
100
AcDbEntity
  8
LAY-2
  6
CONTINUOUS
 62
     2
100
AcDbLine
 10
200.337765
 20
373.2
 30
0.0
 11
203.391578
 21
373.2
 31
0.0
  0
LINE
  5
149
100
AcDbEntity
  8
LAY-2
  6
CONTINUOUS
 62
     2
100
AcDbLine
 10
205.092199
 20
373.2
 30
0.0
 11
210.307801
 21
373.2
 31
0.0
  0
LINE
  5
14A
100
AcDbEntity
  8
LAY-2
  6
CONTINUOUS
 62
     2
100
AcDbLine
 10
212.008422
 20
373.2
 30
0.0
 11
215.062235
 21
373.2
 31
0.0
  0
LINE
  5
14B
100
AcDbEntity
  8
LAY-2
  6
CONTINUOUS
 62
     2
100
AcDbLine
 10
215.890302
 20
373.2
 30
0.0
 11
223.45
 21
373.2
 31
0.0
  0
LINE
  5
14C
100
AcDbEntity
  8
LAY-2
  6
CONTINUOUS
 62
     2
100
AcDbLine
 10
224.725
 20
373.2
 30
0.0
 11
234.775
 21
373.2
 31
0.0
  0
LINE
  5
14D
100
AcDbEntity
  8
LAY-2
  6
CONTINUOUS
 62
     2
100
AcDbLine
 10
235.9
 20
373.2
 30
0.0
 11
238.45
 21
373.2
 31
0.0
  0
LINE
  5
14E
100
AcDbEntity
  8
LAY-2
  6
CONTINUOUS
 62
     2
100
AcDbLine
 10
241.972518
 20
373.2
 30
0.0
 11
246.25
 21
373.2
 31
0.0
  0
LINE
  5
14F
100
AcDbEntity
  8
LAY-2
  6
CONTINUOUS
 62
     2
100
AcDbLine
 10
194.2
 20
372.825
 30
0.0
 11
196.825
 21
372.825
 31
0.0
  0
LINE
  5
150
100
AcDbEntity
  8
LAY-2
  6
CONTINUOUS
 62
     2
100
AcDbLine
 10
200.501953
 20
372.825
 30
0.0
 11
203.678573
 21
372.825
 31
0.0
  0
LINE
  5
151
100
AcDbEntity
  8
LAY-2
  6
CONTINUOUS
 62
     2
100
AcDbLine
 10
205.6
 20
372.825
 30
0.0
 11
209.8
 21
372.825
 31
0.0
  0
LINE
  5
152
100
AcDbEntity
  8
LAY-2
  6
CONTINUOUS
 62
     2
100
AcDbLine
 10
211.721427
 20
372.825
 30
0.0
 11
214.898047
 21
372.825
 31
0.0
  0
LINE
  5
153
100
AcDbEntity
  8
LAY-2
  6
CONTINUOUS
 62
     2
100
AcDbLine
 10
215.743036
 20
372.825
 30
0.0
 11
223.45
 21
372.825
 31
0.0
  0
LINE
  5
154
100
AcDbEntity
  8
LAY-2
  6
CONTINUOUS
 62
     2
100
AcDbLine
 10
224.725
 20
372.825
 30
0.0
 11
234.775
 21
372.825
 31
0.0
  0
LINE
  5
155
100
AcDbEntity
  8
LAY-2
  6
CONTINUOUS
 62
     2
100
AcDbLine
 10
235.9
 20
372.825
 30
0.0
 11
238.45
 21
372.825
 31
0.0
  0
LINE
  5
156
100
AcDbEntity
  8
LAY-2
  6
CONTINUOUS
 62
     2
100
AcDbLine
 10
242.219301
 20
372.825
 30
0.0
 11
246.25
 21
372.825
 31
0.0
  0
LINE
  5
157
100
AcDbEntity
  8
LAY-2
  6
CONTINUOUS
 62
     2
100
AcDbLine
 10
194.2
 20
372.45
 30
0.0
 11
196.825
 21
372.45
 31
0.0
  0
LINE
  5
158
100
AcDbEntity
  8
LAY-2
  6
CONTINUOUS
 62
     2
100
AcDbLine
 10
200.690007
 20
372.45
 30
0.0
 11
204.025765
 21
372.45
 31
0.0
  0
LINE
  5
159
100
AcDbEntity
  8
LAY-2
  6
CONTINUOUS
 62
     2
100
AcDbLine
 10
206.38162
 20
372.45
 30
0.0
 11
209.01838
 21
372.45
 31
0.0
  0
LINE
  5
15A
100
AcDbEntity
  8
LAY-2
  6
CONTINUOUS
 62
     2
100
AcDbLine
 10
211.374235
 20
372.45
 30
0.0
 11
214.709993
 21
372.45
 31
0.0
  0
LINE
  5
15B
100
AcDbEntity
  8
LAY-2
  6
CONTINUOUS
 62
     2
100
AcDbLine
 10
215.575186
 20
372.45
 30
0.0
 11
223.45
 21
372.45
 31
0.0
  0
LINE
  5
15C
100
AcDbEntity
  8
LAY-2
  6
CONTINUOUS
 62
     2
100
AcDbLine
 10
224.725
 20
372.45
 30
0.0
 11
234.775
 21
372.45
 31
0.0
  0
LINE
  5
15D
100
AcDbEntity
  8
LAY-2
  6
CONTINUOUS
 62
     2
100
AcDbLine
 10
235.9
 20
372.45
 30
0.0
 11
238.45
 21
372.45
 31
0.0
  0
LINE
  5
15E
100
AcDbEntity
  8
LAY-2
  6
CONTINUOUS
 62
     2
100
AcDbLine
 10
242.466085
 20
372.45
 30
0.0
 11
246.25
 21
372.45
 31
0.0
  0
LINE
  5
15F
100
AcDbEntity
  8
LAY-2
  6
CONTINUOUS
 62
     2
100
AcDbLine
 10
194.2
 20
372.075
 30
0.0
 11
196.825
 21
372.075
 31
0.0
  0
LINE
  5
160
100
AcDbEntity
  8
LAY-2
  6
CONTINUOUS
 62
     2
100
AcDbLine
 10
200.903907
 20
372.075
 30
0.0
 11
204.452405
 21
372.075
 31
0.0
  0
LINE
  5
161
100
AcDbEntity
  8
LAY-2
  6
CONTINUOUS
 62
     2
100
AcDbLine
 10
210.947595
 20
372.075
 30
0.0
 11
214.496093
 21
372.075
 31
0.0
  0
LINE
  5
162
100
AcDbEntity
  8
LAY-2
  6
CONTINUOUS
 62
     2
100
AcDbLine
 10
215.385403
 20
372.075
 30
0.0
 11
223.45
 21
372.075
 31
0.0
  0
LINE
  5
163
100
AcDbEntity
  8
LAY-2
  6
CONTINUOUS
 62
     2
100
AcDbLine
 10
224.725
 20
372.075
 30
0.0
 11
234.775
 21
372.075
 31
0.0
  0
LINE
  5
164
100
AcDbEntity
  8
LAY-2
  6
CONTINUOUS
 62
     2
100
AcDbLine
 10
235.9
 20
372.075
 30
0.0
 11
238.45
 21
372.075
 31
0.0
  0
LINE
  5
165
100
AcDbEntity
  8
LAY-2
  6
CONTINUOUS
 62
     2
100
AcDbLine
 10
242.712868
 20
372.075
 30
0.0
 11
246.25
 21
372.075
 31
0.0
  0
LINE
  5
166
100
AcDbEntity
  8
LAY-2
  6
CONTINUOUS
 62
     2
100
AcDbLine
 10
194.2
 20
371.7
 30
0.0
 11
196.825
 21
371.7
 31
0.0
  0
LINE
  5
167
100
AcDbEntity
  8
LAY-2
  6
CONTINUOUS
 62
     2
100
AcDbLine
 10
201.146184
 20
371.7
 30
0.0
 11
204.995837
 21
371.7
 31
0.0
  0
LINE
  5
168
100
AcDbEntity
  8
LAY-2
  6
CONTINUOUS
 62
     2
100
AcDbLine
 10
210.404163
 20
371.7
 30
0.0
 11
214.253816
 21
371.7
 31
0.0
  0
LINE
  5
169
100
AcDbEntity
  8
LAY-2
  6
CONTINUOUS
 62
     2
100
AcDbLine
 10
215.172018
 20
371.7
 30
0.0
 11
223.45
 21
371.7
 31
0.0
  0
LINE
  5
16A
100
AcDbEntity
  8
LAY-2
  6
CONTINUOUS
 62
     2
100
AcDbLine
 10
224.725
 20
371.7
 30
0.0
 11
234.775
 21
371.7
 31
0.0
  0
LINE
  5
16B
100
AcDbEntity
  8
LAY-2
  6
CONTINUOUS
 62
     2
100
AcDbLine
 10
235.9
 20
371.7
 30
0.0
 11
238.45
 21
371.7
 31
0.0
  0
LINE
  5
16C
100
AcDbEntity
  8
LAY-2
  6
CONTINUOUS
 62
     2
100
AcDbLine
 10
242.959651
 20
371.7
 30
0.0
 11
246.25
 21
371.7
 31
0.0
  0
LINE
  5
16D
100
AcDbEntity
  8
LAY-2
  6
CONTINUOUS
 62
     2
100
AcDbLine
 10
194.2
 20
371.325
 30
0.0
 11
196.825
 21
371.325
 31
0.0
  0
LINE
  5
16E
100
AcDbEntity
  8
LAY-2
  6
CONTINUOUS
 62
     2
100
AcDbLine
 10
201.420121
 20
371.325
 30
0.0
 11
205.751443
 21
371.325
 31
0.0
  0
LINE
  5
16F
100
AcDbEntity
  8
LAY-2
  6
CONTINUOUS
 62
     2
100
AcDbLine
 10
209.648557
 20
371.325
 30
0.0
 11
213.979879
 21
371.325
 31
0.0
  0
LINE
  5
170
100
AcDbEntity
  8
LAY-2
  6
CONTINUOUS
 62
     2
100
AcDbLine
 10
214.93294
 20
371.325
 30
0.0
 11
223.45
 21
371.325
 31
0.0
  0
LINE
  5
171
100
AcDbEntity
  8
LAY-2
  6
CONTINUOUS
 62
     2
100
AcDbLine
 10
224.725
 20
371.325
 30
0.0
 11
234.775
 21
371.325
 31
0.0
  0
LINE
  5
172
100
AcDbEntity
  8
LAY-2
  6
CONTINUOUS
 62
     2
100
AcDbLine
 10
235.9
 20
371.325
 30
0.0
 11
238.45
 21
371.325
 31
0.0
  0
LINE
  5
173
100
AcDbEntity
  8
LAY-2
  6
CONTINUOUS
 62
     2
100
AcDbLine
 10
243.206434
 20
371.325
 30
0.0
 11
246.25
 21
371.325
 31
0.0
  0
LINE
  5
174
100
AcDbEntity
  8
LAY-2
  6
CONTINUOUS
 62
     2
100
AcDbLine
 10
194.2
 20
370.95
 30
0.0
 11
196.825
 21
370.95
 31
0.0
  0
LINE
  5
175
100
AcDbEntity
  8
LAY-2
  6
CONTINUOUS
 62
     2
100
AcDbLine
 10
201.730075
 20
370.95
 30
0.0
 11
213.669925
 21
370.95
 31
0.0
  0
LINE
  5
176
100
AcDbEntity
  8
LAY-2
  6
CONTINUOUS
 62
     2
100
AcDbLine
 10
214.665526
 20
370.95
 30
0.0
 11
223.45
 21
370.95
 31
0.0
  0
LINE
  5
177
100
AcDbEntity
  8
LAY-2
  6
CONTINUOUS
 62
     2
100
AcDbLine
 10
224.725
 20
370.95
 30
0.0
 11
234.775
 21
370.95
 31
0.0
  0
LINE
  5
178
100
AcDbEntity
  8
LAY-2
  6
CONTINUOUS
 62
     2
100
AcDbLine
 10
235.9
 20
370.95
 30
0.0
 11
238.45
 21
370.95
 31
0.0
  0
LINE
  5
179
100
AcDbEntity
  8
LAY-2
  6
CONTINUOUS
 62
     2
100
AcDbLine
 10
243.453217
 20
370.95
 30
0.0
 11
246.25
 21
370.95
 31
0.0
  0
LINE
  5
17A
100
AcDbEntity
  8
LAY-2
  6
CONTINUOUS
 62
     2
100
AcDbLine
 10
202.082004
 20
370.575
 30
0.0
 11
213.317996
 21
370.575
 31
0.0
  0
LINE
  5
17B
100
AcDbEntity
  8
LAY-2
  6
CONTINUOUS
 62
     2
100
AcDbLine
 10
202.484398
 20
370.2
 30
0.0
 11
212.915602
 21
370.2
 31
0.0
  0
LINE
  5
17C
100
AcDbEntity
  8
LAY-2
  6
CONTINUOUS
 62
     2
100
AcDbLine
 10
202.950066
 20
369.825
 30
0.0
 11
212.449934
 21
369.825
 31
0.0
  0
LINE
  5
17D
100
AcDbEntity
  8
LAY-2
  6
CONTINUOUS
 62
     2
100
AcDbLine
 10
203.5
 20
369.45
 30
0.0
 11
211.9
 21
369.45
 31
0.0
  0
LINE
  5
17E
100
AcDbEntity
  8
LAY-2
  6
CONTINUOUS
 62
     2
100
AcDbLine
 10
204.173405
 20
369.075
 30
0.0
 11
211.226595
 21
369.075
 31
0.0
  0
LINE
  5
17F
100
AcDbEntity
  8
LAY-2
  6
CONTINUOUS
 62
     2
100
AcDbLine
 10
205.063241
 20
368.7
 30
0.0
 11
210.336759
 21
368.7
 31
0.0
  0
LINE
  5
180
100
AcDbEntity
  8
LAY-2
  6
CONTINUOUS
 62
     2
100
AcDbLine
 10
206.610562
 20
368.325
 30
0.0
 11
208.789438
 21
368.325
 31
0.0
  0
LINE
  5
181
100
AcDbEntity
  8
LAY-2
  6
EXLTYPE3
 62
     1
100
AcDbLine
 10
97.35
 20
302.1
 30
0.0
 11
121.85
 21
302.1
 31
0.0
  0
LINE
  5
182
100
AcDbEntity
  8
LAY-2
  6
CONTINUOUS
 62
     3
100
AcDbLine
 10
102.45
 20
304.7
 30
0.0
 11
102.45
 21
299.5
 31
0.0
  0
LINE
  5
183
100
AcDbEntity
  8
LAY-2
  6
CONTINUOUS
 62
     3
100
AcDbLine
 10
116.45
 20
304.7
 30
0.0
 11
116.45
 21
299.5
 31
0.0
  0
LINE
  5
184
100
AcDbEntity
  8
LAY-2
  6
CONTINUOUS
 62
     3
100
AcDbLine
 10
102.75
 20
307.1
 30
0.0
 11
102.75
 21
297.1
 31
0.0
  0
LINE
  5
185
100
AcDbEntity
  8
LAY-2
  6
CONTINUOUS
 62
     3
100
AcDbLine
 10
116.15
 20
307.1
 30
0.0
 11
116.15
 21
297.1
 31
0.0
  0
LINE
  5
186
100
AcDbEntity
  8
LAY-2
  6
CONTINUOUS
 62
     3
100
AcDbLine
 10
102.75
 20
307.1
 30
0.0
 11
104.15
 21
307.1
 31
0.0
  0
LINE
  5
187
100
AcDbEntity
  8
LAY-2
  6
CONTINUOUS
 62
     3
100
AcDbLine
 10
102.75
 20
297.1
 30
0.0
 11
104.15
 21
297.1
 31
0.0
  0
LINE
  5
188
100
AcDbEntity
  8
LAY-2
  6
CONTINUOUS
 62
     3
100
AcDbLine
 10
114.75
 20
307.1
 30
0.0
 11
114.75
 21
297.1
 31
0.0
  0
LINE
  5
189
100
AcDbEntity
  8
LAY-2
  6
CONTINUOUS
 62
     3
100
AcDbLine
 10
104.15
 20
307.1
 30
0.0
 11
104.15
 21
297.1
 31
0.0
  0
LINE
  5
18A
100
AcDbEntity
  8
LAY-2
  6
CONTINUOUS
 62
     3
100
AcDbLine
 10
114.75
 20
307.1
 30
0.0
 11
116.15
 21
307.1
 31
0.0
  0
LINE
  5
18B
100
AcDbEntity
  8
LAY-2
  6
CONTINUOUS
 62
     3
100
AcDbLine
 10
114.75
 20
297.1
 30
0.0
 11
116.15
 21
297.1
 31
0.0
  0
LINE
  5
18C
100
AcDbEntity
  8
LAY-2
  6
CONTINUOUS
 62
     3
100
AcDbLine
 10
113.569587
 20
304.288137
 30
0.0
 11
114.75
 21
304.35
 31
0.0
  0
LINE
  5
18D
100
AcDbEntity
  8
LAY-2
  6
CONTINUOUS
 62
     3
100
AcDbLine
 10
105.330657
 20
304.288124
 30
0.0
 11
104.15
 21
304.35
 31
0.0
  0
ARC
  5
18E
100
AcDbEntity
  8
LAY-2
  6
CONTINUOUS
 62
     3
100
AcDbCircle
 10
109.450129
 20
302.292839
 30
0.0
 40
3.507161
100
AcDbArc
 50
48.396101
 51
131.604082
  0
ARC
  5
18F
100
AcDbEntity
  8
LAY-2
  6
CONTINUOUS
 62
     3
100
AcDbCircle
 10
113.438747
 20
306.784711
 30
0.0
 40
2.5
100
AcDbArc
 50
228.396101
 51
273.0
  0
ARC
  5
190
100
AcDbEntity
  8
LAY-2
  6
CONTINUOUS
 62
     3
100
AcDbCircle
 10
105.461497
 20
306.784698
 30
0.0
 40
2.5
100
AcDbArc
 50
267.0
 51
311.604082
  0
LINE
  5
191
100
AcDbEntity
  8
LAY-2
  6
CONTINUOUS
 62
     3
100
AcDbLine
 10
105.330413
 20
299.911863
 30
0.0
 11
104.15
 21
299.85
 31
0.0
  0
ARC
  5
192
100
AcDbEntity
  8
LAY-2
  6
CONTINUOUS
 62
     3
100
AcDbCircle
 10
105.461253
 20
297.415289
 30
0.0
 40
2.5
100
AcDbArc
 50
48.396101
 51
93.0
  0
LINE
  5
193
100
AcDbEntity
  8
LAY-2
  6
CONTINUOUS
 62
     3
100
AcDbLine
 10
113.569343
 20
299.911876
 30
0.0
 11
114.75
 21
299.85
 31
0.0
  0
ARC
  5
194
100
AcDbEntity
  8
LAY-2
  6
CONTINUOUS
 62
     3
100
AcDbCircle
 10
109.449871
 20
301.907161
 30
0.0
 40
3.507161
100
AcDbArc
 50
228.396101
 51
311.604082
  0
ARC
  5
195
100
AcDbEntity
  8
LAY-2
  6
CONTINUOUS
 62
     3
100
AcDbCircle
 10
113.438503
 20
297.415302
 30
0.0
 40
2.5
100
AcDbArc
 50
87.0
 51
131.604082
  0
ARC
  5
196
100
AcDbEntity
  8
LAY-2
  6
CONTINUOUS
 62
     3
100
AcDbCircle
 10
102.75
 20
304.7
 30
0.0
 40
0.3
100
AcDbArc
 50
90.0
 51
180.0
  0
ARC
  5
197
100
AcDbEntity
  8
LAY-2
  6
CONTINUOUS
 62
     3
100
AcDbCircle
 10
102.75
 20
299.5
 30
0.0
 40
0.3
100
AcDbArc
 50
180.0
 51
270.0
  0
ARC
  5
198
100
AcDbEntity
  8
LAY-2
  6
CONTINUOUS
 62
     3
100
AcDbCircle
 10
116.15
 20
299.5
 30
0.0
 40
0.3
100
AcDbArc
 50
270.0
 51
0.0
  0
ARC
  5
199
100
AcDbEntity
  8
LAY-2
  6
CONTINUOUS
 62
     3
100
AcDbCircle
 10
116.15
 20
304.7
 30
0.0
 40
0.3
100
AcDbArc
 50
0.0
 51
90.0
  0
LINE
  5
19A
100
AcDbEntity
  8
LAY-2
  6
EXLTYPE3
 62
     1
100
AcDbLine
 10
205.65
 20
302.1
 30
0.0
 11
230.45
 21
302.1
 31
0.0
  0
LINE
  5
19B
100
AcDbEntity
  8
LAY-2
  6
CONTINUOUS
 62
     3
100
AcDbLine
 10
223.15
 20
308.35
 30
0.0
 11
223.15
 21
295.85
 31
0.0
  0
LINE
  5
19C
100
AcDbEntity
  8
LAY-2
  6
CONTINUOUS
 62
     3
100
AcDbLine
 10
221.75
 20
308.35
 30
0.0
 11
221.75
 21
295.85
 31
0.0
  0
LINE
  5
19D
100
AcDbEntity
  8
LAY-2
  6
CONTINUOUS
 62
     3
100
AcDbLine
 10
211.15
 20
308.35
 30
0.0
 11
211.15
 21
295.85
 31
0.0
  0
LINE
  5
19E
100
AcDbEntity
  8
LAY-2
  6
CONTINUOUS
 62
     3
100
AcDbLine
 10
209.75
 20
308.35
 30
0.0
 11
209.75
 21
295.85
 31
0.0
  0
LINE
  5
19F
100
AcDbEntity
  8
LAY-2
  6
CONTINUOUS
 62
     3
100
AcDbLine
 10
220.569587
 20
304.288137
 30
0.0
 11
221.75
 21
304.35
 31
0.0
  0
ARC
  5
1A0
100
AcDbEntity
  8
LAY-2
  6
CONTINUOUS
 62
     3
100
AcDbCircle
 10
220.438747
 20
306.784711
 30
0.0
 40
2.5
100
AcDbArc
 50
228.396101
 51
273.0
  0
LINE
  5
1A1
100
AcDbEntity
  8
LAY-2
  6
CONTINUOUS
 62
     3
100
AcDbLine
 10
212.330657
 20
304.288124
 30
0.0
 11
211.15
 21
304.35
 31
0.0
  0
ARC
  5
1A2
100
AcDbEntity
  8
LAY-2
  6
CONTINUOUS
 62
     3
100
AcDbCircle
 10
216.450129
 20
302.292839
 30
0.0
 40
3.507161
100
AcDbArc
 50
48.396101
 51
131.604082
  0
ARC
  5
1A3
100
AcDbEntity
  8
LAY-2
  6
CONTINUOUS
 62
     3
100
AcDbCircle
 10
212.461497
 20
306.784698
 30
0.0
 40
2.5
100
AcDbArc
 50
267.0
 51
311.604082
  0
LINE
  5
1A4
100
AcDbEntity
  8
LAY-2
  6
CONTINUOUS
 62
     3
100
AcDbLine
 10
212.330413
 20
299.911863
 30
0.0
 11
211.15
 21
299.85
 31
0.0
  0
ARC
  5
1A5
100
AcDbEntity
  8
LAY-2
  6
CONTINUOUS
 62
     3
100
AcDbCircle
 10
212.461253
 20
297.415289
 30
0.0
 40
2.5
100
AcDbArc
 50
48.396101
 51
93.0
  0
LINE
  5
1A6
100
AcDbEntity
  8
LAY-2
  6
CONTINUOUS
 62
     3
100
AcDbLine
 10
220.569343
 20
299.911876
 30
0.0
 11
221.75
 21
299.85
 31
0.0
  0
ARC
  5
1A7
100
AcDbEntity
  8
LAY-2
  6
CONTINUOUS
 62
     3
100
AcDbCircle
 10
216.449871
 20
301.907161
 30
0.0
 40
3.507161
100
AcDbArc
 50
228.396101
 51
311.604082
  0
ARC
  5
1A8
100
AcDbEntity
  8
LAY-2
  6
CONTINUOUS
 62
     3
100
AcDbCircle
 10
220.438503
 20
297.415302
 30
0.0
 40
2.5
100
AcDbArc
 50
87.0
 51
131.604082
  0
ARC
  5
1A9
100
AcDbEntity
  8
LAY-2
  6
CONTINUOUS
 62
     3
100
AcDbCircle
 10
209.75
 20
304.7
 30
0.0
 40
0.3
100
AcDbArc
 50
90.0
 51
180.0
  0
LINE
  5
1AA
100
AcDbEntity
  8
LAY-2
  6
CONTINUOUS
 62
     3
100
AcDbLine
 10
209.45
 20
304.7
 30
0.0
 11
209.45
 21
299.5
 31
0.0
  0
ARC
  5
1AB
100
AcDbEntity
  8
LAY-2
  6
CONTINUOUS
 62
     3
100
AcDbCircle
 10
209.75
 20
299.5
 30
0.0
 40
0.3
100
AcDbArc
 50
180.0
 51
270.0
  0
ARC
  5
1AC
100
AcDbEntity
  8
LAY-2
  6
CONTINUOUS
 62
     3
100
AcDbCircle
 10
223.15
 20
299.5
 30
0.0
 40
0.3
100
AcDbArc
 50
270.0
 51
0.0
  0
LINE
  5
1AD
100
AcDbEntity
  8
LAY-2
  6
CONTINUOUS
 62
     3
100
AcDbLine
 10
223.45
 20
304.7
 30
0.0
 11
223.45
 21
299.5
 31
0.0
  0
ARC
  5
1AE
100
AcDbEntity
  8
LAY-2
  6
CONTINUOUS
 62
     3
100
AcDbCircle
 10
223.15
 20
304.7
 30
0.0
 40
0.3
100
AcDbArc
 50
0.0
 51
90.0
  0
LINE
  5
1AF
100
AcDbEntity
  8
LAY-2
  6
CONTINUOUS
 62
     3
100
AcDbLine
 10
209.75
 20
308.35
 30
0.0
 11
211.15
 21
308.35
 31
0.0
  0
LINE
  5
1B0
100
AcDbEntity
  8
LAY-2
  6
CONTINUOUS
 62
     3
100
AcDbLine
 10
209.75
 20
295.85
 30
0.0
 11
211.15
 21
295.85
 31
0.0
  0
LINE
  5
1B1
100
AcDbEntity
  8
LAY-2
  6
CONTINUOUS
 62
     3
100
AcDbLine
 10
221.75
 20
295.85
 30
0.0
 11
223.15
 21
295.85
 31
0.0
  0
LINE
  5
1B2
100
AcDbEntity
  8
LAY-2
  6
CONTINUOUS
 62
     3
100
AcDbLine
 10
221.75
 20
308.35
 30
0.0
 11
223.15
 21
308.35
 31
0.0
  0
LINE
  5
1B3
100
AcDbEntity
  8
LAY-2
  6
EXLTYPE3
 62
     1
100
AcDbLine
 10
312.85
 20
302.1
 30
0.0
 11
336.15
 21
302.1
 31
0.0
  0
LINE
  5
1B4
100
AcDbEntity
  8
LAY-2
  6
CONTINUOUS
 62
     3
100
AcDbLine
 10
330.75
 20
298.4
 30
0.0
 11
330.75
 21
305.8
 31
0.0
  0
LINE
  5
1B5
100
AcDbEntity
  8
LAY-2
  6
CONTINUOUS
 62
     3
100
AcDbLine
 10
315.75
 20
298.4
 30
0.0
 11
315.75
 21
305.8
 31
0.0
  0
LINE
  5
1B6
100
AcDbEntity
  8
LAY-2
  6
CONTINUOUS
 62
     3
100
AcDbLine
 10
316.05
 20
295.3
 30
0.0
 11
316.05
 21
308.9
 31
0.0
  0
LINE
  5
1B7
100
AcDbEntity
  8
LAY-2
  6
CONTINUOUS
 62
     3
100
AcDbLine
 10
330.45
 20
295.3
 30
0.0
 11
330.45
 21
308.9
 31
0.0
  0
LINE
  5
1B8
100
AcDbEntity
  8
LAY-2
  6
CONTINUOUS
 62
     3
100
AcDbLine
 10
330.45
 20
295.3
 30
0.0
 11
328.85
 21
295.3
 31
0.0
  0
LINE
  5
1B9
100
AcDbEntity
  8
LAY-2
  6
CONTINUOUS
 62
     3
100
AcDbLine
 10
330.45
 20
308.9
 30
0.0
 11
328.85
 21
308.9
 31
0.0
  0
LINE
  5
1BA
100
AcDbEntity
  8
LAY-2
  6
CONTINUOUS
 62
     3
100
AcDbLine
 10
328.85
 20
295.3
 30
0.0
 11
328.85
 21
308.9
 31
0.0
  0
LINE
  5
1BB
100
AcDbEntity
  8
LAY-2
  6
CONTINUOUS
 62
     3
100
AcDbLine
 10
317.65
 20
295.3
 30
0.0
 11
317.65
 21
308.9
 31
0.0
  0
LINE
  5
1BC
100
AcDbEntity
  8
LAY-2
  6
CONTINUOUS
 62
     3
100
AcDbLine
 10
317.65
 20
295.3
 30
0.0
 11
316.05
 21
295.3
 31
0.0
  0
LINE
  5
1BD
100
AcDbEntity
  8
LAY-2
  6
CONTINUOUS
 62
     3
100
AcDbLine
 10
317.65
 20
308.9
 30
0.0
 11
316.05
 21
308.9
 31
0.0
  0
ARC
  5
1BE
100
AcDbEntity
  8
LAY-2
  6
CONTINUOUS
 62
     3
100
AcDbCircle
 10
330.45
 20
298.4
 30
0.0
 40
0.3
100
AcDbArc
 50
270.0
 51
0.0
  0
ARC
  5
1BF
100
AcDbEntity
  8
LAY-2
  6
CONTINUOUS
 62
     3
100
AcDbCircle
 10
330.45
 20
305.8
 30
0.0
 40
0.3
100
AcDbArc
 50
0.0
 51
90.0
  0
ARC
  5
1C0
100
AcDbEntity
  8
LAY-2
  6
CONTINUOUS
 62
     3
100
AcDbCircle
 10
316.05
 20
305.8
 30
0.0
 40
0.3
100
AcDbArc
 50
90.0
 51
180.0
  0
ARC
  5
1C1
100
AcDbEntity
  8
LAY-2
  6
CONTINUOUS
 62
     3
100
AcDbCircle
 10
316.05
 20
298.4
 30
0.0
 40
0.3
100
AcDbArc
 50
180.0
 51
270.0
  0
ARC
  5
1C2
100
AcDbEntity
  8
LAY-2
  6
CONTINUOUS
 62
     3
100
AcDbCircle
 10
323.269088
 20
304.118187
 30
0.0
 40
5.918223
100
AcDbArc
 50
300.244006
 51
300.386958
  0
LINE
  5
1C3
100
AcDbEntity
  8
LAY-2
  6
CONTINUOUS
 62
     3
100
AcDbLine
 10
327.591304
 20
305.034035
 30
0.0
 11
328.85
 21
305.1
 31
0.0
  0
LINE
  5
1C4
100
AcDbEntity
  8
LAY-2
  6
CONTINUOUS
 62
     3
100
AcDbLine
 10
319.123133
 20
305.022796
 30
0.0
 11
317.65
 21
305.1
 31
0.0
  0
LINE
  5
1C5
100
AcDbEntity
  8
LAY-2
  6
CONTINUOUS
 62
     3
100
AcDbLine
 10
324.980106
 20
306.369454
 30
0.0
 11
325.826415
 21
305.638551
 31
0.0
  0
ARC
  5
1C6
100
AcDbEntity
  8
LAY-2
  6
CONTINUOUS
 62
     3
100
AcDbCircle
 10
327.460464
 20
307.530608
 30
0.0
 40
2.5
100
AcDbArc
 50
229.184916
 51
273.0
  0
ARC
  5
1C7
100
AcDbEntity
  8
LAY-2
  6
CONTINUOUS
 62
     3
100
AcDbCircle
 10
323.285301
 20
304.407048
 30
0.0
 40
2.592952
100
AcDbArc
 50
49.184916
 51
142.330645
  0
ARC
  5
1C8
100
AcDbEntity
  8
LAY-2
  6
CONTINUOUS
 62
     3
100
AcDbCircle
 10
319.253973
 20
307.51937
 30
0.0
 40
2.5
100
AcDbArc
 50
267.0
 51
322.330645
  0
LINE
  5
1C9
100
AcDbEntity
  8
LAY-2
  6
CONTINUOUS
 62
     3
100
AcDbLine
 10
318.908696
 20
299.165965
 30
0.0
 11
317.65
 21
299.1
 31
0.0
  0
ARC
  5
1CA
100
AcDbEntity
  8
LAY-2
  6
CONTINUOUS
 62
     3
100
AcDbCircle
 10
319.039536
 20
296.669392
 30
0.0
 40
2.5
100
AcDbArc
 50
49.184916
 51
93.0
  0
LINE
  5
1CB
100
AcDbEntity
  8
LAY-2
  6
CONTINUOUS
 62
     3
100
AcDbLine
 10
321.519894
 20
297.830546
 30
0.0
 11
320.673585
 21
298.561449
 31
0.0
  0
LINE
  5
1CC
100
AcDbEntity
  8
LAY-2
  6
CONTINUOUS
 62
     3
100
AcDbLine
 10
327.376867
 20
299.177204
 30
0.0
 11
328.85
 21
299.1
 31
0.0
  0
ARC
  5
1CD
100
AcDbEntity
  8
LAY-2
  6
CONTINUOUS
 62
     3
100
AcDbCircle
 10
323.214699
 20
299.792952
 30
0.0
 40
2.592952
100
AcDbArc
 50
229.184916
 51
322.330645
  0
ARC
  5
1CE
100
AcDbEntity
  8
LAY-2
  6
CONTINUOUS
 62
     3
100
AcDbCircle
 10
327.246027
 20
296.68063
 30
0.0
 40
2.5
100
AcDbArc
 50
87.0
 51
142.330645
  0
LINE
  5
1CF
100
AcDbEntity
  8
LAY-2
  6
CONTINUOUS
 62
     3
100
AcDbLine
 10
435.25
 20
295.1
 30
0.0
 11
435.25
 21
309.1
 31
0.0
  0
LINE
  5
1D0
100
AcDbEntity
  8
LAY-2
  6
CONTINUOUS
 62
     3
100
AcDbLine
 10
436.85
 20
295.1
 30
0.0
 11
436.85
 21
309.1
 31
0.0
  0
ARC
  5
1D1
100
AcDbEntity
  8
LAY-2
  6
CONTINUOUS
 62
     3
100
AcDbCircle
 10
436.85
 20
298.4
 30
0.0
 40
0.3
100
AcDbArc
 50
270.0
 51
0.0
  0
LINE
  5
1D2
100
AcDbEntity
  8
LAY-2
  6
CONTINUOUS
 62
     3
100
AcDbLine
 10
437.15
 20
298.4
 30
0.0
 11
437.15
 21
305.8
 31
0.0
  0
ARC
  5
1D3
100
AcDbEntity
  8
LAY-2
  6
CONTINUOUS
 62
     3
100
AcDbCircle
 10
436.85
 20
305.8
 30
0.0
 40
0.3
100
AcDbArc
 50
0.0
 51
90.0
  0
LINE
  5
1D4
100
AcDbEntity
  8
LAY-2
  6
CONTINUOUS
 62
     3
100
AcDbLine
 10
424.05
 20
295.1
 30
0.0
 11
424.05
 21
309.1
 31
0.0
  0
LINE
  5
1D5
100
AcDbEntity
  8
LAY-2
  6
CONTINUOUS
 62
     3
100
AcDbLine
 10
422.45
 20
295.1
 30
0.0
 11
422.45
 21
309.1
 31
0.0
  0
ARC
  5
1D6
100
AcDbEntity
  8
LAY-2
  6
CONTINUOUS
 62
     3
100
AcDbCircle
 10
422.45
 20
305.8
 30
0.0
 40
0.3
100
AcDbArc
 50
90.0
 51
180.0
  0
LINE
  5
1D7
100
AcDbEntity
  8
LAY-2
  6
CONTINUOUS
 62
     3
100
AcDbLine
 10
422.15
 20
298.4
 30
0.0
 11
422.15
 21
305.8
 31
0.0
  0
ARC
  5
1D8
100
AcDbEntity
  8
LAY-2
  6
CONTINUOUS
 62
     3
100
AcDbCircle
 10
422.45
 20
298.4
 30
0.0
 40
0.3
100
AcDbArc
 50
180.0
 51
270.0
  0
ARC
  5
1D9
100
AcDbEntity
  8
LAY-2
  6
CONTINUOUS
 62
     3
100
AcDbCircle
 10
429.669088
 20
304.118187
 30
0.0
 40
5.918223
100
AcDbArc
 50
300.244006
 51
300.386958
  0
LINE
  5
1DA
100
AcDbEntity
  8
LAY-2
  6
CONTINUOUS
 62
     3
100
AcDbLine
 10
433.991304
 20
305.034035
 30
0.0
 11
435.25
 21
305.1
 31
0.0
  0
ARC
  5
1DB
100
AcDbEntity
  8
LAY-2
  6
CONTINUOUS
 62
     3
100
AcDbCircle
 10
433.860464
 20
307.530608
 30
0.0
 40
2.5
100
AcDbArc
 50
229.184916
 51
273.0
  0
LINE
  5
1DC
100
AcDbEntity
  8
LAY-2
  6
CONTINUOUS
 62
     3
100
AcDbLine
 10
431.380106
 20
306.369454
 30
0.0
 11
432.226415
 21
305.638551
 31
0.0
  0
LINE
  5
1DD
100
AcDbEntity
  8
LAY-2
  6
CONTINUOUS
 62
     3
100
AcDbLine
 10
425.523133
 20
305.022796
 30
0.0
 11
424.05
 21
305.1
 31
0.0
  0
ARC
  5
1DE
100
AcDbEntity
  8
LAY-2
  6
CONTINUOUS
 62
     3
100
AcDbCircle
 10
429.685301
 20
304.407048
 30
0.0
 40
2.592952
100
AcDbArc
 50
49.184916
 51
142.330645
  0
ARC
  5
1DF
100
AcDbEntity
  8
LAY-2
  6
CONTINUOUS
 62
     3
100
AcDbCircle
 10
425.653973
 20
307.51937
 30
0.0
 40
2.5
100
AcDbArc
 50
267.0
 51
322.330645
  0
LINE
  5
1E0
100
AcDbEntity
  8
LAY-2
  6
CONTINUOUS
 62
     3
100
AcDbLine
 10
425.308696
 20
299.165965
 30
0.0
 11
424.05
 21
299.1
 31
0.0
  0
ARC
  5
1E1
100
AcDbEntity
  8
LAY-2
  6
CONTINUOUS
 62
     3
100
AcDbCircle
 10
425.439536
 20
296.669392
 30
0.0
 40
2.5
100
AcDbArc
 50
49.184916
 51
93.0
  0
LINE
  5
1E2
100
AcDbEntity
  8
LAY-2
  6
CONTINUOUS
 62
     3
100
AcDbLine
 10
427.919894
 20
297.830546
 30
0.0
 11
427.073585
 21
298.561449
 31
0.0
  0
LINE
  5
1E3
100
AcDbEntity
  8
LAY-2
  6
CONTINUOUS
 62
     3
100
AcDbLine
 10
433.776867
 20
299.177204
 30
0.0
 11
435.25
 21
299.1
 31
0.0
  0
ARC
  5
1E4
100
AcDbEntity
  8
LAY-2
  6
CONTINUOUS
 62
     3
100
AcDbCircle
 10
429.614699
 20
299.792952
 30
0.0
 40
2.592952
100
AcDbArc
 50
229.184916
 51
322.330645
  0
ARC
  5
1E5
100
AcDbEntity
  8
LAY-2
  6
CONTINUOUS
 62
     3
100
AcDbCircle
 10
433.646027
 20
296.68063
 30
0.0
 40
2.5
100
AcDbArc
 50
87.0
 51
142.330645
  0
LINE
  5
1E6
100
AcDbEntity
  8
LAY-2
  6
EXLTYPE3
 62
     1
100
AcDbLine
 10
416.35
 20
302.1
 30
0.0
 11
447.25
 21
302.1
 31
0.0
  0
LINE
  5
1E7
100
AcDbEntity
  8
LAY-2
  6
CONTINUOUS
 62
     3
100
AcDbLine
 10
422.45
 20
309.1
 30
0.0
 11
424.05
 21
309.1
 31
0.0
  0
LINE
  5
1E8
100
AcDbEntity
  8
LAY-2
  6
CONTINUOUS
 62
     3
100
AcDbLine
 10
422.45
 20
295.1
 30
0.0
 11
424.05
 21
295.1
 31
0.0
  0
LINE
  5
1E9
100
AcDbEntity
  8
LAY-2
  6
CONTINUOUS
 62
     3
100
AcDbLine
 10
435.25
 20
309.1
 30
0.0
 11
436.85
 21
309.1
 31
0.0
  0
LINE
  5
1EA
100
AcDbEntity
  8
LAY-2
  6
CONTINUOUS
 62
     3
100
AcDbLine
 10
435.25
 20
295.1
 30
0.0
 11
436.85
 21
295.1
 31
0.0
  0
LINE
  5
1EB
100
AcDbEntity
  8
LAY-2
  6
EXLTYPE3
 62
     1
100
AcDbLine
 10
524.15
 20
302.1
 30
0.0
 11
554.85
 21
302.1
 31
0.0
  0
LINE
  5
1EC
100
AcDbEntity
  8
LAY-2
  6
CONTINUOUS
 62
     3
100
AcDbLine
 10
544.55
 20
297.6
 30
0.0
 11
544.55
 21
306.6
 31
0.0
  0
LINE
  5
1ED
100
AcDbEntity
  8
LAY-2
  6
CONTINUOUS
 62
     3
100
AcDbLine
 10
529.55
 20
297.6
 30
0.0
 11
529.55
 21
306.6
 31
0.0
  0
LINE
  5
1EE
100
AcDbEntity
  8
LAY-2
  6
CONTINUOUS
 62
     3
100
AcDbLine
 10
544.25
 20
294.35
 30
0.0
 11
544.25
 21
309.85
 31
0.0
  0
LINE
  5
1EF
100
AcDbEntity
  8
LAY-2
  6
CONTINUOUS
 62
     3
100
AcDbLine
 10
542.65
 20
294.35
 30
0.0
 11
542.65
 21
309.85
 31
0.0
  0
LINE
  5
1F0
100
AcDbEntity
  8
LAY-2
  6
CONTINUOUS
 62
     3
100
AcDbLine
 10
531.45
 20
294.35
 30
0.0
 11
531.45
 21
309.85
 31
0.0
  0
LINE
  5
1F1
100
AcDbEntity
  8
LAY-2
  6
CONTINUOUS
 62
     3
100
AcDbLine
 10
529.85
 20
294.35
 30
0.0
 11
529.85
 21
309.85
 31
0.0
  0
LINE
  5
1F2
100
AcDbEntity
  8
LAY-2
  6
CONTINUOUS
 62
     3
100
AcDbLine
 10
529.85
 20
309.85
 30
0.0
 11
531.45
 21
309.85
 31
0.0
  0
LINE
  5
1F3
100
AcDbEntity
  8
LAY-2
  6
CONTINUOUS
 62
     3
100
AcDbLine
 10
529.85
 20
294.35
 30
0.0
 11
531.45
 21
294.35
 31
0.0
  0
LINE
  5
1F4
100
AcDbEntity
  8
LAY-2
  6
CONTINUOUS
 62
     3
100
AcDbLine
 10
542.65
 20
309.85
 30
0.0
 11
544.25
 21
309.85
 31
0.0
  0
LINE
  5
1F5
100
AcDbEntity
  8
LAY-2
  6
CONTINUOUS
 62
     3
100
AcDbLine
 10
542.65
 20
294.35
 30
0.0
 11
544.25
 21
294.35
 31
0.0
  0
ARC
  5
1F6
100
AcDbEntity
  8
LAY-2
  6
CONTINUOUS
 62
     3
100
AcDbCircle
 10
544.25
 20
297.6
 30
0.0
 40
0.3
100
AcDbArc
 50
270.0
 51
0.0
  0
ARC
  5
1F7
100
AcDbEntity
  8
LAY-2
  6
CONTINUOUS
 62
     3
100
AcDbCircle
 10
544.25
 20
306.6
 30
0.0
 40
0.3
100
AcDbArc
 50
0.0
 51
90.0
  0
ARC
  5
1F8
100
AcDbEntity
  8
LAY-2
  6
CONTINUOUS
 62
     3
100
AcDbCircle
 10
529.85
 20
306.6
 30
0.0
 40
0.3
100
AcDbArc
 50
90.0
 51
180.0
  0
ARC
  5
1F9
100
AcDbEntity
  8
LAY-2
  6
CONTINUOUS
 62
     3
100
AcDbCircle
 10
529.85
 20
297.6
 30
0.0
 40
0.3
100
AcDbArc
 50
180.0
 51
270.0
  0
LINE
  5
1FA
100
AcDbEntity
  8
LAY-2
  6
CONTINUOUS
 62
     3
100
AcDbLine
 10
534.984262
 20
307.069038
 30
0.0
 11
534.162218
 21
306.280016
 31
0.0
  0
LINE
  5
1FB
100
AcDbEntity
  8
LAY-2
  6
CONTINUOUS
 62
     3
100
AcDbLine
 10
539.115738
 20
307.069038
 30
0.0
 11
539.937782
 21
306.280016
 31
0.0
  0
LINE
  5
1FC
100
AcDbEntity
  8
LAY-2
  6
CONTINUOUS
 62
     3
100
AcDbLine
 10
532.225728
 20
305.559346
 30
0.0
 11
531.45
 21
305.6
 31
0.0
  0
LINE
  5
1FD
100
AcDbEntity
  8
LAY-2
  6
CONTINUOUS
 62
     3
100
AcDbLine
 10
541.874272
 20
305.559346
 30
0.0
 11
542.65
 21
305.6
 31
0.0
  0
ARC
  5
1FE
100
AcDbEntity
  8
LAY-2
  6
CONTINUOUS
 62
     3
100
AcDbCircle
 10
537.05
 20
304.916846
 30
0.0
 40
2.983154
100
AcDbArc
 50
46.174211
 51
133.825789
  0
ARC
  5
1FF
100
AcDbEntity
  8
LAY-2
  6
CONTINUOUS
 62
     3
100
AcDbCircle
 10
532.361801
 20
308.155783
 30
0.0
 40
2.6
100
AcDbArc
 50
267.0
 51
313.825789
  0
ARC
  5
200
100
AcDbEntity
  8
LAY-2
  6
CONTINUOUS
 62
     3
100
AcDbCircle
 10
541.738199
 20
308.155783
 30
0.0
 40
2.6
100
AcDbArc
 50
226.174211
 51
273.0
  0
ARC
  5
201
100
AcDbEntity
  8
LAY-2
  6
CONTINUOUS
 62
     3
100
AcDbCircle
 10
537.05
 20
299.283154
 30
0.0
 40
2.983154
100
AcDbArc
 50
226.174211
 51
313.825789
  0
LINE
  5
202
100
AcDbEntity
  8
LAY-2
  6
CONTINUOUS
 62
     3
100
AcDbLine
 10
541.874272
 20
298.640654
 30
0.0
 11
542.65
 21
298.6
 31
0.0
  0
LINE
  5
203
100
AcDbEntity
  8
LAY-2
  6
CONTINUOUS
 62
     3
100
AcDbLine
 10
539.115738
 20
297.130962
 30
0.0
 11
539.937782
 21
297.919984
 31
0.0
  0
ARC
  5
204
100
AcDbEntity
  8
LAY-2
  6
CONTINUOUS
 62
     3
100
AcDbCircle
 10
541.738199
 20
296.044217
 30
0.0
 40
2.6
100
AcDbArc
 50
87.0
 51
133.825789
  0
LINE
  5
205
100
AcDbEntity
  8
LAY-2
  6
CONTINUOUS
 62
     3
100
AcDbLine
 10
534.984262
 20
297.130962
 30
0.0
 11
534.162218
 21
297.919984
 31
0.0
  0
LINE
  5
206
100
AcDbEntity
  8
LAY-2
  6
CONTINUOUS
 62
     3
100
AcDbLine
 10
532.225728
 20
298.640654
 30
0.0
 11
531.45
 21
298.6
 31
0.0
  0
ARC
  5
207
100
AcDbEntity
  8
LAY-2
  6
CONTINUOUS
 62
     3
100
AcDbCircle
 10
532.361801
 20
296.044217
 30
0.0
 40
2.6
100
AcDbArc
 50
46.174211
 51
93.0
  0
LINE
  5
208
100
AcDbEntity
  8
LAY-2
  6
EXLTYPE3
 62
     1
100
AcDbLine
 10
97.65
 20
227.1
 30
0.0
 11
126.15
 21
227.1
 31
0.0
  0
LINE
  5
209
100
AcDbEntity
  8
LAY-2
  6
CONTINUOUS
 62
     3
100
AcDbLine
 10
117.05
 20
218.35
 30
0.0
 11
117.05
 21
235.85
 31
0.0
  0
LINE
  5
20A
100
AcDbEntity
  8
LAY-2
  6
CONTINUOUS
 62
     3
100
AcDbLine
 10
102.65
 20
218.35
 30
0.0
 11
102.65
 21
235.85
 31
0.0
  0
LINE
  5
20B
100
AcDbEntity
  8
LAY-2
  6
CONTINUOUS
 62
     3
100
AcDbLine
 10
117.35
 20
221.65
 30
0.0
 11
117.35
 21
232.55
 31
0.0
  0
LINE
  5
20C
100
AcDbEntity
  8
LAY-2
  6
CONTINUOUS
 62
     3
100
AcDbLine
 10
102.35
 20
221.65
 30
0.0
 11
102.35
 21
232.55
 31
0.0
  0
LINE
  5
20D
100
AcDbEntity
  8
LAY-2
  6
CONTINUOUS
 62
     3
100
AcDbLine
 10
102.65
 20
218.35
 30
0.0
 11
104.45
 21
218.35
 31
0.0
  0
LINE
  5
20E
100
AcDbEntity
  8
LAY-2
  6
CONTINUOUS
 62
     3
100
AcDbLine
 10
102.65
 20
235.85
 30
0.0
 11
104.45
 21
235.85
 31
0.0
  0
LINE
  5
20F
100
AcDbEntity
  8
LAY-2
  6
CONTINUOUS
 62
     3
100
AcDbLine
 10
104.45
 20
218.35
 30
0.0
 11
104.45
 21
235.85
 31
0.0
  0
LINE
  5
210
100
AcDbEntity
  8
LAY-2
  6
CONTINUOUS
 62
     3
100
AcDbLine
 10
115.25
 20
218.35
 30
0.0
 11
115.25
 21
235.85
 31
0.0
  0
LINE
  5
211
100
AcDbEntity
  8
LAY-2
  6
CONTINUOUS
 62
     3
100
AcDbLine
 10
115.25
 20
235.85
 30
0.0
 11
117.05
 21
235.85
 31
0.0
  0
LINE
  5
212
100
AcDbEntity
  8
LAY-2
  6
CONTINUOUS
 62
     3
100
AcDbLine
 10
115.25
 20
218.35
 30
0.0
 11
117.05
 21
218.35
 31
0.0
  0
LINE
  5
213
100
AcDbEntity
  8
LAY-2
  6
CONTINUOUS
 62
     3
100
AcDbLine
 10
106.730169
 20
232.016482
 30
0.0
 11
107.746319
 21
232.986947
 31
0.0
  0
LINE
  5
214
100
AcDbEntity
  8
LAY-2
  6
CONTINUOUS
 62
     3
100
AcDbLine
 10
111.924678
 20
233.102765
 30
0.0
 11
113.291515
 21
231.935081
 31
0.0
  0
LINE
  5
215
100
AcDbEntity
  8
LAY-2
  6
CONTINUOUS
 62
     3
100
AcDbLine
 10
115.046212
 20
231.33932
 30
0.0
 11
115.25
 21
231.35
 31
0.0
  0
LINE
  5
216
100
AcDbEntity
  8
LAY-2
  6
CONTINUOUS
 62
     3
100
AcDbLine
 10
104.87267
 20
231.327849
 30
0.0
 11
104.45
 21
231.35
 31
0.0
  0
ARC
  5
217
100
AcDbEntity
  8
LAY-2
  6
CONTINUOUS
 62
     3
100
AcDbCircle
 10
109.899599
 20
230.732302
 30
0.0
 40
3.117698
100
AcDbArc
 50
49.492853
 51
133.682643
  0
ARC
  5
218
100
AcDbEntity
  8
LAY-2
  6
CONTINUOUS
 62
     3
100
AcDbCircle
 10
105.00351
 20
233.824423
 30
0.0
 40
2.5
100
AcDbArc
 50
267.0
 51
313.682643
  0
ARC
  5
219
100
AcDbEntity
  8
LAY-2
  6
CONTINUOUS
 62
     3
100
AcDbCircle
 10
114.915373
 20
233.835894
 30
0.0
 40
2.5
100
AcDbArc
 50
229.492853
 51
273.0
  0
ARC
  5
21A
100
AcDbEntity
  8
LAY-2
  6
CONTINUOUS
 62
     3
100
AcDbCircle
 10
109.800401
 20
223.467698
 30
0.0
 40
3.117698
100
AcDbArc
 50
229.492853
 51
313.682643
  0
LINE
  5
21B
100
AcDbEntity
  8
LAY-2
  6
CONTINUOUS
 62
     3
100
AcDbLine
 10
114.82733
 20
222.872151
 30
0.0
 11
115.25
 21
222.85
 31
0.0
  0
ARC
  5
21C
100
AcDbEntity
  8
LAY-2
  6
CONTINUOUS
 62
     3
100
AcDbCircle
 10
114.69649
 20
220.375577
 30
0.0
 40
2.5
100
AcDbArc
 50
87.0
 51
133.682643
  0
LINE
  5
21D
100
AcDbEntity
  8
LAY-2
  6
CONTINUOUS
 62
     3
100
AcDbLine
 10
104.653788
 20
222.86068
 30
0.0
 11
104.45
 21
222.85
 31
0.0
  0
ARC
  5
21E
100
AcDbEntity
  8
LAY-2
  6
CONTINUOUS
 62
     3
100
AcDbCircle
 10
104.784627
 20
220.364106
 30
0.0
 40
2.5
100
AcDbArc
 50
49.492853
 51
93.0
  0
LINE
  5
21F
100
AcDbEntity
  8
LAY-2
  6
CONTINUOUS
 62
     3
100
AcDbLine
 10
107.775322
 20
221.097235
 30
0.0
 11
106.408485
 21
222.264919
 31
0.0
  0
LINE
  5
220
100
AcDbEntity
  8
LAY-2
  6
CONTINUOUS
 62
     3
100
AcDbLine
 10
112.969831
 20
222.183518
 30
0.0
 11
111.953681
 21
221.213053
 31
0.0
  0
ARC
  5
221
100
AcDbEntity
  8
LAY-2
  6
CONTINUOUS
 62
     3
100
AcDbCircle
 10
102.65
 20
232.55
 30
0.0
 40
0.3
100
AcDbArc
 50
90.0
 51
180.0
  0
ARC
  5
222
100
AcDbEntity
  8
LAY-2
  6
CONTINUOUS
 62
     3
100
AcDbCircle
 10
102.65
 20
221.65
 30
0.0
 40
0.3
100
AcDbArc
 50
180.0
 51
270.0
  0
ARC
  5
223
100
AcDbEntity
  8
LAY-2
  6
CONTINUOUS
 62
     3
100
AcDbCircle
 10
117.05
 20
221.65
 30
0.0
 40
0.3
100
AcDbArc
 50
270.0
 51
0.0
  0
ARC
  5
224
100
AcDbEntity
  8
LAY-2
  6
CONTINUOUS
 62
     3
100
AcDbCircle
 10
117.05
 20
232.55
 30
0.0
 40
0.3
100
AcDbArc
 50
0.0
 51
90.0
  0
LINE
  5
225
100
AcDbEntity
  8
LAY-2
  6
EXLTYPE3
 62
     1
100
AcDbLine
 10
206.75
 20
227.1
 30
0.0
 11
229.35
 21
227.1
 31
0.0
  0
LINE
  5
226
100
AcDbEntity
  8
LAY-2
  6
CONTINUOUS
 62
     3
100
AcDbLine
 10
209.35
 20
218.35
 30
0.0
 11
209.35
 21
236.35
 31
0.0
  0
LINE
  5
227
100
AcDbEntity
  8
LAY-2
  6
CONTINUOUS
 62
     3
100
AcDbLine
 10
211.15
 20
218.35
 30
0.0
 11
211.15
 21
236.35
 31
0.0
  0
LINE
  5
228
100
AcDbEntity
  8
LAY-2
  6
CONTINUOUS
 62
     3
100
AcDbLine
 10
221.95
 20
217.85
 30
0.0
 11
221.95
 21
236.35
 31
0.0
  0
LINE
  5
229
100
AcDbEntity
  8
LAY-2
  6
CONTINUOUS
 62
     3
100
AcDbLine
 10
223.75
 20
217.85
 30
0.0
 11
223.75
 21
236.35
 31
0.0
  0
LINE
  5
22A
100
AcDbEntity
  8
LAY-2
  6
CONTINUOUS
 62
     3
100
AcDbLine
 10
209.35
 20
218.35
 30
0.0
 11
211.15
 21
218.35
 31
0.0
  0
LINE
  5
22B
100
AcDbEntity
  8
LAY-2
  6
CONTINUOUS
 62
     3
100
AcDbLine
 10
209.05
 20
221.15
 30
0.0
 11
209.05
 21
233.05
 31
0.0
  0
LINE
  5
22C
100
AcDbEntity
  8
LAY-2
  6
CONTINUOUS
 62
     3
100
AcDbLine
 10
224.05
 20
221.15
 30
0.0
 11
224.05
 21
233.05
 31
0.0
  0
LINE
  5
22D
100
AcDbEntity
  8
LAY-2
  6
CONTINUOUS
 62
     3
100
AcDbLine
 10
209.35
 20
236.35
 30
0.0
 11
211.15
 21
236.35
 31
0.0
  0
LINE
  5
22E
100
AcDbEntity
  8
LAY-2
  6
CONTINUOUS
 62
     3
100
AcDbLine
 10
221.95
 20
217.85
 30
0.0
 11
223.75
 21
217.85
 31
0.0
  0
LINE
  5
22F
100
AcDbEntity
  8
LAY-2
  6
CONTINUOUS
 62
     3
100
AcDbLine
 10
221.95
 20
236.35
 30
0.0
 11
223.75
 21
236.35
 31
0.0
  0
ARC
  5
230
100
AcDbEntity
  8
LAY-2
  6
CONTINUOUS
 62
     3
100
AcDbCircle
 10
216.599599
 20
231.232302
 30
0.0
 40
3.117698
100
AcDbArc
 50
49.492853
 51
133.682643
  0
LINE
  5
231
100
AcDbEntity
  8
LAY-2
  6
CONTINUOUS
 62
     3
100
AcDbLine
 10
211.57267
 20
231.827849
 30
0.0
 11
211.15
 21
231.85
 31
0.0
  0
ARC
  5
232
100
AcDbEntity
  8
LAY-2
  6
CONTINUOUS
 62
     3
100
AcDbCircle
 10
211.70351
 20
234.324423
 30
0.0
 40
2.5
100
AcDbArc
 50
267.0
 51
313.682643
  0
LINE
  5
233
100
AcDbEntity
  8
LAY-2
  6
CONTINUOUS
 62
     3
100
AcDbLine
 10
221.746212
 20
231.83932
 30
0.0
 11
221.95
 21
231.85
 31
0.0
  0
ARC
  5
234
100
AcDbEntity
  8
LAY-2
  6
CONTINUOUS
 62
     3
100
AcDbCircle
 10
221.615373
 20
234.335894
 30
0.0
 40
2.5
100
AcDbArc
 50
229.492853
 51
273.0
  0
LINE
  5
235
100
AcDbEntity
  8
LAY-2
  6
CONTINUOUS
 62
     3
100
AcDbLine
 10
218.624678
 20
233.602765
 30
0.0
 11
219.991515
 21
232.435081
 31
0.0
  0
LINE
  5
236
100
AcDbEntity
  8
LAY-2
  6
CONTINUOUS
 62
     3
100
AcDbLine
 10
213.430169
 20
232.516482
 30
0.0
 11
214.446319
 21
233.486947
 31
0.0
  0
ARC
  5
237
100
AcDbEntity
  8
LAY-2
  6
CONTINUOUS
 62
     3
100
AcDbCircle
 10
216.500401
 20
222.967698
 30
0.0
 40
3.117698
100
AcDbArc
 50
229.492853
 51
313.682643
  0
LINE
  5
238
100
AcDbEntity
  8
LAY-2
  6
CONTINUOUS
 62
     3
100
AcDbLine
 10
221.52733
 20
222.372151
 30
0.0
 11
221.95
 21
222.35
 31
0.0
  0
ARC
  5
239
100
AcDbEntity
  8
LAY-2
  6
CONTINUOUS
 62
     3
100
AcDbCircle
 10
221.39649
 20
219.875577
 30
0.0
 40
2.5
100
AcDbArc
 50
87.0
 51
133.682643
  0
LINE
  5
23A
100
AcDbEntity
  8
LAY-2
  6
CONTINUOUS
 62
     3
100
AcDbLine
 10
211.353788
 20
222.36068
 30
0.0
 11
211.15
 21
222.35
 31
0.0
  0
ARC
  5
23B
100
AcDbEntity
  8
LAY-2
  6
CONTINUOUS
 62
     3
100
AcDbCircle
 10
211.484627
 20
219.864106
 30
0.0
 40
2.5
100
AcDbArc
 50
49.492853
 51
93.0
  0
LINE
  5
23C
100
AcDbEntity
  8
LAY-2
  6
CONTINUOUS
 62
     3
100
AcDbLine
 10
214.475322
 20
220.597235
 30
0.0
 11
213.108485
 21
221.764919
 31
0.0
  0
LINE
  5
23D
100
AcDbEntity
  8
LAY-2
  6
CONTINUOUS
 62
     3
100
AcDbLine
 10
219.669831
 20
221.683518
 30
0.0
 11
218.653681
 21
220.713053
 31
0.0
  0
ARC
  5
23E
100
AcDbEntity
  8
LAY-2
  6
CONTINUOUS
 62
     3
100
AcDbCircle
 10
209.35
 20
221.15
 30
0.0
 40
0.3
100
AcDbArc
 50
180.0
 51
270.0
  0
ARC
  5
23F
100
AcDbEntity
  8
LAY-2
  6
CONTINUOUS
 62
     3
100
AcDbCircle
 10
209.35
 20
233.05
 30
0.0
 40
0.3
100
AcDbArc
 50
90.0
 51
180.0
  0
ARC
  5
240
100
AcDbEntity
  8
LAY-2
  6
CONTINUOUS
 62
     3
100
AcDbCircle
 10
223.75
 20
233.05
 30
0.0
 40
0.3
100
AcDbArc
 50
0.0
 51
90.0
  0
ARC
  5
241
100
AcDbEntity
  8
LAY-2
  6
CONTINUOUS
 62
     3
100
AcDbCircle
 10
223.75
 20
221.15
 30
0.0
 40
0.3
100
AcDbArc
 50
270.0
 51
0.0
  0
LINE
  5
242
100
AcDbEntity
  8
LAY-2
  6
EXLTYPE3
 62
     1
100
AcDbLine
 10
309.95
 20
227.1
 30
0.0
 11
345.85
 21
227.1
 31
0.0
  0
LINE
  5
243
100
AcDbEntity
  8
LAY-2
  6
CONTINUOUS
 62
     3
100
AcDbLine
 10
316.25
 20
216.6
 30
0.0
 11
316.25
 21
237.6
 31
0.0
  0
LINE
  5
244
100
AcDbEntity
  8
LAY-2
  6
CONTINUOUS
 62
     3
100
AcDbLine
 10
318.05
 20
216.6
 30
0.0
 11
318.05
 21
237.6
 31
0.0
  0
LINE
  5
245
100
AcDbEntity
  8
LAY-2
  6
CONTINUOUS
 62
     3
100
AcDbLine
 10
328.85
 20
216.6
 30
0.0
 11
328.85
 21
237.6
 31
0.0
  0
LINE
  5
246
100
AcDbEntity
  8
LAY-2
  6
CONTINUOUS
 62
     3
100
AcDbLine
 10
330.65
 20
216.6
 30
0.0
 11
330.65
 21
237.6
 31
0.0
  0
ARC
  5
247
100
AcDbEntity
  8
LAY-2
  6
CONTINUOUS
 62
     3
100
AcDbCircle
 10
323.499599
 20
232.482302
 30
0.0
 40
3.117698
100
AcDbArc
 50
49.492853
 51
133.682643
  0
LINE
  5
248
100
AcDbEntity
  8
LAY-2
  6
CONTINUOUS
 62
     3
100
AcDbLine
 10
318.47267
 20
233.077849
 30
0.0
 11
318.05
 21
233.1
 31
0.0
  0
ARC
  5
249
100
AcDbEntity
  8
LAY-2
  6
CONTINUOUS
 62
     3
100
AcDbCircle
 10
318.60351
 20
235.574423
 30
0.0
 40
2.5
100
AcDbArc
 50
267.0
 51
313.682643
  0
LINE
  5
24A
100
AcDbEntity
  8
LAY-2
  6
CONTINUOUS
 62
     3
100
AcDbLine
 10
328.646212
 20
233.08932
 30
0.0
 11
328.85
 21
233.1
 31
0.0
  0
ARC
  5
24B
100
AcDbEntity
  8
LAY-2
  6
CONTINUOUS
 62
     3
100
AcDbCircle
 10
328.515373
 20
235.585894
 30
0.0
 40
2.5
100
AcDbArc
 50
229.492853
 51
273.0
  0
LINE
  5
24C
100
AcDbEntity
  8
LAY-2
  6
CONTINUOUS
 62
     3
100
AcDbLine
 10
325.524678
 20
234.852765
 30
0.0
 11
326.891515
 21
233.685081
 31
0.0
  0
LINE
  5
24D
100
AcDbEntity
  8
LAY-2
  6
CONTINUOUS
 62
     3
100
AcDbLine
 10
320.330169
 20
233.766482
 30
0.0
 11
321.346319
 21
234.736947
 31
0.0
  0
ARC
  5
24E
100
AcDbEntity
  8
LAY-2
  6
CONTINUOUS
 62
     3
100
AcDbCircle
 10
323.400401
 20
221.717698
 30
0.0
 40
3.117698
100
AcDbArc
 50
229.492853
 51
313.682643
  0
LINE
  5
24F
100
AcDbEntity
  8
LAY-2
  6
CONTINUOUS
 62
     3
100
AcDbLine
 10
328.42733
 20
221.122151
 30
0.0
 11
328.85
 21
221.1
 31
0.0
  0
ARC
  5
250
100
AcDbEntity
  8
LAY-2
  6
CONTINUOUS
 62
     3
100
AcDbCircle
 10
328.29649
 20
218.625577
 30
0.0
 40
2.5
100
AcDbArc
 50
87.0
 51
133.682643
  0
LINE
  5
251
100
AcDbEntity
  8
LAY-2
  6
CONTINUOUS
 62
     3
100
AcDbLine
 10
318.253788
 20
221.11068
 30
0.0
 11
318.05
 21
221.1
 31
0.0
  0
ARC
  5
252
100
AcDbEntity
  8
LAY-2
  6
CONTINUOUS
 62
     3
100
AcDbCircle
 10
318.384627
 20
218.614106
 30
0.0
 40
2.5
100
AcDbArc
 50
49.492853
 51
93.0
  0
LINE
  5
253
100
AcDbEntity
  8
LAY-2
  6
CONTINUOUS
 62
     3
100
AcDbLine
 10
321.375322
 20
219.347235
 30
0.0
 11
320.008485
 21
220.514919
 31
0.0
  0
LINE
  5
254
100
AcDbEntity
  8
LAY-2
  6
CONTINUOUS
 62
     3
100
AcDbLine
 10
326.569831
 20
220.433518
 30
0.0
 11
325.553681
 21
219.463053
 31
0.0
  0
LINE
  5
255
100
AcDbEntity
  8
LAY-2
  6
CONTINUOUS
 62
     3
100
AcDbLine
 10
315.95
 20
219.8
 30
0.0
 11
315.95
 21
234.4
 31
0.0
  0
LINE
  5
256
100
AcDbEntity
  8
LAY-2
  6
CONTINUOUS
 62
     3
100
AcDbLine
 10
330.95
 20
219.8
 30
0.0
 11
330.95
 21
234.4
 31
0.0
  0
LINE
  5
257
100
AcDbEntity
  8
LAY-2
  6
CONTINUOUS
 62
     3
100
AcDbLine
 10
316.25
 20
237.6
 30
0.0
 11
318.05
 21
237.6
 31
0.0
  0
LINE
  5
258
100
AcDbEntity
  8
LAY-2
  6
CONTINUOUS
 62
     3
100
AcDbLine
 10
316.25
 20
216.6
 30
0.0
 11
318.05
 21
216.6
 31
0.0
  0
LINE
  5
259
100
AcDbEntity
  8
LAY-2
  6
CONTINUOUS
 62
     3
100
AcDbLine
 10
328.85
 20
237.6
 30
0.0
 11
330.65
 21
237.6
 31
0.0
  0
LINE
  5
25A
100
AcDbEntity
  8
LAY-2
  6
CONTINUOUS
 62
     3
100
AcDbLine
 10
328.85
 20
216.6
 30
0.0
 11
330.65
 21
216.6
 31
0.0
  0
ARC
  5
25B
100
AcDbEntity
  8
LAY-2
  6
CONTINUOUS
 62
     3
100
AcDbCircle
 10
316.25
 20
234.4
 30
0.0
 40
0.3
100
AcDbArc
 50
90.0
 51
180.0
  0
ARC
  5
25C
100
AcDbEntity
  8
LAY-2
  6
CONTINUOUS
 62
     3
100
AcDbCircle
 10
330.65
 20
234.4
 30
0.0
 40
0.3
100
AcDbArc
 50
0.0
 51
90.0
  0
ARC
  5
25D
100
AcDbEntity
  8
LAY-2
  6
CONTINUOUS
 62
     3
100
AcDbCircle
 10
330.65
 20
219.8
 30
0.0
 40
0.3
100
AcDbArc
 50
270.0
 51
0.0
  0
ARC
  5
25E
100
AcDbEntity
  8
LAY-2
  6
CONTINUOUS
 62
     3
100
AcDbCircle
 10
316.25
 20
219.8
 30
0.0
 40
0.3
100
AcDbArc
 50
180.0
 51
270.0
  0
LINE
  5
25F
100
AcDbEntity
  8
LAY-2
  6
EXLTYPE3
 62
     1
100
AcDbLine
 10
413.65
 20
227.1
 30
0.0
 11
451.95
 21
227.1
 31
0.0
  0
LINE
  5
260
100
AcDbEntity
  8
LAY-2
  6
CONTINUOUS
 62
     3
100
AcDbLine
 10
437.45
 20
214.6
 30
0.0
 11
437.45
 21
239.6
 31
0.0
  0
LINE
  5
261
100
AcDbEntity
  8
LAY-2
  6
CONTINUOUS
 62
     3
100
AcDbLine
 10
435.65
 20
214.6
 30
0.0
 11
435.65
 21
239.6
 31
0.0
  0
LINE
  5
262
100
AcDbEntity
  8
LAY-2
  6
CONTINUOUS
 62
     3
100
AcDbLine
 10
424.85
 20
214.6
 30
0.0
 11
424.85
 21
239.6
 31
0.0
  0
LINE
  5
263
100
AcDbEntity
  8
LAY-2
  6
CONTINUOUS
 62
     3
100
AcDbLine
 10
423.05
 20
214.6
 30
0.0
 11
423.05
 21
239.6
 31
0.0
  0
ARC
  5
264
100
AcDbEntity
  8
LAY-2
  6
CONTINUOUS
 62
     3
100
AcDbCircle
 10
430.299599
 20
233.732302
 30
0.0
 40
3.117698
100
AcDbArc
 50
49.492853
 51
133.682643
  0
LINE
  5
265
100
AcDbEntity
  8
LAY-2
  6
CONTINUOUS
 62
     3
100
AcDbLine
 10
425.27267
 20
234.327849
 30
0.0
 11
424.85
 21
234.35
 31
0.0
  0
ARC
  5
266
100
AcDbEntity
  8
LAY-2
  6
CONTINUOUS
 62
     3
100
AcDbCircle
 10
425.40351
 20
236.824423
 30
0.0
 40
2.5
100
AcDbArc
 50
267.0
 51
313.682643
  0
LINE
  5
267
100
AcDbEntity
  8
LAY-2
  6
CONTINUOUS
 62
     3
100
AcDbLine
 10
435.446212
 20
234.33932
 30
0.0
 11
435.65
 21
234.35
 31
0.0
  0
ARC
  5
268
100
AcDbEntity
  8
LAY-2
  6
CONTINUOUS
 62
     3
100
AcDbCircle
 10
435.315373
 20
236.835894
 30
0.0
 40
2.5
100
AcDbArc
 50
229.492853
 51
273.0
  0
LINE
  5
269
100
AcDbEntity
  8
LAY-2
  6
CONTINUOUS
 62
     3
100
AcDbLine
 10
432.324678
 20
236.102765
 30
0.0
 11
433.691515
 21
234.935081
 31
0.0
  0
LINE
  5
26A
100
AcDbEntity
  8
LAY-2
  6
CONTINUOUS
 62
     3
100
AcDbLine
 10
427.130169
 20
235.016482
 30
0.0
 11
428.146319
 21
235.986947
 31
0.0
  0
ARC
  5
26B
100
AcDbEntity
  8
LAY-2
  6
CONTINUOUS
 62
     3
100
AcDbCircle
 10
430.200401
 20
220.467698
 30
0.0
 40
3.117698
100
AcDbArc
 50
229.492853
 51
313.682643
  0
LINE
  5
26C
100
AcDbEntity
  8
LAY-2
  6
CONTINUOUS
 62
     3
100
AcDbLine
 10
435.22733
 20
219.872151
 30
0.0
 11
435.65
 21
219.85
 31
0.0
  0
ARC
  5
26D
100
AcDbEntity
  8
LAY-2
  6
CONTINUOUS
 62
     3
100
AcDbCircle
 10
435.09649
 20
217.375577
 30
0.0
 40
2.5
100
AcDbArc
 50
87.0
 51
133.682643
  0
LINE
  5
26E
100
AcDbEntity
  8
LAY-2
  6
CONTINUOUS
 62
     3
100
AcDbLine
 10
425.053788
 20
219.86068
 30
0.0
 11
424.85
 21
219.85
 31
0.0
  0
ARC
  5
26F
100
AcDbEntity
  8
LAY-2
  6
CONTINUOUS
 62
     3
100
AcDbCircle
 10
425.184627
 20
217.364106
 30
0.0
 40
2.5
100
AcDbArc
 50
49.492853
 51
93.0
  0
LINE
  5
270
100
AcDbEntity
  8
LAY-2
  6
CONTINUOUS
 62
     3
100
AcDbLine
 10
428.175322
 20
218.097235
 30
0.0
 11
426.808485
 21
219.264919
 31
0.0
  0
LINE
  5
271
100
AcDbEntity
  8
LAY-2
  6
CONTINUOUS
 62
     3
100
AcDbLine
 10
433.369831
 20
219.183518
 30
0.0
 11
432.353681
 21
218.213053
 31
0.0
  0
LINE
  5
272
100
AcDbEntity
  8
LAY-2
  6
CONTINUOUS
 62
     3
100
AcDbLine
 10
437.75
 20
218.3
 30
0.0
 11
437.75
 21
235.9
 31
0.0
  0
LINE
  5
273
100
AcDbEntity
  8
LAY-2
  6
CONTINUOUS
 62
     3
100
AcDbLine
 10
422.75
 20
218.3
 30
0.0
 11
422.75
 21
235.9
 31
0.0
  0
LINE
  5
274
100
AcDbEntity
  8
LAY-2
  6
CONTINUOUS
 62
     3
100
AcDbLine
 10
423.05
 20
239.6
 30
0.0
 11
424.85
 21
239.6
 31
0.0
  0
LINE
  5
275
100
AcDbEntity
  8
LAY-2
  6
CONTINUOUS
 62
     3
100
AcDbLine
 10
423.05
 20
214.6
 30
0.0
 11
424.85
 21
214.6
 31
0.0
  0
LINE
  5
276
100
AcDbEntity
  8
LAY-2
  6
CONTINUOUS
 62
     3
100
AcDbLine
 10
435.65
 20
214.6
 30
0.0
 11
437.45
 21
214.6
 31
0.0
  0
LINE
  5
277
100
AcDbEntity
  8
LAY-2
  6
CONTINUOUS
 62
     3
100
AcDbLine
 10
435.65
 20
239.6
 30
0.0
 11
437.45
 21
239.6
 31
0.0
  0
ARC
  5
278
100
AcDbEntity
  8
LAY-2
  6
CONTINUOUS
 62
     3
100
AcDbCircle
 10
423.05
 20
218.3
 30
0.0
 40
0.3
100
AcDbArc
 50
180.0
 51
270.0
  0
ARC
  5
279
100
AcDbEntity
  8
LAY-2
  6
CONTINUOUS
 62
     3
100
AcDbCircle
 10
423.05
 20
235.9
 30
0.0
 40
0.3
100
AcDbArc
 50
90.0
 51
180.0
  0
ARC
  5
27A
100
AcDbEntity
  8
LAY-2
  6
CONTINUOUS
 62
     3
100
AcDbCircle
 10
437.45
 20
235.9
 30
0.0
 40
0.3
100
AcDbArc
 50
0.0
 51
90.0
  0
ARC
  5
27B
100
AcDbEntity
  8
LAY-2
  6
CONTINUOUS
 62
     3
100
AcDbCircle
 10
437.45
 20
218.3
 30
0.0
 40
0.3
100
AcDbArc
 50
270.0
 51
0.0
  0
LINE
  5
27C
100
AcDbEntity
  8
LAY-2
  6
EXLTYPE3
 62
     1
100
AcDbLine
 10
518.45
 20
227.1
 30
0.0
 11
559.65
 21
227.1
 31
0.0
  0
LINE
  5
27D
100
AcDbEntity
  8
LAY-2
  6
CONTINUOUS
 62
     3
100
AcDbLine
 10
543.05
 20
213.1
 30
0.0
 11
543.05
 21
241.1
 31
0.0
  0
LINE
  5
27E
100
AcDbEntity
  8
LAY-2
  6
CONTINUOUS
 62
     3
100
AcDbLine
 10
541.25
 20
213.1
 30
0.0
 11
541.25
 21
241.1
 31
0.0
  0
LINE
  5
27F
100
AcDbEntity
  8
LAY-2
  6
CONTINUOUS
 62
     3
100
AcDbLine
 10
530.45
 20
213.1
 30
0.0
 11
530.45
 21
241.1
 31
0.0
  0
LINE
  5
280
100
AcDbEntity
  8
LAY-2
  6
CONTINUOUS
 62
     3
100
AcDbLine
 10
528.65
 20
213.1
 30
0.0
 11
528.65
 21
241.1
 31
0.0
  0
ARC
  5
281
100
AcDbEntity
  8
LAY-2
  6
CONTINUOUS
 62
     3
100
AcDbCircle
 10
535.800401
 20
219.217698
 30
0.0
 40
3.117698
100
AcDbArc
 50
229.492853
 51
313.682643
  0
LINE
  5
282
100
AcDbEntity
  8
LAY-2
  6
CONTINUOUS
 62
     3
100
AcDbLine
 10
540.82733
 20
218.622151
 30
0.0
 11
541.25
 21
218.6
 31
0.0
  0
ARC
  5
283
100
AcDbEntity
  8
LAY-2
  6
CONTINUOUS
 62
     3
100
AcDbCircle
 10
540.69649
 20
216.125577
 30
0.0
 40
2.5
100
AcDbArc
 50
87.0
 51
133.682643
  0
LINE
  5
284
100
AcDbEntity
  8
LAY-2
  6
CONTINUOUS
 62
     3
100
AcDbLine
 10
530.653788
 20
218.61068
 30
0.0
 11
530.45
 21
218.6
 31
0.0
  0
ARC
  5
285
100
AcDbEntity
  8
LAY-2
  6
CONTINUOUS
 62
     3
100
AcDbCircle
 10
530.784627
 20
216.114106
 30
0.0
 40
2.5
100
AcDbArc
 50
49.492853
 51
93.0
  0
LINE
  5
286
100
AcDbEntity
  8
LAY-2
  6
CONTINUOUS
 62
     3
100
AcDbLine
 10
533.775322
 20
216.847235
 30
0.0
 11
532.408485
 21
218.014919
 31
0.0
  0
LINE
  5
287
100
AcDbEntity
  8
LAY-2
  6
CONTINUOUS
 62
     3
100
AcDbLine
 10
538.969831
 20
217.933518
 30
0.0
 11
537.953681
 21
216.963053
 31
0.0
  0
LINE
  5
288
100
AcDbEntity
  8
LAY-2
  6
CONTINUOUS
 62
     3
100
AcDbLine
 10
543.35
 20
216.8
 30
0.0
 11
543.35
 21
237.4
 31
0.0
  0
LINE
  5
289
100
AcDbEntity
  8
LAY-2
  6
CONTINUOUS
 62
     3
100
AcDbLine
 10
528.35
 20
216.8
 30
0.0
 11
528.35
 21
237.4
 31
0.0
  0
LINE
  5
28A
100
AcDbEntity
  8
LAY-2
  6
CONTINUOUS
 62
     3
100
AcDbLine
 10
528.65
 20
241.1
 30
0.0
 11
530.45
 21
241.1
 31
0.0
  0
LINE
  5
28B
100
AcDbEntity
  8
LAY-2
  6
CONTINUOUS
 62
     3
100
AcDbLine
 10
528.65
 20
213.1
 30
0.0
 11
530.45
 21
213.1
 31
0.0
  0
LINE
  5
28C
100
AcDbEntity
  8
LAY-2
  6
CONTINUOUS
 62
     3
100
AcDbLine
 10
541.25
 20
241.1
 30
0.0
 11
543.05
 21
241.1
 31
0.0
  0
LINE
  5
28D
100
AcDbEntity
  8
LAY-2
  6
CONTINUOUS
 62
     3
100
AcDbLine
 10
541.25
 20
213.1
 30
0.0
 11
543.05
 21
213.1
 31
0.0
  0
ARC
  5
28E
100
AcDbEntity
  8
LAY-2
  6
CONTINUOUS
 62
     3
100
AcDbCircle
 10
528.65
 20
237.4
 30
0.0
 40
0.3
100
AcDbArc
 50
90.0
 51
180.0
  0
ARC
  5
28F
100
AcDbEntity
  8
LAY-2
  6
CONTINUOUS
 62
     3
100
AcDbCircle
 10
528.65
 20
216.8
 30
0.0
 40
0.3
100
AcDbArc
 50
180.0
 51
270.0
  0
ARC
  5
290
100
AcDbEntity
  8
LAY-2
  6
CONTINUOUS
 62
     3
100
AcDbCircle
 10
543.05
 20
216.8
 30
0.0
 40
0.3
100
AcDbArc
 50
270.0
 51
0.0
  0
ARC
  5
291
100
AcDbEntity
  8
LAY-2
  6
CONTINUOUS
 62
     3
100
AcDbCircle
 10
543.05
 20
237.4
 30
0.0
 40
0.3
100
AcDbArc
 50
0.0
 51
90.0
  0
ARC
  5
292
100
AcDbEntity
  8
LAY-2
  6
CONTINUOUS
 62
     3
100
AcDbCircle
 10
535.899599
 20
234.982302
 30
0.0
 40
3.117698
100
AcDbArc
 50
49.492853
 51
133.682643
  0
LINE
  5
293
100
AcDbEntity
  8
LAY-2
  6
CONTINUOUS
 62
     3
100
AcDbLine
 10
530.87267
 20
235.577849
 30
0.0
 11
530.45
 21
235.6
 31
0.0
  0
ARC
  5
294
100
AcDbEntity
  8
LAY-2
  6
CONTINUOUS
 62
     3
100
AcDbCircle
 10
531.00351
 20
238.074423
 30
0.0
 40
2.5
100
AcDbArc
 50
267.0
 51
313.682643
  0
LINE
  5
295
100
AcDbEntity
  8
LAY-2
  6
CONTINUOUS
 62
     3
100
AcDbLine
 10
541.046212
 20
235.58932
 30
0.0
 11
541.25
 21
235.6
 31
0.0
  0
ARC
  5
296
100
AcDbEntity
  8
LAY-2
  6
CONTINUOUS
 62
     3
100
AcDbCircle
 10
540.915373
 20
238.085894
 30
0.0
 40
2.5
100
AcDbArc
 50
229.492853
 51
273.0
  0
LINE
  5
297
100
AcDbEntity
  8
LAY-2
  6
CONTINUOUS
 62
     3
100
AcDbLine
 10
537.924678
 20
237.352765
 30
0.0
 11
539.291515
 21
236.185081
 31
0.0
  0
LINE
  5
298
100
AcDbEntity
  8
LAY-2
  6
CONTINUOUS
 62
     3
100
AcDbLine
 10
532.730169
 20
236.266482
 30
0.0
 11
533.746319
 21
237.236947
 31
0.0
  0
LINE
  5
299
100
AcDbEntity
  8
LAY-2
  6
EXLTYPE3
 62
     1
100
AcDbLine
 10
94.25
 20
152.1
 30
0.0
 11
130.55
 21
152.1
 31
0.0
  0
LINE
  5
29A
100
AcDbEntity
  8
LAY-2
  6
CONTINUOUS
 62
     3
100
AcDbLine
 10
120.15
 20
138.4
 30
0.0
 11
120.15
 21
166.4
 31
0.0
  0
LINE
  5
29B
100
AcDbEntity
  8
LAY-2
  6
CONTINUOUS
 62
     3
100
AcDbLine
 10
118.35
 20
138.4
 30
0.0
 11
118.35
 21
166.4
 31
0.0
  0
LINE
  5
29C
100
AcDbEntity
  8
LAY-2
  6
CONTINUOUS
 62
     3
100
AcDbLine
 10
102.55
 20
138.4
 30
0.0
 11
102.55
 21
166.4
 31
0.0
  0
LINE
  5
29D
100
AcDbEntity
  8
LAY-2
  6
CONTINUOUS
 62
     3
100
AcDbLine
 10
100.75
 20
138.4
 30
0.0
 11
100.75
 21
166.4
 31
0.0
  0
LINE
  5
29E
100
AcDbEntity
  8
LAY-2
  6
CONTINUOUS
 62
     3
100
AcDbLine
 10
120.45
 20
142.1
 30
0.0
 11
120.45
 21
162.7
 31
0.0
  0
LINE
  5
29F
100
AcDbEntity
  8
LAY-2
  6
CONTINUOUS
 62
     3
100
AcDbLine
 10
100.45
 20
142.1
 30
0.0
 11
100.45
 21
162.7
 31
0.0
  0
LINE
  5
2A0
100
AcDbEntity
  8
LAY-2
  6
CONTINUOUS
 62
     3
100
AcDbLine
 10
100.75
 20
166.4
 30
0.0
 11
102.55
 21
166.4
 31
0.0
  0
LINE
  5
2A1
100
AcDbEntity
  8
LAY-2
  6
CONTINUOUS
 62
     3
100
AcDbLine
 10
100.75
 20
138.4
 30
0.0
 11
102.55
 21
138.4
 31
0.0
  0
LINE
  5
2A2
100
AcDbEntity
  8
LAY-2
  6
CONTINUOUS
 62
     3
100
AcDbLine
 10
118.35
 20
166.4
 30
0.0
 11
120.15
 21
166.4
 31
0.0
  0
LINE
  5
2A3
100
AcDbEntity
  8
LAY-2
  6
CONTINUOUS
 62
     3
100
AcDbLine
 10
118.35
 20
138.4
 30
0.0
 11
120.15
 21
138.4
 31
0.0
  0
ARC
  5
2A4
100
AcDbEntity
  8
LAY-2
  6
CONTINUOUS
 62
     3
100
AcDbCircle
 10
100.75
 20
162.7
 30
0.0
 40
0.3
100
AcDbArc
 50
90.0
 51
180.0
  0
ARC
  5
2A5
100
AcDbEntity
  8
LAY-2
  6
CONTINUOUS
 62
     3
100
AcDbCircle
 10
100.75
 20
142.1
 30
0.0
 40
0.3
100
AcDbArc
 50
180.0
 51
270.0
  0
ARC
  5
2A6
100
AcDbEntity
  8
LAY-2
  6
CONTINUOUS
 62
     3
100
AcDbCircle
 10
120.15
 20
142.1
 30
0.0
 40
0.3
100
AcDbArc
 50
270.0
 51
0.0
  0
ARC
  5
2A7
100
AcDbEntity
  8
LAY-2
  6
CONTINUOUS
 62
     3
100
AcDbCircle
 10
120.15
 20
162.7
 30
0.0
 40
0.3
100
AcDbArc
 50
0.0
 51
90.0
  0
LINE
  5
2A8
100
AcDbEntity
  8
LAY-2
  6
EXLTYPE3
 62
     1
100
AcDbLine
 10
202.6
 20
152.1
 30
0.0
 11
230.0
 21
152.1
 31
0.0
  0
LINE
  5
2A9
100
AcDbEntity
  8
LAY-2
  6
CONTINUOUS
 62
     3
100
AcDbLine
 10
223.3
 20
135.6
 30
0.0
 11
223.3
 21
168.6
 31
0.0
  0
LINE
  5
2AA
100
AcDbEntity
  8
LAY-2
  6
CONTINUOUS
 62
     3
100
AcDbLine
 10
221.5
 20
135.6
 30
0.0
 11
221.5
 21
168.6
 31
0.0
  0
LINE
  5
2AB
100
AcDbEntity
  8
LAY-2
  6
CONTINUOUS
 62
     3
100
AcDbLine
 10
210.7
 20
135.6
 30
0.0
 11
210.7
 21
168.6
 31
0.0
  0
LINE
  5
2AC
100
AcDbEntity
  8
LAY-2
  6
CONTINUOUS
 62
     3
100
AcDbLine
 10
208.9
 20
135.6
 30
0.0
 11
208.9
 21
168.6
 31
0.0
  0
LINE
  5
2AD
100
AcDbEntity
  8
LAY-2
  6
CONTINUOUS
 62
     3
100
AcDbLine
 10
223.6
 20
139.25
 30
0.0
 11
223.6
 21
164.95
 31
0.0
  0
LINE
  5
2AE
100
AcDbEntity
  8
LAY-2
  6
CONTINUOUS
 62
     3
100
AcDbLine
 10
208.6
 20
139.25
 30
0.0
 11
208.6
 21
164.95
 31
0.0
  0
LINE
  5
2AF
100
AcDbEntity
  8
LAY-2
  6
EXLTYPE3
 62
     1
100
AcDbLine
 10
306.75
 20
152.1
 30
0.0
 11
343.25
 21
152.1
 31
0.0
  0
LINE
  5
2B0
100
AcDbEntity
  8
LAY-2
  6
CONTINUOUS
 62
     3
100
AcDbLine
 10
208.9
 20
168.6
 30
0.0
 11
210.7
 21
168.6
 31
0.0
  0
LINE
  5
2B1
100
AcDbEntity
  8
LAY-2
  6
CONTINUOUS
 62
     3
100
AcDbLine
 10
208.9
 20
135.6
 30
0.0
 11
210.7
 21
135.6
 31
0.0
  0
LINE
  5
2B2
100
AcDbEntity
  8
LAY-2
  6
CONTINUOUS
 62
     3
100
AcDbLine
 10
221.5
 20
168.6
 30
0.0
 11
223.3
 21
168.6
 31
0.0
  0
LINE
  5
2B3
100
AcDbEntity
  8
LAY-2
  6
CONTINUOUS
 62
     3
100
AcDbLine
 10
221.5
 20
135.6
 30
0.0
 11
223.3
 21
135.6
 31
0.0
  0
LINE
  5
2B4
100
AcDbEntity
  8
LAY-2
  6
CONTINUOUS
 62
     3
100
AcDbLine
 10
213.01
 20
164.18
 30
0.0
 11
213.7
 21
165.1
 31
0.0
  0
LINE
  5
2B5
100
AcDbEntity
  8
LAY-2
  6
CONTINUOUS
 62
     3
100
AcDbLine
 10
218.5
 20
165.1
 30
0.0
 11
219.19
 21
164.18
 31
0.0
  0
LINE
  5
2B6
100
AcDbEntity
  8
LAY-2
  6
CONTINUOUS
 62
     3
100
AcDbLine
 10
221.35
 20
163.1
 30
0.0
 11
221.5
 21
163.1
 31
0.0
  0
ARC
  5
2B7
100
AcDbEntity
  8
LAY-2
  6
CONTINUOUS
 62
     3
100
AcDbCircle
 10
210.85
 20
165.8
 30
0.0
 40
2.7
100
AcDbArc
 50
270.0
 51
323.130102
  0
ARC
  5
2B8
100
AcDbEntity
  8
LAY-2
  6
CONTINUOUS
 62
     3
100
AcDbCircle
 10
221.35
 20
165.8
 30
0.0
 40
2.7
100
AcDbArc
 50
216.869898
 51
270.0
  0
ARC
  5
2B9
100
AcDbEntity
  8
LAY-2
  6
CONTINUOUS
 62
     3
100
AcDbCircle
 10
216.1
 20
163.3
 30
0.0
 40
3.0
100
AcDbArc
 50
36.869898
 51
143.130102
  0
LINE
  5
2BA
100
AcDbEntity
  8
LAY-2
  6
CONTINUOUS
 62
     3
100
AcDbLine
 10
210.7
 20
163.1
 30
0.0
 11
210.85
 21
163.1
 31
0.0
  0
ARC
  5
2BB
100
AcDbEntity
  8
LAY-2
  6
CONTINUOUS
 62
     3
100
AcDbCircle
 10
221.35
 20
138.4
 30
0.0
 40
2.7
100
AcDbArc
 50
90.0
 51
143.130102
  0
ARC
  5
2BC
100
AcDbEntity
  8
LAY-2
  6
CONTINUOUS
 62
     3
100
AcDbCircle
 10
210.85
 20
138.4
 30
0.0
 40
2.7
100
AcDbArc
 50
36.869898
 51
90.0
  0
LINE
  5
2BD
100
AcDbEntity
  8
LAY-2
  6
CONTINUOUS
 62
     3
100
AcDbLine
 10
213.7
 20
139.1
 30
0.0
 11
213.01
 21
140.02
 31
0.0
  0
ARC
  5
2BE
100
AcDbEntity
  8
LAY-2
  6
CONTINUOUS
 62
     3
100
AcDbCircle
 10
216.1
 20
140.9
 30
0.0
 40
3.0
100
AcDbArc
 50
216.869898
 51
323.130102
  0
LINE
  5
2BF
100
AcDbEntity
  8
LAY-2
  6
CONTINUOUS
 62
     3
100
AcDbLine
 10
219.19
 20
140.02
 30
0.0
 11
218.5
 21
139.1
 31
0.0
  0
LINE
  5
2C0
100
AcDbEntity
  8
LAY-2
  6
CONTINUOUS
 62
     3
100
AcDbLine
 10
210.85
 20
141.1
 30
0.0
 11
210.7
 21
141.1
 31
0.0
  0
LINE
  5
2C1
100
AcDbEntity
  8
LAY-2
  6
CONTINUOUS
 62
     3
100
AcDbLine
 10
221.5
 20
141.1
 30
0.0
 11
221.35
 21
141.1
 31
0.0
  0
ARC
  5
2C2
100
AcDbEntity
  8
LAY-2
  6
CONTINUOUS
 62
     3
100
AcDbCircle
 10
208.9
 20
164.95
 30
0.0
 40
0.3
100
AcDbArc
 50
90.0
 51
180.0
  0
ARC
  5
2C3
100
AcDbEntity
  8
LAY-2
  6
CONTINUOUS
 62
     3
100
AcDbCircle
 10
208.9
 20
139.25
 30
0.0
 40
0.3
100
AcDbArc
 50
180.0
 51
270.0
  0
ARC
  5
2C4
100
AcDbEntity
  8
LAY-2
  6
CONTINUOUS
 62
     3
100
AcDbCircle
 10
223.3
 20
139.25
 30
0.0
 40
0.3
100
AcDbArc
 50
270.0
 51
0.0
  0
ARC
  5
2C5
100
AcDbEntity
  8
LAY-2
  6
CONTINUOUS
 62
     3
100
AcDbCircle
 10
223.3
 20
164.95
 30
0.0
 40
0.3
100
AcDbArc
 50
0.0
 51
90.0
  0
LINE
  5
2C6
100
AcDbEntity
  8
LAY-2
  6
CONTINUOUS
 62
     3
100
AcDbLine
 10
330.95
 20
135.6
 30
0.0
 11
330.95
 21
168.6
 31
0.0
  0
LINE
  5
2C7
100
AcDbEntity
  8
LAY-2
  6
CONTINUOUS
 62
     3
100
AcDbLine
 10
332.75
 20
135.6
 30
0.0
 11
332.75
 21
168.6
 31
0.0
  0
LINE
  5
2C8
100
AcDbEntity
  8
LAY-2
  6
CONTINUOUS
 62
     3
100
AcDbLine
 10
315.15
 20
135.6
 30
0.0
 11
315.15
 21
168.6
 31
0.0
  0
LINE
  5
2C9
100
AcDbEntity
  8
LAY-2
  6
CONTINUOUS
 62
     3
100
AcDbLine
 10
313.35
 20
135.6
 30
0.0
 11
313.35
 21
168.6
 31
0.0
  0
LINE
  5
2CA
100
AcDbEntity
  8
LAY-2
  6
CONTINUOUS
 62
     3
100
AcDbLine
 10
313.35
 20
168.6
 30
0.0
 11
315.15
 21
168.6
 31
0.0
  0
LINE
  5
2CB
100
AcDbEntity
  8
LAY-2
  6
CONTINUOUS
 62
     3
100
AcDbLine
 10
330.95
 20
168.6
 30
0.0
 11
332.75
 21
168.6
 31
0.0
  0
LINE
  5
2CC
100
AcDbEntity
  8
LAY-2
  6
CONTINUOUS
 62
     3
100
AcDbLine
 10
313.35
 20
135.6
 30
0.0
 11
315.15
 21
135.6
 31
0.0
  0
LINE
  5
2CD
100
AcDbEntity
  8
LAY-2
  6
CONTINUOUS
 62
     3
100
AcDbLine
 10
330.95
 20
135.6
 30
0.0
 11
332.75
 21
135.6
 31
0.0
  0
ARC
  5
2CE
100
AcDbEntity
  8
LAY-2
  6
CONTINUOUS
 62
     3
100
AcDbCircle
 10
313.35
 20
164.95
 30
0.0
 40
0.3
100
AcDbArc
 50
90.0
 51
180.0
  0
LINE
  5
2CF
100
AcDbEntity
  8
LAY-2
  6
CONTINUOUS
 62
     3
100
AcDbLine
 10
313.05
 20
139.25
 30
0.0
 11
313.05
 21
164.95
 31
0.0
  0
ARC
  5
2D0
100
AcDbEntity
  8
LAY-2
  6
CONTINUOUS
 62
     3
100
AcDbCircle
 10
313.35
 20
139.25
 30
0.0
 40
0.3
100
AcDbArc
 50
180.0
 51
270.0
  0
ARC
  5
2D1
100
AcDbEntity
  8
LAY-2
  6
CONTINUOUS
 62
     3
100
AcDbCircle
 10
332.75
 20
139.25
 30
0.0
 40
0.3
100
AcDbArc
 50
270.0
 51
0.0
  0
LINE
  5
2D2
100
AcDbEntity
  8
LAY-2
  6
CONTINUOUS
 62
     3
100
AcDbLine
 10
333.05
 20
139.25
 30
0.0
 11
333.05
 21
164.95
 31
0.0
  0
ARC
  5
2D3
100
AcDbEntity
  8
LAY-2
  6
CONTINUOUS
 62
     3
100
AcDbCircle
 10
332.75
 20
164.95
 30
0.0
 40
0.3
100
AcDbArc
 50
0.0
 51
90.0
  0
LINE
  5
2D4
100
AcDbEntity
  8
LAY-2
  6
CONTINUOUS
 62
     3
100
AcDbLine
 10
328.943555
 20
162.994847
 30
0.0
 11
330.95
 21
163.1
 31
0.0
  0
LINE
  5
2D5
100
AcDbEntity
  8
LAY-2
  6
CONTINUOUS
 62
     3
100
AcDbLine
 10
317.158508
 20
163.0026
 30
0.0
 11
315.15
 21
163.107861
 31
0.0
  0
LINE
  5
2D6
100
AcDbEntity
  8
LAY-2
  6
CONTINUOUS
 62
     3
100
AcDbLine
 10
319.476442
 20
163.970479
 30
0.0
 11
320.553455
 21
165.180439
 31
0.0
  0
LINE
  5
2D7
100
AcDbEntity
  8
LAY-2
  6
CONTINUOUS
 62
     3
100
AcDbLine
 10
325.546791
 20
165.177551
 30
0.0
 11
326.623391
 21
163.965233
 31
0.0
  0
ARC
  5
2D8
100
AcDbEntity
  8
LAY-2
  6
CONTINUOUS
 62
     3
100
AcDbCircle
 10
317.310282
 20
165.898625
 30
0.0
 40
2.9
100
AcDbArc
 50
267.0
 51
318.327024
  0
ARC
  5
2D9
100
AcDbEntity
  8
LAY-2
  6
CONTINUOUS
 62
     3
100
AcDbCircle
 10
328.79178
 20
165.890872
 30
0.0
 40
2.9
100
AcDbArc
 50
221.606693
 51
273.0
  0
ARC
  5
2DA
100
AcDbEntity
  8
LAY-2
  6
CONTINUOUS
 62
     3
100
AcDbCircle
 10
323.048839
 20
162.959243
 30
0.0
 40
3.340757
100
AcDbArc
 50
41.606693
 51
138.327024
  0
ARC
  5
2DB
100
AcDbEntity
  8
LAY-2
  6
CONTINUOUS
 62
     3
100
AcDbCircle
 10
328.789718
 20
138.309236
 30
0.0
 40
2.9
100
AcDbArc
 50
87.0
 51
138.327024
  0
ARC
  5
2DC
100
AcDbEntity
  8
LAY-2
  6
CONTINUOUS
 62
     3
100
AcDbCircle
 10
317.30822
 20
138.316989
 30
0.0
 40
2.9
100
AcDbArc
 50
41.606693
 51
93.0
  0
ARC
  5
2DD
100
AcDbEntity
  8
LAY-2
  6
CONTINUOUS
 62
     3
100
AcDbCircle
 10
323.051161
 20
141.248618
 30
0.0
 40
3.340757
100
AcDbArc
 50
221.606693
 51
318.327024
  0
LINE
  5
2DE
100
AcDbEntity
  8
LAY-2
  6
CONTINUOUS
 62
     3
100
AcDbLine
 10
317.156445
 20
141.213015
 30
0.0
 11
315.15
 21
141.107861
 31
0.0
  0
LINE
  5
2DF
100
AcDbEntity
  8
LAY-2
  6
CONTINUOUS
 62
     3
100
AcDbLine
 10
328.941492
 20
141.205261
 30
0.0
 11
330.95
 21
141.1
 31
0.0
  0
LINE
  5
2E0
100
AcDbEntity
  8
LAY-2
  6
CONTINUOUS
 62
     3
100
AcDbLine
 10
326.623558
 20
140.237382
 30
0.0
 11
325.546545
 21
139.027422
 31
0.0
  0
LINE
  5
2E1
100
AcDbEntity
  8
LAY-2
  6
CONTINUOUS
 62
     3
100
AcDbLine
 10
320.553209
 20
139.03031
 30
0.0
 11
319.476609
 21
140.242628
 31
0.0
  0
LINE
  5
2E2
100
AcDbEntity
  8
LAY-2
  6
CONTINUOUS
 62
     3
100
AcDbLine
 10
421.35
 20
132.1
 30
0.0
 11
421.35
 21
172.1
 31
0.0
  0
LINE
  5
2E3
100
AcDbEntity
  8
LAY-2
  6
CONTINUOUS
 62
     3
100
AcDbLine
 10
419.55
 20
132.1
 30
0.0
 11
419.55
 21
172.1
 31
0.0
  0
LINE
  5
2E4
100
AcDbEntity
  8
LAY-2
  6
CONTINUOUS
 62
     3
100
AcDbLine
 10
419.25
 20
136.3
 30
0.0
 11
419.25
 21
167.9
 31
0.0
  0
LINE
  5
2E5
100
AcDbEntity
  8
LAY-2
  6
CONTINUOUS
 62
     3
100
AcDbLine
 10
437.15
 20
132.1
 30
0.0
 11
437.15
 21
172.1
 31
0.0
  0
LINE
  5
2E6
100
AcDbEntity
  8
LAY-2
  6
CONTINUOUS
 62
     3
100
AcDbLine
 10
438.95
 20
132.1
 30
0.0
 11
438.95
 21
172.1
 31
0.0
  0
LINE
  5
2E7
100
AcDbEntity
  8
LAY-2
  6
CONTINUOUS
 62
     3
100
AcDbLine
 10
439.25
 20
136.3
 30
0.0
 11
439.25
 21
167.9
 31
0.0
  0
LINE
  5
2E8
100
AcDbEntity
  8
LAY-2
  6
CONTINUOUS
 62
     3
100
AcDbLine
 10
419.55
 20
132.1
 30
0.0
 11
421.35
 21
132.1
 31
0.0
  0
LINE
  5
2E9
100
AcDbEntity
  8
LAY-2
  6
CONTINUOUS
 62
     3
100
AcDbLine
 10
419.55
 20
172.1
 30
0.0
 11
421.35
 21
172.1
 31
0.0
  0
LINE
  5
2EA
100
AcDbEntity
  8
LAY-2
  6
CONTINUOUS
 62
     3
100
AcDbLine
 10
437.15
 20
172.1
 30
0.0
 11
438.95
 21
172.1
 31
0.0
  0
LINE
  5
2EB
100
AcDbEntity
  8
LAY-2
  6
CONTINUOUS
 62
     3
100
AcDbLine
 10
422.711811
 20
165.528631
 30
0.0
 11
421.35
 21
165.6
 31
0.0
  0
LINE
  5
2EC
100
AcDbEntity
  8
LAY-2
  6
CONTINUOUS
 62
     3
100
AcDbLine
 10
425.211908
 20
166.651038
 30
0.0
 11
426.001013
 21
167.63794
 31
0.0
  0
LINE
  5
2ED
100
AcDbEntity
  8
LAY-2
  6
CONTINUOUS
 62
     3
100
AcDbLine
 10
432.498987
 20
167.63794
 30
0.0
 11
433.288092
 21
166.651038
 31
0.0
  0
LINE
  5
2EE
100
AcDbEntity
  8
LAY-2
  6
CONTINUOUS
 62
     3
100
AcDbLine
 10
435.788189
 20
165.528631
 30
0.0
 11
437.15
 21
165.6
 31
0.0
  0
ARC
  5
2EF
100
AcDbEntity
  8
LAY-2
  6
CONTINUOUS
 62
     3
100
AcDbCircle
 10
429.25
 20
165.040124
 30
0.0
 40
4.159876
100
AcDbArc
 50
38.645037
 51
141.354963
  0
ARC
  5
2F0
100
AcDbEntity
  8
LAY-2
  6
CONTINUOUS
 62
     3
100
AcDbCircle
 10
422.868818
 20
168.524519
 30
0.0
 40
3.0
100
AcDbArc
 50
267.0
 51
321.354963
  0
ARC
  5
2F1
100
AcDbEntity
  8
LAY-2
  6
CONTINUOUS
 62
     3
100
AcDbCircle
 10
435.631182
 20
168.524519
 30
0.0
 40
3.0
100
AcDbArc
 50
218.645037
 51
273.0
  0
LINE
  5
2F2
100
AcDbEntity
  8
LAY-2
  6
CONTINUOUS
 62
     3
100
AcDbLine
 10
433.288092
 20
137.548962
 30
0.0
 11
432.498987
 21
136.56206
 31
0.0
  0
ARC
  5
2F3
100
AcDbEntity
  8
LAY-2
  6
CONTINUOUS
 62
     3
100
AcDbCircle
 10
435.631182
 20
135.675481
 30
0.0
 40
3.0
100
AcDbArc
 50
87.0
 51
141.354963
  0
LINE
  5
2F4
100
AcDbEntity
  8
LAY-2
  6
CONTINUOUS
 62
     3
100
AcDbLine
 10
426.001013
 20
136.56206
 30
0.0
 11
425.211908
 21
137.548962
 31
0.0
  0
ARC
  5
2F5
100
AcDbEntity
  8
LAY-2
  6
CONTINUOUS
 62
     3
100
AcDbCircle
 10
422.868818
 20
135.675481
 30
0.0
 40
3.0
100
AcDbArc
 50
38.645037
 51
93.0
  0
ARC
  5
2F6
100
AcDbEntity
  8
LAY-2
  6
CONTINUOUS
 62
     3
100
AcDbCircle
 10
429.25
 20
139.159876
 30
0.0
 40
4.159876
100
AcDbArc
 50
218.645037
 51
321.354963
  0
LINE
  5
2F7
100
AcDbEntity
  8
LAY-2
  6
CONTINUOUS
 62
     3
100
AcDbLine
 10
422.711811
 20
138.671369
 30
0.0
 11
421.35
 21
138.6
 31
0.0
  0
LINE
  5
2F8
100
AcDbEntity
  8
LAY-2
  6
CONTINUOUS
 62
     3
100
AcDbLine
 10
435.788189
 20
138.671369
 30
0.0
 11
437.15
 21
138.6
 31
0.0
  0
LINE
  5
2F9
100
AcDbEntity
  8
LAY-2
  6
CONTINUOUS
 62
     3
100
AcDbLine
 10
437.15
 20
132.1
 30
0.0
 11
438.95
 21
132.1
 31
0.0
  0
ARC
  5
2FA
100
AcDbEntity
  8
LAY-2
  6
CONTINUOUS
 62
     3
100
AcDbCircle
 10
419.55
 20
167.9
 30
0.0
 40
0.3
100
AcDbArc
 50
90.0
 51
180.0
  0
ARC
  5
2FB
100
AcDbEntity
  8
LAY-2
  6
CONTINUOUS
 62
     3
100
AcDbCircle
 10
419.55
 20
136.3
 30
0.0
 40
0.3
100
AcDbArc
 50
180.0
 51
270.0
  0
ARC
  5
2FC
100
AcDbEntity
  8
LAY-2
  6
CONTINUOUS
 62
     3
100
AcDbCircle
 10
438.95
 20
136.3
 30
0.0
 40
0.3
100
AcDbArc
 50
270.0
 51
0.0
  0
ARC
  5
2FD
100
AcDbEntity
  8
LAY-2
  6
CONTINUOUS
 62
     3
100
AcDbCircle
 10
438.95
 20
167.9
 30
0.0
 40
0.3
100
AcDbArc
 50
0.0
 51
90.0
  0
LINE
  5
2FE
100
AcDbEntity
  8
LAY-2
  6
EXLTYPE3
 62
     1
100
AcDbLine
 10
409.15
 20
152.1
 30
0.0
 11
449.55
 21
152.1
 31
0.0
  0
LINE
  5
2FF
100
AcDbEntity
  8
LAY-2
  6
CONTINUOUS
 62
     3
100
AcDbLine
 10
525.75
 20
129.85
 30
0.0
 11
525.75
 21
174.35
 31
0.0
  0
LINE
  5
300
100
AcDbEntity
  8
LAY-2
  6
CONTINUOUS
 62
     3
100
AcDbLine
 10
545.15
 20
129.85
 30
0.0
 11
545.15
 21
174.35
 31
0.0
  0
LINE
  5
301
100
AcDbEntity
  8
LAY-2
  6
CONTINUOUS
 62
     3
100
AcDbLine
 10
525.45
 20
133.9
 30
0.0
 11
525.45
 21
170.3
 31
0.0
  0
LINE
  5
302
100
AcDbEntity
  8
LAY-2
  6
CONTINUOUS
 62
     3
100
AcDbLine
 10
545.45
 20
133.9
 30
0.0
 11
545.45
 21
170.3
 31
0.0
  0
LINE
  5
303
100
AcDbEntity
  8
LAY-2
  6
EXLTYPE3
 62
     1
100
AcDbLine
 10
519.35
 20
152.1
 30
0.0
 11
553.15
 21
152.1
 31
0.0
  0
LINE
  5
304
100
AcDbEntity
  8
LAY-2
  6
CONTINUOUS
 62
     3
100
AcDbLine
 10
525.75
 20
174.35
 30
0.0
 11
527.75
 21
174.35
 31
0.0
  0
LINE
  5
305
100
AcDbEntity
  8
LAY-2
  6
CONTINUOUS
 62
     3
100
AcDbLine
 10
525.75
 20
129.85
 30
0.0
 11
527.75
 21
129.85
 31
0.0
  0
LINE
  5
306
100
AcDbEntity
  8
LAY-2
  6
CONTINUOUS
 62
     3
100
AcDbLine
 10
527.75
 20
129.85
 30
0.0
 11
527.75
 21
174.35
 31
0.0
  0
LINE
  5
307
100
AcDbEntity
  8
LAY-2
  6
CONTINUOUS
 62
     3
100
AcDbLine
 10
543.15
 20
129.85
 30
0.0
 11
543.15
 21
174.35
 31
0.0
  0
LINE
  5
308
100
AcDbEntity
  8
LAY-2
  6
CONTINUOUS
 62
     3
100
AcDbLine
 10
543.15
 20
129.85
 30
0.0
 11
545.15
 21
129.85
 31
0.0
  0
LINE
  5
309
100
AcDbEntity
  8
LAY-2
  6
CONTINUOUS
 62
     3
100
AcDbLine
 10
543.15
 20
174.35
 30
0.0
 11
545.15
 21
174.35
 31
0.0
  0
LINE
  5
30A
100
AcDbEntity
  8
LAY-2
  6
CONTINUOUS
 62
     3
100
AcDbLine
 10
529.051334
 20
168.0318
 30
0.0
 11
527.75
 21
168.1
 31
0.0
  0
LINE
  5
30B
100
AcDbEntity
  8
LAY-2
  6
CONTINUOUS
 62
     3
100
AcDbLine
 10
541.848666
 20
168.0318
 30
0.0
 11
543.15
 21
168.1
 31
0.0
  0
ARC
  5
30C
100
AcDbEntity
  8
LAY-2
  6
CONTINUOUS
 62
     3
100
AcDbCircle
 10
535.45
 20
167.36103
 30
0.0
 40
4.23897
100
AcDbArc
 50
30.43208
 51
149.56792
  0
ARC
  5
30D
100
AcDbEntity
  8
LAY-2
  6
CONTINUOUS
 62
     3
100
AcDbCircle
 10
529.208342
 20
171.027689
 30
0.0
 40
3.0
100
AcDbArc
 50
267.0
 51
329.56792
  0
ARC
  5
30E
100
AcDbEntity
  8
LAY-2
  6
CONTINUOUS
 62
     3
100
AcDbCircle
 10
541.691658
 20
171.027689
 30
0.0
 40
3.0
100
AcDbArc
 50
210.43208
 51
273.0
  0
ARC
  5
30F
100
AcDbEntity
  8
LAY-2
  6
CONTINUOUS
 62
     3
100
AcDbCircle
 10
525.75
 20
170.3
 30
0.0
 40
0.3
100
AcDbArc
 50
90.0
 51
180.0
  0
ARC
  5
310
100
AcDbEntity
  8
LAY-2
  6
CONTINUOUS
 62
     3
100
AcDbCircle
 10
525.75
 20
133.9
 30
0.0
 40
0.3
100
AcDbArc
 50
180.0
 51
270.0
  0
ARC
  5
311
100
AcDbEntity
  8
LAY-2
  6
CONTINUOUS
 62
     3
100
AcDbCircle
 10
545.15
 20
133.9
 30
0.0
 40
0.3
100
AcDbArc
 50
270.0
 51
0.0
  0
ARC
  5
312
100
AcDbEntity
  8
LAY-2
  6
CONTINUOUS
 62
     3
100
AcDbCircle
 10
545.15
 20
170.3
 30
0.0
 40
0.3
100
AcDbArc
 50
0.0
 51
90.0
  0
ARC
  5
313
100
AcDbEntity
  8
LAY-2
  6
CONTINUOUS
 62
     3
100
AcDbCircle
 10
541.691658
 20
133.172311
 30
0.0
 40
3.0
100
AcDbArc
 50
87.0
 51
149.56792
  0
LINE
  5
314
100
AcDbEntity
  8
LAY-2
  6
CONTINUOUS
 62
     3
100
AcDbLine
 10
529.051334
 20
136.1682
 30
0.0
 11
527.75
 21
136.1
 31
0.0
  0
ARC
  5
315
100
AcDbEntity
  8
LAY-2
  6
CONTINUOUS
 62
     3
100
AcDbCircle
 10
535.45
 20
136.83897
 30
0.0
 40
4.23897
100
AcDbArc
 50
210.43208
 51
329.56792
  0
ARC
  5
316
100
AcDbEntity
  8
LAY-2
  6
CONTINUOUS
 62
     3
100
AcDbCircle
 10
529.208342
 20
133.172311
 30
0.0
 40
3.0
100
AcDbArc
 50
30.43208
 51
93.0
  0
LINE
  5
317
100
AcDbEntity
  8
LAY-2
  6
CONTINUOUS
 62
     3
100
AcDbLine
 10
541.848666
 20
136.1682
 30
0.0
 11
543.15
 21
136.1
 31
0.0
  0
TEXT
  5
318
100
AcDbEntity
  8
LAY-2
  6
CONTINUOUS
 62
     7
100
AcDbText
 10
86.2
 20
337.5
 30
0.0
 40
5.0
  1
２０Ａ×１４０Ｌ
 41
0.987
  7
EXCADSTD
 72
     5
 11
133.2
 21
337.5
 31
0.0
100
AcDbText
  0
TEXT
  5
319
100
AcDbEntity
  8
LAY-2
  6
CONTINUOUS
 62
     7
100
AcDbText
 10
193.3
 20
337.4
 30
0.0
 40
5.0
  1
２５Ａ×１４０Ｌ
 41
0.987
  7
EXCADSTD
 72
     5
 11
240.3
 21
337.4
 31
0.0
100
AcDbText
  0
TEXT
  5
31A
100
AcDbEntity
  8
LAY-2
  6
CONTINUOUS
 62
     7
100
AcDbText
 10
299.8
 20
337.2
 30
0.0
 40
5.0
  1
３２Ａ×１５０Ｌ
 41
0.987
  7
EXCADSTD
 72
     5
 11
346.8
 21
337.2
 31
0.0
100
AcDbText
  0
TEXT
  5
31B
100
AcDbEntity
  8
LAY-2
  6
CONTINUOUS
 62
     7
100
AcDbText
 10
407.5
 20
336.7
 30
0.0
 40
5.0
  1
４０Ａ×１５０Ｌ
 41
0.987
  7
EXCADSTD
 72
     5
 11
454.5
 21
336.7
 31
0.0
100
AcDbText
  0
TEXT
  5
31C
100
AcDbEntity
  8
LAY-2
  6
CONTINUOUS
 62
     7
100
AcDbText
 10
513.1
 20
337.0
 30
0.0
 40
5.0
  1
５０Ａ×１５０Ｌ
 41
0.987
  7
EXCADSTD
 72
     5
 11
560.1
 21
337.0
 31
0.0
100
AcDbText
  0
TEXT
  5
31D
100
AcDbEntity
  8
LAY-2
  6
CONTINUOUS
 62
     7
100
AcDbText
 10
512.0
 20
262.4
 30
0.0
 40
5.0
  1
１５０Ａ×１５０Ｌ
 41
0.989333
  7
EXCADSTD
 72
     5
 11
565.0
 21
262.4
 31
0.0
100
AcDbText
  0
TEXT
  5
31E
100
AcDbEntity
  8
LAY-2
  6
CONTINUOUS
 62
     7
100
AcDbText
 10
404.4
 20
262.1
 30
0.0
 40
5.0
  1
１２５Ａ×１５０Ｌ
 41
0.989333
  7
EXCADSTD
 72
     5
 11
457.4
 21
262.1
 31
0.0
100
AcDbText
  0
TEXT
  5
31F
100
AcDbEntity
  8
LAY-2
  6
CONTINUOUS
 62
     7
100
AcDbText
 10
297.5
 20
261.7
 30
0.0
 40
5.0
  1
１００Ａ×１５０Ｌ
 41
0.989333
  7
EXCADSTD
 72
     5
 11
350.5
 21
261.7
 31
0.0
100
AcDbText
  0
TEXT
  5
320
100
AcDbEntity
  8
LAY-2
  6
CONTINUOUS
 62
     7
100
AcDbText
 10
193.0
 20
261.9
 30
0.0
 40
5.0
  1
８０Ａ×１５０Ｌ
 41
0.987
  7
EXCADSTD
 72
     5
 11
240.0
 21
261.9
 31
0.0
100
AcDbText
  0
TEXT
  5
321
100
AcDbEntity
  8
LAY-2
  6
CONTINUOUS
 62
     7
100
AcDbText
 10
87.2
 20
261.7
 30
0.0
 40
5.0
  1
６５Ａ×１５０Ｌ
 41
0.987
  7
EXCADSTD
 72
     5
 11
134.2
 21
261.7
 31
0.0
100
AcDbText
  0
TEXT
  5
322
100
AcDbEntity
  8
LAY-2
  6
CONTINUOUS
 62
     7
100
AcDbText
 10
82.6
 20
187.9
 30
0.0
 40
5.0
  1
１５０Ａ×２００Ｌ
 41
0.989333
  7
EXCADSTD
 72
     5
 11
135.6
 21
187.9
 31
0.0
100
AcDbText
  0
TEXT
  5
323
100
AcDbEntity
  8
LAY-2
  6
CONTINUOUS
 62
     7
100
AcDbText
 10
190.7
 20
186.8
 30
0.0
 40
5.0
  1
２００Ａ×１５０Ｌ
 41
0.989333
  7
EXCADSTD
 72
     5
 11
243.7
 21
186.8
 31
0.0
100
AcDbText
  0
TEXT
  5
324
100
AcDbEntity
  8
LAY-2
  6
CONTINUOUS
 62
     7
100
AcDbText
 10
296.1
 20
187.3
 30
0.0
 40
5.0
  1
２００Ａ×２００Ｌ
 41
0.989333
  7
EXCADSTD
 72
     5
 11
349.1
 21
187.3
 31
0.0
100
AcDbText
  0
TEXT
  5
325
100
AcDbEntity
  8
LAY-2
  6
CONTINUOUS
 62
     7
100
AcDbText
 10
404.6
 20
187.1
 30
0.0
 40
5.0
  1
２５０Ａ×２００Ｌ
 41
0.989333
  7
EXCADSTD
 72
     5
 11
457.6
 21
187.1
 31
0.0
100
AcDbText
  0
TEXT
  5
326
100
AcDbEntity
  8
LAY-2
  6
CONTINUOUS
 62
     7
100
AcDbText
 10
510.2
 20
187.6
 30
0.0
 40
5.0
  1
３００Ａ×２００Ｌ
 41
0.989333
  7
EXCADSTD
 72
     5
 11
563.2
 21
187.6
 31
0.0
100
AcDbText
  0
LINE
  5
327
100
AcDbEntity
  8
LAY-2
  6
CONTINUOUS
 62
     2
100
AcDbLine
 10
57.1
 20
405.9
 30
0.0
 11
590.6
 21
405.9
 31
0.0
  0
LINE
  5
328
100
AcDbEntity
  8
LAY-2
  6
CONTINUOUS
 62
     2
100
AcDbLine
 10
590.6
 20
405.9
 30
0.0
 11
590.6
 21
44.8
 31
0.0
  0
LINE
  5
329
100
AcDbEntity
  8
LAY-2
  6
CONTINUOUS
 62
     2
100
AcDbLine
 10
590.6
 20
44.8
 30
0.0
 11
57.1
 21
44.8
 31
0.0
  0
LINE
  5
32A
100
AcDbEntity
  8
LAY-2
  6
CONTINUOUS
 62
     2
100
AcDbLine
 10
57.1
 20
44.8
 30
0.0
 11
57.1
 21
405.9
 31
0.0
  0
LINE
  5
32B
100
AcDbEntity
  8
LAY-2
  6
CONTINUOUS
 62
     2
100
AcDbLine
 10
590.6
 20
109.8
 30
0.0
 11
57.1
 21
109.8
 31
0.0
  0
LINE
  5
32C
100
AcDbEntity
  8
LAY-2
  6
CONTINUOUS
 62
     2
100
AcDbLine
 10
590.6
 20
119.8
 30
0.0
 11
57.1
 21
119.8
 31
0.0
  0
LINE
  5
32D
100
AcDbEntity
  8
LAY-2
  6
CONTINUOUS
 62
     2
100
AcDbLine
 10
590.6
 20
184.8
 30
0.0
 11
57.1
 21
184.8
 31
0.0
  0
LINE
  5
32E
100
AcDbEntity
  8
LAY-2
  6
CONTINUOUS
 62
     2
100
AcDbLine
 10
590.6
 20
194.8
 30
0.0
 11
57.1
 21
194.8
 31
0.0
  0
LINE
  5
32F
100
AcDbEntity
  8
LAY-2
  6
CONTINUOUS
 62
     2
100
AcDbLine
 10
590.6
 20
259.8
 30
0.0
 11
57.1
 21
259.8
 31
0.0
  0
LINE
  5
330
100
AcDbEntity
  8
LAY-2
  6
CONTINUOUS
 62
     2
100
AcDbLine
 10
590.6
 20
269.8
 30
0.0
 11
57.1
 21
269.8
 31
0.0
  0
LINE
  5
331
100
AcDbEntity
  8
LAY-2
  6
CONTINUOUS
 62
     2
100
AcDbLine
 10
590.6
 20
334.8
 30
0.0
 11
57.1
 21
334.8
 31
0.0
  0
LINE
  5
332
100
AcDbEntity
  8
LAY-2
  6
CONTINUOUS
 62
     2
100
AcDbLine
 10
590.6
 20
344.8
 30
0.0
 11
57.1
 21
344.8
 31
0.0
  0
POINT
  5
333
100
AcDbEntity
  8
LAY-2
  6
CONTINUOUS
 62
     2
100
AcDbPoint
 10
483.9
 20
344.8
 30
0.0
  0
POINT
  5
334
100
AcDbEntity
  8
LAY-2
  6
CONTINUOUS
 62
     2
100
AcDbPoint
 10
377.2
 20
344.8
 30
0.0
  0
POINT
  5
335
100
AcDbEntity
  8
LAY-2
  6
CONTINUOUS
 62
     2
100
AcDbPoint
 10
270.5
 20
344.8
 30
0.0
  0
POINT
  5
336
100
AcDbEntity
  8
LAY-2
  6
CONTINUOUS
 62
     2
100
AcDbPoint
 10
163.8
 20
344.8
 30
0.0
  0
LINE
  5
337
100
AcDbEntity
  8
LAY-2
  6
CONTINUOUS
 62
     2
100
AcDbLine
 10
163.8
 20
344.8
 30
0.0
 11
163.8
 21
44.8
 31
0.0
  0
LINE
  5
338
100
AcDbEntity
  8
LAY-2
  6
CONTINUOUS
 62
     2
100
AcDbLine
 10
270.5
 20
344.8
 30
0.0
 11
270.5
 21
44.8
 31
0.0
  0
LINE
  5
339
100
AcDbEntity
  8
LAY-2
  6
CONTINUOUS
 62
     2
100
AcDbLine
 10
377.2
 20
344.8
 30
0.0
 11
377.2
 21
44.8
 31
0.0
  0
LINE
  5
33A
100
AcDbEntity
  8
LAY-2
  6
CONTINUOUS
 62
     2
100
AcDbLine
 10
483.9
 20
344.8
 30
0.0
 11
483.9
 21
44.8
 31
0.0
  0
LINE
  5
33B
100
AcDbEntity
  8
LAY-2
  6
CONTINUOUS
 62
     3
100
AcDbLine
 10
102.55
 20
160.9
 30
0.0
 11
105.186408
 21
160.9
 31
0.0
  0
ARC
  5
33C
100
AcDbEntity
  8
LAY-2
  6
CONTINUOUS
 62
     3
100
AcDbCircle
 10
110.45
 20
160.582302
 30
0.0
 40
3.117698
100
AcDbArc
 50
49.492853
 51
133.682643
  0
LINE
  5
33D
100
AcDbEntity
  8
LAY-2
  6
CONTINUOUS
 62
     3
100
AcDbLine
 10
112.475079
 20
162.952765
 30
0.0
 11
114.12046
 21
161.547123
 31
0.0
  0
LINE
  5
33E
100
AcDbEntity
  8
LAY-2
  6
CONTINUOUS
 62
     3
100
AcDbLine
 10
107.051199
 20
161.647424
 30
0.0
 11
108.29672
 21
162.836947
 31
0.0
  0
LINE
  5
33F
100
AcDbEntity
  8
LAY-2
  6
CONTINUOUS
 62
     3
100
AcDbLine
 10
115.874225
 20
160.9
 30
0.0
 11
118.35
 21
160.9
 31
0.0
  0
ARC
  5
340
100
AcDbEntity
  8
LAY-2
  6
CONTINUOUS
 62
     3
100
AcDbCircle
 10
105.186408
 20
163.6
 30
0.0
 40
2.7
100
AcDbArc
 50
270.0
 51
313.682643
  0
ARC
  5
341
100
AcDbEntity
  8
LAY-2
  6
CONTINUOUS
 62
     3
100
AcDbCircle
 10
115.874225
 20
163.6
 30
0.0
 40
2.7
100
AcDbArc
 50
229.492853
 51
270.0
  0
ARC
  5
342
100
AcDbEntity
  8
LAY-2
  6
CONTINUOUS
 62
     3
100
AcDbCircle
 10
110.45
 20
144.217698
 30
0.0
 40
3.117698
100
AcDbArc
 50
229.492853
 51
313.682643
  0
LINE
  5
343
100
AcDbEntity
  8
LAY-2
  6
CONTINUOUS
 62
     3
100
AcDbLine
 10
113.848801
 20
143.152576
 30
0.0
 11
112.60328
 21
141.963053
 31
0.0
  0
ARC
  5
344
100
AcDbEntity
  8
LAY-2
  6
CONTINUOUS
 62
     3
100
AcDbCircle
 10
115.713592
 20
141.2
 30
0.0
 40
2.7
100
AcDbArc
 50
90.0
 51
133.682643
  0
LINE
  5
345
100
AcDbEntity
  8
LAY-2
  6
CONTINUOUS
 62
     3
100
AcDbLine
 10
108.424921
 20
141.847235
 30
0.0
 11
106.77954
 21
143.252877
 31
0.0
  0
ARC
  5
346
100
AcDbEntity
  8
LAY-2
  6
CONTINUOUS
 62
     3
100
AcDbCircle
 10
105.025775
 20
141.2
 30
0.0
 40
2.7
100
AcDbArc
 50
49.492853
 51
90.0
  0
LINE
  5
347
100
AcDbEntity
  8
LAY-2
  6
CONTINUOUS
 62
     3
100
AcDbLine
 10
105.025775
 20
143.9
 30
0.0
 11
102.55
 21
143.9
 31
0.0
  0
LINE
  5
348
100
AcDbEntity
  8
LAY-2
  6
CONTINUOUS
 62
     3
100
AcDbLine
 10
118.35
 20
143.9
 30
0.0
 11
115.713592
 21
143.9
 31
0.0
  0
TEXT
  5
34A
100
AcDbEntity
  8
LAY-2
  6
CONTINUOUS
 62
     1
100
AcDbText
 10
65.95
 20
-6.2
 30
0.0
 40
11.25
  1
スケールは１／１０となっています。必要に応じてサイズを１０倍して下さい。
 41
0.966667
  7
EXCADTTF1
 72
     5
 11
588.45
 21
-6.2
 31
0.0
100
AcDbText
  0
TEXT
  5
34B
100
AcDbEntity
  8
LAY-2
  6
CONTINUOUS
 62
     7
100
AcDbText
 10
271.8
 20
366.8
 30
0.0
 40
20.0
  1
ト－ゼンフレックス
 41
0.877333
  7
EXCADSTD
 72
     5
 11
459.800004
 21
366.8
 31
0.0
100
AcDbText
  0
LINE
  5
34C
100
AcDbEntity
  8
LAY-2
  6
CONTINUOUS
 62
     2
100
AcDbLine
 10
194.2
 20
379.2
 30
0.0
 11
194.2
 21
370.575
 31
0.0
  0
LINE
  5
34D
100
AcDbEntity
  8
LAY-2
  6
CONTINUOUS
 62
     2
100
AcDbLine
 10
196.825
 20
379.2
 30
0.0
 11
196.825
 21
370.575
 31
0.0
  0
CIRCLE
  5
34E
100
AcDbEntity
  8
LAY-2
  6
CONTINUOUS
 62
     2
100
AcDbCircle
 10
207.7
 20
376.2
 30
0.0
 40
3.975
  0
CIRCLE
  5
34F
100
AcDbEntity
  8
LAY-2
  6
CONTINUOUS
 62
     2
100
AcDbCircle
 10
207.7
 20
376.2
 30
0.0
 40
5.25
  0
CIRCLE
  5
350
100
AcDbEntity
  8
LAY-2
  6
CONTINUOUS
 62
     2
100
AcDbCircle
 10
207.7
 20
376.2
 30
0.0
 40
7.95
  0
LINE
  5
351
100
AcDbEntity
  8
LAY-2
  6
CONTINUOUS
 62
     2
100
AcDbLine
 10
188.95
 20
381.825
 30
0.0
 11
188.95
 21
379.2
 31
0.0
  0
LINE
  5
352
100
AcDbEntity
  8
LAY-2
  6
CONTINUOUS
 62
     2
100
AcDbLine
 10
194.2
 20
370.575
 30
0.0
 11
196.825
 21
370.575
 31
0.0
  0
ARC
  5
353
100
AcDbEntity
  8
LAY-2
  6
CONTINUOUS
 62
     2
100
AcDbCircle
 10
207.7
 20
376.2
 30
0.0
 40
8.722445
100
AcDbArc
 50
139.842723
 51
159.882882
  0
ARC
  5
354
100
AcDbEntity
  8
LAY-2
  6
CONTINUOUS
 62
     2
100
AcDbCircle
 10
207.7
 20
376.2
 30
0.0
 40
8.722445
100
AcDbArc
 50
20.117118
 51
40.157277
  0
LINE
  5
355
100
AcDbEntity
  8
LAY-2
  6
CONTINUOUS
 62
     2
100
AcDbLine
 10
223.45
 20
373.2
 30
0.0
 11
223.45
 21
370.575
 31
0.0
  0
LINE
  5
356
100
AcDbEntity
  8
LAY-2
  6
CONTINUOUS
 62
     2
100
AcDbLine
 10
223.45
 20
381.825
 30
0.0
 11
223.45
 21
379.2
 31
0.0
  0
ARC
  5
357
100
AcDbEntity
  8
LAY-2
  6
CONTINUOUS
 62
     2
100
AcDbCircle
 10
207.7
 20
376.2
 30
0.0
 40
8.722445
100
AcDbArc
 50
319.842723
 51
348.135428
  0
LINE
  5
358
100
AcDbEntity
  8
LAY-2
  6
CONTINUOUS
 62
     2
100
AcDbLine
 10
223.45
 20
379.2
 30
0.0
 11
218.041006
 21
373.2
 31
0.0
  0
LINE
  5
359
100
AcDbEntity
  8
LAY-2
  6
CONTINUOUS
 62
     2
100
AcDbLine
 10
220.557281
 20
379.2
 30
0.0
 11
216.236102
 21
374.406673
 31
0.0
  0
LINE
  5
35A
100
AcDbEntity
  8
LAY-2
  6
CONTINUOUS
 62
     2
100
AcDbLine
 10
224.725
 20
381.825
 30
0.0
 11
224.725
 21
370.575
 31
0.0
  0
LINE
  5
35B
100
AcDbEntity
  8
LAY-2
  6
CONTINUOUS
 62
     2
100
AcDbLine
 10
227.35
 20
377.325
 30
0.0
 11
234.775
 21
377.325
 31
0.0
  0
LINE
  5
35C
100
AcDbEntity
  8
LAY-2
  6
CONTINUOUS
 62
     2
100
AcDbLine
 10
227.35
 20
375.075
 30
0.0
 11
234.775
 21
375.075
 31
0.0
  0
LINE
  5
35D
100
AcDbEntity
  8
LAY-2
  6
CONTINUOUS
 62
     2
100
AcDbLine
 10
235.9
 20
381.825
 30
0.0
 11
235.9
 21
370.575
 31
0.0
  0
LINE
  5
35E
100
AcDbEntity
  8
LAY-2
  6
CONTINUOUS
 62
     2
100
AcDbLine
 10
246.25
 20
381.825
 30
0.0
 11
246.25
 21
370.575
 31
0.0
  0
LINE
  5
35F
100
AcDbEntity
  8
LAY-2
  6
CONTINUOUS
 62
     2
100
AcDbLine
 10
243.7
 20
370.575
 30
0.0
 11
238.45
 21
378.552654
 31
0.0
  0
LINE
  5
360
100
AcDbEntity
  8
LAY-2
  6
CONTINUOUS
 62
     2
100
AcDbLine
 10
238.45
 20
381.825
 30
0.0
 11
243.7
 21
373.847346
 31
0.0
  0
LINE
  5
361
100
AcDbEntity
  8
LAY-2
  6
CONTINUOUS
 62
     2
100
AcDbLine
 10
234.775
 20
381.825
 30
0.0
 11
234.775
 21
379.2
 31
0.0
  0
LINE
  5
362
100
AcDbEntity
  8
LAY-2
  6
CONTINUOUS
 62
     2
100
AcDbLine
 10
234.775
 20
377.325
 30
0.0
 11
234.775
 21
375.075
 31
0.0
  0
LINE
  5
363
100
AcDbEntity
  8
LAY-2
  6
CONTINUOUS
 62
     2
100
AcDbLine
 10
234.775
 20
373.2
 30
0.0
 11
234.775
 21
370.575
 31
0.0
  0
LINE
  5
364
100
AcDbEntity
  8
LAY-2
  6
CONTINUOUS
 62
     2
100
AcDbLine
 10
227.35
 20
379.2
 30
0.0
 11
234.775
 21
379.2
 31
0.0
  0
LINE
  5
365
100
AcDbEntity
  8
LAY-2
  6
CONTINUOUS
 62
     2
100
AcDbLine
 10
224.725
 20
381.825
 30
0.0
 11
234.775
 21
381.825
 31
0.0
  0
LINE
  5
366
100
AcDbEntity
  8
LAY-2
  6
CONTINUOUS
 62
     2
100
AcDbLine
 10
227.35
 20
375.075
 30
0.0
 11
227.35
 21
373.2
 31
0.0
  0
LINE
  5
367
100
AcDbEntity
  8
LAY-2
  6
CONTINUOUS
 62
     2
100
AcDbLine
 10
224.725
 20
370.575
 30
0.0
 11
234.775
 21
370.575
 31
0.0
  0
LINE
  5
368
100
AcDbEntity
  8
LAY-2
  6
CONTINUOUS
 62
     2
100
AcDbLine
 10
227.35
 20
373.2
 30
0.0
 11
234.775
 21
373.2
 31
0.0
  0
LINE
  5
369
100
AcDbEntity
  8
LAY-2
  6
CONTINUOUS
 62
     2
100
AcDbLine
 10
238.45
 20
378.552654
 30
0.0
 11
238.45
 21
370.575
 31
0.0
  0
LINE
  5
36A
100
AcDbEntity
  8
LAY-2
  6
CONTINUOUS
 62
     2
100
AcDbLine
 10
235.9
 20
381.825
 30
0.0
 11
238.45
 21
381.825
 31
0.0
  0
LINE
  5
36B
100
AcDbEntity
  8
LAY-2
  6
CONTINUOUS
 62
     2
100
AcDbLine
 10
243.7
 20
381.825
 30
0.0
 11
246.25
 21
381.825
 31
0.0
  0
LINE
  5
36C
100
AcDbEntity
  8
LAY-2
  6
CONTINUOUS
 62
     2
100
AcDbLine
 10
235.9
 20
370.575
 30
0.0
 11
238.45
 21
370.575
 31
0.0
  0
LINE
  5
36D
100
AcDbEntity
  8
LAY-2
  6
CONTINUOUS
 62
     2
100
AcDbLine
 10
243.7
 20
370.575
 30
0.0
 11
246.25
 21
370.575
 31
0.0
  0
LINE
  5
36E
100
AcDbEntity
  8
LAY-2
  6
CONTINUOUS
 62
     2
100
AcDbLine
 10
243.7
 20
381.825
 30
0.0
 11
243.7
 21
373.847346
 31
0.0
  0
LINE
  5
36F
100
AcDbEntity
  8
LAY-2
  6
CONTINUOUS
 62
     2
100
AcDbLine
 10
188.95
 20
379.2
 30
0.0
 11
194.2
 21
379.2
 31
0.0
  0
LINE
  5
370
100
AcDbEntity
  8
LAY-2
  6
CONTINUOUS
 62
     2
100
AcDbLine
 10
196.825
 20
379.2
 30
0.0
 11
199.509698
 21
379.2
 31
0.0
  0
LINE
  5
371
100
AcDbEntity
  8
LAY-2
  6
CONTINUOUS
 62
     2
100
AcDbLine
 10
188.95
 20
381.825
 30
0.0
 11
201.033635
 21
381.825
 31
0.0
  0
LINE
  5
372
100
AcDbEntity
  8
LAY-2
  6
CONTINUOUS
 62
     2
100
AcDbLine
 10
214.366365
 20
381.825
 30
0.0
 11
223.45
 21
381.825
 31
0.0
  0
LINE
  5
373
100
AcDbEntity
  8
LAY-2
  6
CONTINUOUS
 62
     2
100
AcDbLine
 10
215.890302
 20
379.2
 30
0.0
 11
220.557281
 21
379.2
 31
0.0
  0
LINE
  5
374
100
AcDbEntity
  8
LAY-2
  6
CONTINUOUS
 62
     2
100
AcDbLine
 10
214.366365
 20
370.575
 30
0.0
 11
223.45
 21
370.575
 31
0.0
  0
LINE
  5
375
100
AcDbEntity
  8
LAY-2
  6
CONTINUOUS
 62
     2
100
AcDbLine
 10
218.041006
 20
373.2
 30
0.0
 11
223.45
 21
373.2
 31
0.0
  0
LINE
  5
376
100
AcDbEntity
  8
LAY-2
  6
CONTINUOUS
 62
     2
100
AcDbLine
 10
227.35
 20
379.2
 30
0.0
 11
227.35
 21
377.325
 31
0.0
  0
ENDSEC
  0
SECTION
  2
OBJECTS
  0
DICTIONARY
  5
19
100
AcDbDictionary
  3
ACAD_GROUP
350
1A
  3
ACAD_MLINESTYLE
350
1B
  0
DICTIONARY
  5
1A
102
{ACAD_REACTORS
330
19
102
}
100
AcDbDictionary
  0
DICTIONARY
  5
1B
102
{ACAD_REACTORS
330
19
102
}
100
AcDbDictionary
  3
STANDARD
350
1C
  0
MLINESTYLE
  5
1C
102
{ACAD_REACTORS
330
1B
102
}
100
AcDbMlineStyle
  2
Standard
 70
     0
  3

 62
     0
 51
90.0
 52
90.0
 71
     2
 49
0.5
 62
   256
  6
ByLayer
 49
-0.5
 62
   256
  6
ByLayer
  0
ENDSEC
  0
EOF
