  0
SECTION
  2
HEADER
  9
$ACADVER
  1
AC1014
  9
$ACADMAINTVER
 70
     0
  9
$DWGCODEPAGE
  3
DOS932
  9
$INSBASE
 10
0.0
 20
0.0
 30
0.0
  9
$EXTMIN
 10
28.9
 20
-31.4
 30
0.0
  9
$EXTMAX
 10
809.0
 20
572.0
 30
0.0
  9
$LIMMIN
 10
0.0
 20
0.0
  9
$LIMMAX
 10
841.0
 20
594.0
  9
$ORTHOMODE
 70
     0
  9
$REGENMODE
 70
     1
  9
$FILLMODE
 70
     1
  9
$QTEXTMODE
 70
     0
  9
$MIRRTEXT
 70
     1
  9
$DRAGMODE
 70
     2
  9
$LTSCALE
 40
1.0
  9
$OSMODE
 70
     0
  9
$ATTMODE
 70
     1
  9
$TEXTSIZE
 40
0.2
  9
$TRACEWID
 40
0.05
  9
$TEXTSTYLE
  7
STANDARD
  9
$CLAYER
  8
LAY-3
  9
$CELTYPE
  6
CONTINUOUS
  9
$CECOLOR
 62
   256
  9
$CELTSCALE
 40
1.0
  9
$DELOBJ
 70
     1
  9
$DISPSILH
 70
     0
  9
$DIMSCALE
 40
1.0
  9
$DIMASZ
 40
0.18
  9
$DIMEXO
 40
0.0625
  9
$DIMDLI
 40
0.38
  9
$DIMRND
 40
0.0
  9
$DIMDLE
 40
0.0
  9
$DIMEXE
 40
0.18
  9
$DIMTP
 40
0.0
  9
$DIMTM
 40
0.0
  9
$DIMTXT
 40
0.18
  9
$DIMCEN
 40
0.09
  9
$DIMTSZ
 40
0.0
  9
$DIMTOL
 70
     0
  9
$DIMLIM
 70
     0
  9
$DIMTIH
 70
     1
  9
$DIMTOH
 70
     1
  9
$DIMSE1
 70
     0
  9
$DIMSE2
 70
     0
  9
$DIMTAD
 70
     0
  9
$DIMZIN
 70
     0
  9
$DIMBLK
  1

  9
$DIMASO
 70
     1
  9
$DIMSHO
 70
     1
  9
$DIMPOST
  1

  9
$DIMAPOST
  1

  9
$DIMALT
 70
     0
  9
$DIMALTD
 70
     2
  9
$DIMALTF
 40
25.4
  9
$DIMLFAC
 40
1.0
  9
$DIMTOFL
 70
     0
  9
$DIMTVP
 40
0.0
  9
$DIMTIX
 70
     0
  9
$DIMSOXD
 70
     0
  9
$DIMSAH
 70
     0
  9
$DIMBLK1
  1

  9
$DIMBLK2
  1

  9
$DIMSTYLE
  2
STANDARD
  9
$DIMCLRD
 70
     0
  9
$DIMCLRE
 70
     0
  9
$DIMCLRT
 70
     0
  9
$DIMTFAC
 40
1.0
  9
$DIMGAP
 40
0.09
  9
$DIMJUST
 70
     0
  9
$DIMSD1
 70
     0
  9
$DIMSD2
 70
     0
  9
$DIMTOLJ
 70
     1
  9
$DIMTZIN
 70
     0
  9
$DIMALTZ
 70
     0
  9
$DIMALTTZ
 70
     0
  9
$DIMFIT
 70
     3
  9
$DIMUPT
 70
     0
  9
$DIMUNIT
 70
     2
  9
$DIMDEC
 70
     4
  9
$DIMTDEC
 70
     4
  9
$DIMALTU
 70
     2
  9
$DIMALTTD
 70
     2
  9
$DIMTXSTY
  7
STANDARD
  9
$DIMAUNIT
 70
     0
  9
$LUNITS
 70
     2
  9
$LUPREC
 70
     4
  9
$SKETCHINC
 40
0.1
  9
$FILLETRAD
 40
0.0
  9
$AUNITS
 70
     0
  9
$AUPREC
 70
     0
  9
$MENU
  1
acad
  9
$ELEVATION
 40
0.0
  9
$PELEVATION
 40
0.0
  9
$THICKNESS
 40
0.0
  9
$LIMCHECK
 70
     0
  9
$BLIPMODE
 70
     1
  9
$CHAMFERA
 40
0.0
  9
$CHAMFERB
 40
0.0
  9
$CHAMFERC
 40
0.0
  9
$CHAMFERD
 40
0.0
  9
$SKPOLY
 70
     0
  9
$TDCREATE
 40
2453468.442798125
  9
$TDUPDATE
 40
2453468.442798125
  9
$TDINDWG
 40
0.0000000000
  9
$TDUSRTIMER
 40
0.0000000000
  9
$USRTIMER
 70
     1
  9
$ANGBASE
 50
0.0
  9
$ANGDIR
 70
     0
  9
$PDMODE
 70
     0
  9
$PDSIZE
 40
0.0
  9
$PLINEWID
 40
0.0
  9
$COORDS
 70
     1
  9
$SPLFRAME
 70
     0
  9
$SPLINETYPE
 70
     6
  9
$SPLINESEGS
 70
     8
  9
$ATTDIA
 70
     0
  9
$ATTREQ
 70
     1
  9
$HANDLING
 70
     1
  9
$HANDSEED
  5
77B
  9
$SURFTAB1
 70
     6
  9
$SURFTAB2
 70
     6
  9
$SURFTYPE
 70
     6
  9
$SURFU
 70
     6
  9
$SURFV
 70
     6
  9
$UCSNAME
  2

  9
$UCSORG
 10
0.0
 20
0.0
 30
0.0
  9
$UCSXDIR
 10
1.0
 20
0.0
 30
0.0
  9
$UCSYDIR
 10
0.0
 20
1.0
 30
0.0
  9
$PUCSNAME
  2

  9
$PUCSORG
 10
0.0
 20
0.0
 30
0.0
  9
$PUCSXDIR
 10
1.0
 20
0.0
 30
0.0
  9
$PUCSYDIR
 10
0.0
 20
1.0
 30
0.0
  9
$USERI1
 70
     0
  9
$USERI2
 70
     0
  9
$USERI3
 70
     0
  9
$USERI4
 70
     0
  9
$USERI5
 70
     0
  9
$USERR1
 40
0.0
  9
$USERR2
 40
0.0
  9
$USERR3
 40
0.0
  9
$USERR4
 40
0.0
  9
$USERR5
 40
0.0
  9
$WORLDVIEW
 70
     1
  9
$SHADEDGE
 70
     3
  9
$SHADEDIF
 70
    70
  9
$TILEMODE
 70
     1
  9
$MAXACTVP
 70
    16
  9
$PINSBASE
 10
0.0
 20
0.0
 30
0.0
  9
$PLIMCHECK
 70
     0
  9
$PEXTMIN
 10
1.000000E+20
 20
1.000000E+20
 30
1.000000E+20
  9
$PEXTMAX
 10
-1.000000E+20
 20
-1.000000E+20
 30
-1.000000E+20
  9
$PLIMMIN
 10
0.0
 20
0.0
  9
$PLIMMAX
 10
12.0
 20
9.0
  9
$UNITMODE
 70
     0
  9
$VISRETAIN
 70
     0
  9
$PLINEGEN
 70
     1
  9
$PSLTSCALE
 70
     0
  9
$TREEDEPTH
 70
  3020
  9
$PICKSTYLE
 70
     1
  9
$CMLSTYLE
  2
Standard
  9
$CMLJUST
 70
     0
  9
$CMLSCALE
 40
1.0
  9
$PROXYGRAPHICS
 70
     0
  9
$MEASUREMENT
 70
     0
  0
ENDSEC
  0
SECTION
  2
CLASSES
  0
CLASS
  1
LWPOLYLINE
  2
AcDbPolyline
  3
"AutoCAD"
 90
        0
280
     0
281
     1
  0
CLASS
  1
IMAGE
  2
AcDbRasterImage
  3
ISM
 90
      127
280
     0
281
     1
  0
CLASS
  1
OLE2FRAME
  2
AcDbOle2Frame
  3
""
 90
        0
280
     0
281
     1
  0
CLASS
  1
HATCH
  2
AcDbHatch
  3
"ACAD_SEDONA"
 90
        0
280
     0
281
     1
  0
CLASS
  1
DICTIONARYVAR
  2
AcDbDictionaryVar
  3
"AutoCAD"
 90
        0
280
     0
281
     0
  0
CLASS
  1
RASTERVARIABLES
  2
AcDbRasterVariables
  3
ISM
 90
        0
280
     0
281
     0
  0
CLASS
  1
IMAGEDEF
  2
AcDbRasterImageDef
  3
ISM
 90
        0
280
     0
281
     0
  0
CLASS
  1
IMAGEDEF_REACTOR
  2
AcDbRasterImageDefReactor
  3
ISM
 90
        1
280
     0
281
     0
  0
CLASS
  1
IDBUFFER
  2
AcDbIdBuffer
  3
"Acad"
 90
        0
280
     0
281
     0
  0
CLASS
  1
SPATIAL_FILTER
  2
AcDbSpatialFilter
  3
"Acad"
 90
        0
280
     0
281
     0
  0
CLASS
  1
XRECORD
  2
AcDbXrecord
  3
"<Built In>"
 90
        0
280
     0
281
     0
  0
CLASS
  1
SORTENTSTABLE
  2
AcDbSortentsTable
  3
"AutoCAD"
 90
        0
280
     0
281
     0
  0
CLASS
  1
LAYER_INDEX
  2
AcDbLayerIndex
  3
"Acad"
 90
        0
280
     0
281
     0
  0
CLASS
  1
SPATIAL_INDEX
  2
AcDbSpatialIndex
  3
"Acad"
 90
        0
280
     0
281
     0
  0
CLASS
  1
OBJECT_PTR
  2
CAseDLPNTableRecord
  3
"ASE-LPNTableRecord"
 90
        1
280
     0
281
     0
  0
CLASS
  1
LAYOUT
  2
AcDbLayout
  3
"AutoCAD 2000"
 90
        1
280
     0
281
     0
  0
CLASS
  1
PLOTSETTINGS
  2
AcDbPlotSettings
  3
"AutoCAD 2000"
 90
        1
280
     0
281
     0
  0
CLASS
  1
ACDBDICTIONARYWDFLT
  2
AcDbDictionaryWithDefault
  3
"AutoCAD 2000"
 90
        1
280
     0
281
     0
  0
CLASS
  1
ACDBPLACEHOLDER
  2
AcDbPlaceHolder
  3
"AutoCAD 2000"
 90
        1
280
     0
281
     0
  0
CLASS
  1
VBA_PROJECT
  2
AcDbVbaProject
  3
"acadvba"
 90
        1
280
     0
281
     0
  0
CLASS
  1
WIPEOUT
  2
AcDbWipeout
  3
WipeOut|AutoCAD Express Tool|expresstools@autodesk.com
 90
      127
280
     0
281
     1
  0
CLASS
  1
WIPEOUTVARIABLES
  2
AcDbWipeoutVariables
  3
WipeOut|AutoCAD Express Tool|expresstools@autodesk.com
 90
        0
280
     0
281
     0
  0
CLASS
  1
RTEXT
  2
RText
  3
RText|AutoCAD Express Tool|expresstools@autodesk.com
 90
        0
280
     0
281
     1
  0
CLASS
  1
ARCALIGNEDTEXT
  2
AcDbArcAlignedText
  3
ATEXT|AutoCAD Express Tool|expresstools@autodesk.com
 90
        0
280
     0
281
     1
  0
ENDSEC
  0
SECTION
  2
TABLES
  0
TABLE
  2
VPORT
  5
7
100
AcDbSymbolTable
 70
     1
  0
VPORT
  5
15
100
AcDbSymbolTableRecord
100
AcDbViewportTableRecord
  2
*ACTIVE
 70
     0
 10
0.0
 20
0.0
 11
1.0
 21
1.0
 12
418.95
 22
270.3
 13
0.0
 23
0.0
 14
1.0
 24
1.0
 15
0.0
 25
0.0
 16
0.0
 26
0.0
 36
1.0
 17
0.0
 27
0.0
 37
0.0
 40
603.4
 41
1.722533
 42
50.0
 43
0.0
 44
0.0
 50
0.0
 51
0.0
 71
     0
 72
   100
 73
     1
 74
     1
 75
     0
 76
     0
 77
     0
 78
     0
  0
ENDTAB
  0
TABLE
  2
LTYPE
  5
4
100
AcDbSymbolTable
 70
     9
  0
LTYPE
  5
11
100
AcDbSymbolTableRecord
100
AcDbLinetypeTableRecord
  2
BYBLOCK
 70
    64
  3

 72
    65
 73
     0
 40
0.0
  0
LTYPE
  5
12
100
AcDbSymbolTableRecord
100
AcDbLinetypeTableRecord
  2
BYLAYER
 70
    64
  3

 72
    65
 73
     0
 40
0.0
  0
LTYPE
  5
13
100
AcDbSymbolTableRecord
100
AcDbLinetypeTableRecord
  2
CONTINUOUS
 70
    64
  3
実線
 72
    65
 73
     0
 40
0.0
  0
LTYPE
  5
1D
100
AcDbSymbolTableRecord
100
AcDbLinetypeTableRecord
  2
EXLTYPE1
 70
    64
  3
破線
 72
    65
 73
     2
 40
4.0
 49
3.0
 74
     0
 49
-1.0
 74
     0
  0
LTYPE
  5
1E
100
AcDbSymbolTableRecord
100
AcDbLinetypeTableRecord
  2
EXLTYPE2
 70
    64
  3
点線
 72
    65
 73
     2
 40
2.0
 49
1.0
 74
     0
 49
-1.0
 74
     0
  0
LTYPE
  5
1F
100
AcDbSymbolTableRecord
100
AcDbLinetypeTableRecord
  2
EXLTYPE3
 70
    64
  3
一点鎖線
 72
    65
 73
     4
 40
33.0
 49
30.0
 74
     0
 49
-1.0
 74
     0
 49
1.0
 74
     0
 49
-1.0
 74
     0
  0
LTYPE
  5
20
100
AcDbSymbolTableRecord
100
AcDbLinetypeTableRecord
  2
EXLTYPE4
 70
    64
  3
二点鎖線
 72
    65
 73
     6
 40
35.0
 49
30.0
 74
     0
 49
-1.0
 74
     0
 49
1.0
 74
     0
 49
-1.0
 74
     0
 49
1.0
 74
     0
 49
-1.0
 74
     0
  0
LTYPE
  5
21
100
AcDbSymbolTableRecord
100
AcDbLinetypeTableRecord
  2
EXLTYPE5
 70
    64
  3
三点鎖線
 72
    65
 73
     8
 40
37.0
 49
30.0
 74
     0
 49
-1.0
 74
     0
 49
1.0
 74
     0
 49
-1.0
 74
     0
 49
1.0
 74
     0
 49
-1.0
 74
     0
 49
1.0
 74
     0
 49
-1.0
 74
     0
  0
LTYPE
  5
22
100
AcDbSymbolTableRecord
100
AcDbLinetypeTableRecord
  2
EXLTYPE6
 70
    64
  3
四点鎖線
 72
    65
 73
    10
 40
39.0
 49
30.0
 74
     0
 49
-1.0
 74
     0
 49
1.0
 74
     0
 49
-1.0
 74
     0
 49
1.0
 74
     0
 49
-1.0
 74
     0
 49
1.0
 74
     0
 49
-1.0
 74
     0
 49
1.0
 74
     0
 49
-1.0
 74
     0
  0
ENDTAB
  0
TABLE
  2
LAYER
  5
2
100
AcDbSymbolTable
 70
     4
  0
LAYER
  5
14
100
AcDbSymbolTableRecord
100
AcDbLayerTableRecord
  2
0
 70
     0
 62
     7
  6
CONTINUOUS
  0
LAYER
  5
25
100
AcDbSymbolTableRecord
100
AcDbLayerTableRecord
  2
LAY-1
 70
    64
 62
     7
  6
CONTINUOUS
  0
LAYER
  5
26
100
AcDbSymbolTableRecord
100
AcDbLayerTableRecord
  2
LAY-2
 70
    64
 62
     7
  6
CONTINUOUS
  0
LAYER
  5
27
100
AcDbSymbolTableRecord
100
AcDbLayerTableRecord
  2
LAY-3
 70
    64
 62
     7
  6
CONTINUOUS
  0
ENDTAB
  0
TABLE
  2
STYLE
  5
3
100
AcDbSymbolTable
 70
     4
  0
STYLE
  5
17
100
AcDbSymbolTableRecord
100
AcDbTextStyleTableRecord
  2
STANDARD
 70
     0
 40
0.0
 41
1.0
 50
0.0
 71
     0
 42
0.0
  3
monotxt
  4
extfont
  0
STYLE
  5
23
100
AcDbSymbolTableRecord
100
AcDbTextStyleTableRecord
  2
EXCADSTD
 70
    64
 40
0.0
 41
1.0
 50
0.0
 71
     0
 42
0.2
  3
monotxt
  4
extfont
  0
STYLE
  5
24
100
AcDbSymbolTableRecord
100
AcDbTextStyleTableRecord
  2
EXCADVERT
 70
    68
 40
0.0
 41
1.0
 50
0.0
 71
     0
 42
0.286885
  3
monotxt
  4
extfont
  0
STYLE
  5
60D
100
AcDbSymbolTableRecord
100
AcDbTextStyleTableRecord
  2
EXCADTTF1
 70
    64
 40
0.0
 41
1.0
 50
0.0
 71
     0
 42
0.2
  3
MS Gothic.ttf
  4

1001
ACAD
1000
MS Gothic
1071
    32817
  0
ENDTAB
  0
TABLE
  2
VIEW
  5
5
100
AcDbSymbolTable
 70
     0
  0
ENDTAB
  0
TABLE
  2
UCS
  5
6
100
AcDbSymbolTable
 70
     0
  0
ENDTAB
  0
TABLE
  2
APPID
  5
8
100
AcDbSymbolTable
 70
     1
  0
APPID
  5
16
100
AcDbSymbolTableRecord
100
AcDbRegAppTableRecord
  2
ACAD
 70
     0
  0
ENDTAB
  0
TABLE
  2
DIMSTYLE
  5
9
100
AcDbSymbolTable
 70
     1
  0
DIMSTYLE
105
18
100
AcDbSymbolTableRecord
100
AcDbDimStyleTableRecord
  2
STANDARD
 70
     0
  3

  4

  5

  6

  7

 40
1.0
 41
0.18
 42
0.0625
 43
0.38
 44
0.18
 45
0.0
 46
0.0
 47
0.0
 48
0.0
 71
     0
 72
     0
 73
     1
 74
     1
 75
     0
 76
     0
 77
     0
 78
     0
140
0.18
141
0.09
142
0.0
143
25.4
144
1.0
145
0.0
146
1.0
147
0.09
170
     0
171
     2
172
     0
173
     0
174
     0
175
     0
176
     0
177
     0
178
     0
270
     2
271
     4
272
     4
273
     2
274
     2
275
     0
280
     0
281
     0
282
     0
283
     1
284
     0
285
     0
286
     0
287
     0
288
     0
340
17
  0
ENDTAB
  0
TABLE
  2
BLOCK_RECORD
  5
1
100
AcDbSymbolTable
 70
    14
  0
BLOCK_RECORD
  5
A
100
AcDbSymbolTableRecord
100
AcDbBlockTableRecord
  2
*MODEL_SPACE
  0
BLOCK_RECORD
  5
B
100
AcDbSymbolTableRecord
100
AcDbBlockTableRecord
  2
*PAPER_SPACE
  0
BLOCK_RECORD
  5
28
100
AcDbSymbolTableRecord
100
AcDbBlockTableRecord
  2
_EX_NORM
  0
BLOCK_RECORD
  5
29
100
AcDbSymbolTableRecord
100
AcDbBlockTableRecord
  2
_EX_BNORM
  0
BLOCK_RECORD
  5
2A
100
AcDbSymbolTableRecord
100
AcDbBlockTableRecord
  2
_EX_BCIR
  0
BLOCK_RECORD
  5
2B
100
AcDbSymbolTableRecord
100
AcDbBlockTableRecord
  2
_EX_RCIVIL
  0
BLOCK_RECORD
  5
2C
100
AcDbSymbolTableRecord
100
AcDbBlockTableRecord
  2
_EX_SLANT
  0
BLOCK_RECORD
  5
2D
100
AcDbSymbolTableRecord
100
AcDbBlockTableRecord
  2
_EX_NONE
  0
BLOCK_RECORD
  5
2E
100
AcDbSymbolTableRecord
100
AcDbBlockTableRecord
  2
_EX_CIVIL
  0
BLOCK_RECORD
  5
2F
100
AcDbSymbolTableRecord
100
AcDbBlockTableRecord
  2
_EX_WCIR
  0
BLOCK_RECORD
  5
30
100
AcDbSymbolTableRecord
100
AcDbBlockTableRecord
  2
_EX_WCIR2
  0
BLOCK_RECORD
  5
31
100
AcDbSymbolTableRecord
100
AcDbBlockTableRecord
  2
_EX_WNORM
  0
BLOCK_RECORD
  5
32
100
AcDbSymbolTableRecord
100
AcDbBlockTableRecord
  2
_EX_NNORM
  0
BLOCK_RECORD
  5
33
100
AcDbSymbolTableRecord
100
AcDbBlockTableRecord
  2
_EX_BBOX
  0
BLOCK_RECORD
  5
34
100
AcDbSymbolTableRecord
100
AcDbBlockTableRecord
  2
_EX_WBOX
  0
BLOCK_RECORD
  5
35
100
AcDbSymbolTableRecord
100
AcDbBlockTableRecord
  2
_EX_INTEGRAL
  0
ENDTAB
  0
ENDSEC
  0
SECTION
  2
BLOCKS
  0
BLOCK
  5
D
100
AcDbEntity
  8
0
100
AcDbBlockBegin
  2
*MODEL_SPACE
 70
     0
 10
0.0
 20
0.0
 30
0.0
  3
*MODEL_SPACE
  1

  0
ENDBLK
  5
E
100
AcDbEntity
  8
0
100
AcDbBlockEnd
  0
BLOCK
  5
F
100
AcDbEntity
 67
     1
  8
0
100
AcDbBlockBegin
  2
*PAPER_SPACE
 70
     0
 10
0.0
 20
0.0
 30
0.0
  3
*PAPER_SPACE
  1

  0
ENDBLK
  5
10
100
AcDbEntity
 67
     1
  8
0
100
AcDbBlockEnd
  0
BLOCK
  5
36
100
AcDbEntity
  8
0
100
AcDbBlockBegin
  2
_EX_NORM
 70
     0
 10
0.0
 20
0.0
 30
0.0
  3
_EX_NORM
  1

  0
LINE
  5
37
100
AcDbEntity
  8
0
  6
CONTINUOUS
 62
     0
100
AcDbLine
 10
0.0
 20
0.0
 30
0.0
 11
-1.0
 21
0.0
 31
0.0
  0
LINE
  5
38
100
AcDbEntity
  8
0
  6
CONTINUOUS
 62
     0
100
AcDbLine
 10
0.0
 20
0.0
 30
0.0
 11
-1.0
 21
0.166667
 31
0.0
  0
LINE
  5
39
100
AcDbEntity
  8
0
  6
CONTINUOUS
 62
     0
100
AcDbLine
 10
0.0
 20
0.0
 30
0.0
 11
-1.0
 21
-0.166667
 31
0.0
  0
ENDBLK
  5
3A
100
AcDbEntity
  8
0
100
AcDbBlockEnd
  0
BLOCK
  5
3B
100
AcDbEntity
  8
0
100
AcDbBlockBegin
  2
_EX_BNORM
 70
     0
 10
0.0
 20
0.0
 30
0.0
  3
_EX_BNORM
  1

  0
LINE
  5
3C
100
AcDbEntity
  8
0
  6
CONTINUOUS
 62
     0
100
AcDbLine
 10
0.0
 20
0.0
 30
0.0
 11
-1.0
 21
0.0
 31
0.0
  0
LINE
  5
3D
100
AcDbEntity
  8
0
  6
CONTINUOUS
 62
     0
100
AcDbLine
 10
0.0
 20
0.0
 30
0.0
 11
-1.0
 21
0.166667
 31
0.0
  0
LINE
  5
3E
100
AcDbEntity
  8
0
  6
CONTINUOUS
 62
     0
100
AcDbLine
 10
0.0
 20
0.0
 30
0.0
 11
-1.0
 21
-0.166667
 31
0.0
  0
LINE
  5
3F
100
AcDbEntity
  8
0
  6
CONTINUOUS
 62
     0
100
AcDbLine
 10
0.0
 20
0.0
 30
0.0
 11
-1.0
 21
0.083333
 31
0.0
  0
LINE
  5
40
100
AcDbEntity
  8
0
  6
CONTINUOUS
 62
     0
100
AcDbLine
 10
0.0
 20
0.0
 30
0.0
 11
-1.0
 21
-0.083333
 31
0.0
  0
LINE
  5
41
100
AcDbEntity
  8
0
  6
CONTINUOUS
 62
     0
100
AcDbLine
 10
-1.0
 20
0.166667
 30
0.0
 11
-1.0
 21
-0.166667
 31
0.0
  0
ENDBLK
  5
42
100
AcDbEntity
  8
0
100
AcDbBlockEnd
  0
BLOCK
  5
43
100
AcDbEntity
  8
0
100
AcDbBlockBegin
  2
_EX_BCIR
 70
     0
 10
0.0
 20
0.0
 30
0.0
  3
_EX_BCIR
  1

  0
LINE
  5
44
100
AcDbEntity
  8
0
  6
CONTINUOUS
 62
     0
100
AcDbLine
 10
0.0
 20
0.0
 30
0.0
 11
-1.0
 21
0.0
 31
0.0
  0
CIRCLE
  5
45
100
AcDbEntity
  8
0
  6
CONTINUOUS
 62
     0
100
AcDbCircle
 10
0.0
 20
0.0
 30
0.0
 40
0.5
  0
CIRCLE
  5
46
100
AcDbEntity
  8
0
  6
CONTINUOUS
 62
     0
100
AcDbCircle
 10
0.0
 20
0.0
 30
0.0
 40
0.25
  0
ENDBLK
  5
47
100
AcDbEntity
  8
0
100
AcDbBlockEnd
  0
BLOCK
  5
48
100
AcDbEntity
  8
0
100
AcDbBlockBegin
  2
_EX_RCIVIL
 70
     0
 10
0.0
 20
0.0
 30
0.0
  3
_EX_RCIVIL
  1

  0
LINE
  5
49
100
AcDbEntity
  8
0
  6
CONTINUOUS
 62
     0
100
AcDbLine
 10
0.0
 20
0.0
 30
0.0
 11
-1.0
 21
0.0
 31
0.0
  0
LINE
  5
4A
100
AcDbEntity
  8
0
  6
CONTINUOUS
 62
     0
100
AcDbLine
 10
-1.0
 20
-0.25
 30
0.0
 11
0.0
 21
-0.25
 31
0.0
  0
LINE
  5
4B
100
AcDbEntity
  8
0
  6
CONTINUOUS
 62
     0
100
AcDbLine
 10
-1.0
 20
-0.125
 30
0.0
 11
0.0
 21
-0.125
 31
0.0
  0
ENDBLK
  5
4C
100
AcDbEntity
  8
0
100
AcDbBlockEnd
  0
BLOCK
  5
4D
100
AcDbEntity
  8
0
100
AcDbBlockBegin
  2
_EX_SLANT
 70
     0
 10
0.0
 20
0.0
 30
0.0
  3
_EX_SLANT
  1

  0
LINE
  5
4E
100
AcDbEntity
  8
0
  6
CONTINUOUS
 62
     0
100
AcDbLine
 10
0.0
 20
0.0
 30
0.0
 11
-1.0
 21
0.0
 31
0.0
  0
LINE
  5
4F
100
AcDbEntity
  8
0
  6
CONTINUOUS
 62
     0
100
AcDbLine
 10
0.707107
 20
0.707107
 30
0.0
 11
-0.707107
 21
-0.707107
 31
0.0
  0
ENDBLK
  5
50
100
AcDbEntity
  8
0
100
AcDbBlockEnd
  0
BLOCK
  5
51
100
AcDbEntity
  8
0
100
AcDbBlockBegin
  2
_EX_NONE
 70
     0
 10
0.0
 20
0.0
 30
0.0
  3
_EX_NONE
  1

  0
LINE
  5
52
100
AcDbEntity
  8
0
  6
CONTINUOUS
 62
     0
100
AcDbLine
 10
0.0
 20
0.0
 30
0.0
 11
-1.0
 21
0.0
 31
0.0
  0
ENDBLK
  5
53
100
AcDbEntity
  8
0
100
AcDbBlockEnd
  0
BLOCK
  5
54
100
AcDbEntity
  8
0
100
AcDbBlockBegin
  2
_EX_CIVIL
 70
     0
 10
0.0
 20
0.0
 30
0.0
  3
_EX_CIVIL
  1

  0
LINE
  5
55
100
AcDbEntity
  8
0
  6
CONTINUOUS
 62
     0
100
AcDbLine
 10
0.0
 20
0.0
 30
0.0
 11
-1.0
 21
0.0
 31
0.0
  0
LINE
  5
56
100
AcDbEntity
  8
0
  6
CONTINUOUS
 62
     0
100
AcDbLine
 10
-1.0
 20
0.25
 30
0.0
 11
0.0
 21
0.25
 31
0.0
  0
LINE
  5
57
100
AcDbEntity
  8
0
  6
CONTINUOUS
 62
     0
100
AcDbLine
 10
-1.0
 20
0.125
 30
0.0
 11
0.0
 21
0.125
 31
0.0
  0
ENDBLK
  5
58
100
AcDbEntity
  8
0
100
AcDbBlockEnd
  0
BLOCK
  5
59
100
AcDbEntity
  8
0
100
AcDbBlockBegin
  2
_EX_WCIR
 70
     0
 10
0.0
 20
0.0
 30
0.0
  3
_EX_WCIR
  1

  0
LINE
  5
5A
100
AcDbEntity
  8
0
  6
CONTINUOUS
 62
     0
100
AcDbLine
 10
0.0
 20
0.0
 30
0.0
 11
-1.0
 21
0.0
 31
0.0
  0
CIRCLE
  5
5B
100
AcDbEntity
  8
0
  6
CONTINUOUS
 62
     0
100
AcDbCircle
 10
0.0
 20
0.0
 30
0.0
 40
0.5
  0
ENDBLK
  5
5C
100
AcDbEntity
  8
0
100
AcDbBlockEnd
  0
BLOCK
  5
5D
100
AcDbEntity
  8
0
100
AcDbBlockBegin
  2
_EX_WCIR2
 70
     0
 10
0.0
 20
0.0
 30
0.0
  3
_EX_WCIR2
  1

  0
LINE
  5
5E
100
AcDbEntity
  8
0
  6
CONTINUOUS
 62
     0
100
AcDbLine
 10
-0.5
 20
0.0
 30
0.0
 11
-1.0
 21
0.0
 31
0.0
  0
CIRCLE
  5
5F
100
AcDbEntity
  8
0
  6
CONTINUOUS
 62
     0
100
AcDbCircle
 10
0.0
 20
0.0
 30
0.0
 40
0.5
  0
ENDBLK
  5
60
100
AcDbEntity
  8
0
100
AcDbBlockEnd
  0
BLOCK
  5
61
100
AcDbEntity
  8
0
100
AcDbBlockBegin
  2
_EX_WNORM
 70
     0
 10
0.0
 20
0.0
 30
0.0
  3
_EX_WNORM
  1

  0
LINE
  5
62
100
AcDbEntity
  8
0
  6
CONTINUOUS
 62
     0
100
AcDbLine
 10
-1.0
 20
0.0
 30
0.0
 11
-1.0
 21
0.0
 31
0.0
  0
LINE
  5
63
100
AcDbEntity
  8
0
  6
CONTINUOUS
 62
     0
100
AcDbLine
 10
0.0
 20
0.0
 30
0.0
 11
-1.0
 21
0.166667
 31
0.0
  0
LINE
  5
64
100
AcDbEntity
  8
0
  6
CONTINUOUS
 62
     0
100
AcDbLine
 10
0.0
 20
0.0
 30
0.0
 11
-1.0
 21
-0.166667
 31
0.0
  0
LINE
  5
65
100
AcDbEntity
  8
0
  6
CONTINUOUS
 62
     0
100
AcDbLine
 10
-1.0
 20
0.166667
 30
0.0
 11
-1.0
 21
-0.166667
 31
0.0
  0
ENDBLK
  5
66
100
AcDbEntity
  8
0
100
AcDbBlockEnd
  0
BLOCK
  5
67
100
AcDbEntity
  8
0
100
AcDbBlockBegin
  2
_EX_NNORM
 70
     0
 10
0.0
 20
0.0
 30
0.0
  3
_EX_NNORM
  1

  0
LINE
  5
68
100
AcDbEntity
  8
0
  6
CONTINUOUS
 62
     0
100
AcDbLine
 10
0.0
 20
0.0
 30
0.0
 11
-1.0
 21
0.0
 31
0.0
  0
LINE
  5
69
100
AcDbEntity
  8
0
  6
CONTINUOUS
 62
     0
100
AcDbLine
 10
0.0
 20
0.0
 30
0.0
 11
-1.0
 21
0.166667
 31
0.0
  0
LINE
  5
6A
100
AcDbEntity
  8
0
  6
CONTINUOUS
 62
     0
100
AcDbLine
 10
0.0
 20
0.0
 30
0.0
 11
-1.0
 21
-0.166667
 31
0.0
  0
LINE
  5
6B
100
AcDbEntity
  8
0
  6
CONTINUOUS
 62
     0
100
AcDbLine
 10
-1.0
 20
0.166667
 30
0.0
 11
-1.0
 21
-0.166667
 31
0.0
  0
ENDBLK
  5
6C
100
AcDbEntity
  8
0
100
AcDbBlockEnd
  0
BLOCK
  5
6D
100
AcDbEntity
  8
0
100
AcDbBlockBegin
  2
_EX_BBOX
 70
     0
 10
0.0
 20
0.0
 30
0.0
  3
_EX_BBOX
  1

  0
LINE
  5
6E
100
AcDbEntity
  8
0
  6
CONTINUOUS
 62
     0
100
AcDbLine
 10
0.0
 20
0.0
 30
0.0
 11
-1.0
 21
0.0
 31
0.0
  0
LINE
  5
6F
100
AcDbEntity
  8
0
  6
CONTINUOUS
 62
     0
100
AcDbLine
 10
-0.5
 20
0.5
 30
0.0
 11
0.5
 21
0.5
 31
0.0
  0
LINE
  5
70
100
AcDbEntity
  8
0
  6
CONTINUOUS
 62
     0
100
AcDbLine
 10
0.5
 20
0.5
 30
0.0
 11
0.5
 21
-0.5
 31
0.0
  0
LINE
  5
71
100
AcDbEntity
  8
0
  6
CONTINUOUS
 62
     0
100
AcDbLine
 10
0.5
 20
-0.5
 30
0.0
 11
-0.5
 21
-0.5
 31
0.0
  0
LINE
  5
72
100
AcDbEntity
  8
0
  6
CONTINUOUS
 62
     0
100
AcDbLine
 10
-0.5
 20
-0.5
 30
0.0
 11
-0.5
 21
0.5
 31
0.0
  0
LINE
  5
73
100
AcDbEntity
  8
0
  6
CONTINUOUS
 62
     0
100
AcDbLine
 10
-0.25
 20
0.25
 30
0.0
 11
0.25
 21
0.25
 31
0.0
  0
LINE
  5
74
100
AcDbEntity
  8
0
  6
CONTINUOUS
 62
     0
100
AcDbLine
 10
0.25
 20
0.25
 30
0.0
 11
0.25
 21
-0.25
 31
0.0
  0
LINE
  5
75
100
AcDbEntity
  8
0
  6
CONTINUOUS
 62
     0
100
AcDbLine
 10
0.25
 20
-0.25
 30
0.0
 11
-0.25
 21
-0.25
 31
0.0
  0
LINE
  5
76
100
AcDbEntity
  8
0
  6
CONTINUOUS
 62
     0
100
AcDbLine
 10
-0.25
 20
-0.25
 30
0.0
 11
-0.25
 21
0.25
 31
0.0
  0
ENDBLK
  5
77
100
AcDbEntity
  8
0
100
AcDbBlockEnd
  0
BLOCK
  5
78
100
AcDbEntity
  8
0
100
AcDbBlockBegin
  2
_EX_WBOX
 70
     0
 10
0.0
 20
0.0
 30
0.0
  3
_EX_WBOX
  1

  0
LINE
  5
79
100
AcDbEntity
  8
0
  6
CONTINUOUS
 62
     0
100
AcDbLine
 10
-0.5
 20
0.0
 30
0.0
 11
-1.0
 21
0.0
 31
0.0
  0
LINE
  5
7A
100
AcDbEntity
  8
0
  6
CONTINUOUS
 62
     0
100
AcDbLine
 10
-0.5
 20
0.5
 30
0.0
 11
0.5
 21
0.5
 31
0.0
  0
LINE
  5
7B
100
AcDbEntity
  8
0
  6
CONTINUOUS
 62
     0
100
AcDbLine
 10
0.5
 20
0.5
 30
0.0
 11
0.5
 21
-0.5
 31
0.0
  0
LINE
  5
7C
100
AcDbEntity
  8
0
  6
CONTINUOUS
 62
     0
100
AcDbLine
 10
0.5
 20
-0.5
 30
0.0
 11
-0.5
 21
-0.5
 31
0.0
  0
LINE
  5
7D
100
AcDbEntity
  8
0
  6
CONTINUOUS
 62
     0
100
AcDbLine
 10
-0.5
 20
-0.5
 30
0.0
 11
-0.5
 21
0.5
 31
0.0
  0
ENDBLK
  5
7E
100
AcDbEntity
  8
0
100
AcDbBlockEnd
  0
BLOCK
  5
7F
100
AcDbEntity
  8
0
100
AcDbBlockBegin
  2
_EX_INTEGRAL
 70
     0
 10
0.0
 20
0.0
 30
0.0
  3
_EX_INTEGRAL
  1

  0
LINE
  5
80
100
AcDbEntity
  8
0
  6
CONTINUOUS
 62
     0
100
AcDbLine
 10
0.0
 20
0.0
 30
0.0
 11
-1.0
 21
0.0
 31
0.0
  0
ARC
  5
81
100
AcDbEntity
  8
0
  6
CONTINUOUS
 62
     0
100
AcDbCircle
 10
0.0
 20
0.0
 30
0.0
 40
0.707107
100
AcDbArc
 50
90.0
 51
180.0
  0
ARC
  5
82
100
AcDbEntity
  8
0
  6
CONTINUOUS
 62
     0
100
AcDbCircle
 10
0.0
 20
0.0
 30
0.0
 40
0.707107
100
AcDbArc
 50
270.0
 51
0.0
  0
ENDBLK
  5
83
100
AcDbEntity
  8
0
100
AcDbBlockEnd
  0
ENDSEC
  0
SECTION
  2
ENTITIES
  0
LINE
  5
84
100
AcDbEntity
  8
LAY-1
  6
CONTINUOUS
 62
     2
100
AcDbLine
 10
48.9
 20
10.2
 30
0.0
 11
829.0
 21
10.2
 31
0.0
  0
LINE
  5
85
100
AcDbEntity
  8
LAY-3
  6
CONTINUOUS
 62
     3
100
AcDbLine
 10
68.84352
 20
515.535
 30
0.0
 11
68.84352
 21
511.265
 31
0.0
  0
LINE
  5
86
100
AcDbEntity
  8
LAY-3
  6
CONTINUOUS
 62
     3
100
AcDbLine
 10
95.757124
 20
510.244049
 30
0.0
 11
95.762869
 21
510.244049
 31
0.0
  0
LINE
  5
87
100
AcDbEntity
  8
LAY-3
  6
CONTINUOUS
 62
     3
100
AcDbLine
 10
138.84352
 20
511.265
 30
0.0
 11
138.84352
 21
515.535
 31
0.0
  0
LINE
  5
88
100
AcDbEntity
  8
LAY-3
  6
CONTINUOUS
 62
     3
100
AcDbLine
 10
83.84352
 20
515.535
 30
0.0
 11
83.84352
 21
511.265
 31
0.0
  0
LINE
  5
89
100
AcDbEntity
  8
LAY-3
  6
CONTINUOUS
 62
     3
100
AcDbLine
 10
68.84352
 20
515.535
 30
0.0
 11
83.84352
 21
515.535
 31
0.0
  0
LINE
  5
8A
100
AcDbEntity
  8
LAY-3
  6
CONTINUOUS
 62
     3
100
AcDbLine
 10
68.84352
 20
511.265
 30
0.0
 11
83.84352
 21
511.265
 31
0.0
  0
LINE
  5
8B
100
AcDbEntity
  8
LAY-3
  6
CONTINUOUS
 62
     3
100
AcDbLine
 10
84.50852
 20
516.2
 30
0.0
 11
84.50852
 21
513.4
 31
0.0
  0
LINE
  5
8C
100
AcDbEntity
  8
LAY-3
  6
CONTINUOUS
 62
     3
100
AcDbLine
 10
72.096225
 20
511.265
 30
0.0
 11
83.84352
 21
511.265
 31
0.0
  0
LINE
  5
8D
100
AcDbEntity
  8
LAY-3
  6
CONTINUOUS
 62
     3
100
AcDbLine
 10
138.84352
 20
515.535
 30
0.0
 11
123.84352
 21
515.535
 31
0.0
  0
LINE
  5
8E
100
AcDbEntity
  8
LAY-3
  6
CONTINUOUS
 62
     3
100
AcDbLine
 10
123.84352
 20
515.535
 30
0.0
 11
123.84352
 21
513.4
 31
0.0
  0
LINE
  5
8F
100
AcDbEntity
  8
LAY-3
  6
CONTINUOUS
 62
     3
100
AcDbLine
 10
138.84352
 20
511.265
 30
0.0
 11
123.84352
 21
511.265
 31
0.0
  0
LINE
  5
90
100
AcDbEntity
  8
LAY-3
  6
CONTINUOUS
 62
     3
100
AcDbLine
 10
123.84352
 20
511.265
 30
0.0
 11
123.84352
 21
513.4
 31
0.0
  0
LINE
  5
91
100
AcDbEntity
  8
LAY-3
  6
CONTINUOUS
 62
     3
100
AcDbLine
 10
109.015093
 20
516.2
 30
0.0
 11
106.671947
 21
516.2
 31
0.0
  0
ARC
  5
92
100
AcDbEntity
  8
LAY-3
  6
CONTINUOUS
 62
     3
100
AcDbCircle
 10
95.84352
 20
516.2
 30
0.0
 40
2.0
100
AcDbArc
 50
90.0
 51
160.528779
  0
ARC
  5
93
100
AcDbEntity
  8
LAY-3
  6
CONTINUOUS
 62
     3
100
AcDbCircle
 10
93.015093
 20
517.2
 30
0.0
 40
1.0
100
AcDbArc
 50
270.0
 51
340.528779
  0
ARC
  5
94
100
AcDbEntity
  8
LAY-3
  6
CONTINUOUS
 62
     3
100
AcDbCircle
 10
95.84352
 20
516.2
 30
0.0
 40
2.0
100
AcDbArc
 50
19.471221
 51
90.0
  0
ARC
  5
95
100
AcDbEntity
  8
LAY-3
  6
CONTINUOUS
 62
     3
100
AcDbCircle
 10
98.671947
 20
517.2
 30
0.0
 40
1.0
100
AcDbArc
 50
199.471221
 51
270.0
  0
ARC
  5
96
100
AcDbEntity
  8
LAY-3
  6
CONTINUOUS
 62
     3
100
AcDbCircle
 10
84.50852
 20
515.535
 30
0.0
 40
0.665
100
AcDbArc
 50
90.0
 51
180.0
  0
LINE
  5
97
100
AcDbEntity
  8
LAY-3
  6
CONTINUOUS
 62
     3
100
AcDbLine
 10
93.015093
 20
516.2
 30
0.0
 11
84.50852
 21
516.2
 31
0.0
  0
ARC
  5
98
100
AcDbEntity
  8
LAY-3
  6
CONTINUOUS
 62
     3
100
AcDbCircle
 10
101.015093
 20
517.2
 30
0.0
 40
1.0
100
AcDbArc
 50
270.0
 51
340.528779
  0
ARC
  5
99
100
AcDbEntity
  8
LAY-3
  6
CONTINUOUS
 62
     3
100
AcDbCircle
 10
103.84352
 20
516.2
 30
0.0
 40
2.0
100
AcDbArc
 50
90.0
 51
160.528779
  0
ARC
  5
9A
100
AcDbEntity
  8
LAY-3
  6
CONTINUOUS
 62
     3
100
AcDbCircle
 10
103.84352
 20
516.2
 30
0.0
 40
2.0
100
AcDbArc
 50
19.471221
 51
90.0
  0
ARC
  5
9B
100
AcDbEntity
  8
LAY-3
  6
CONTINUOUS
 62
     3
100
AcDbCircle
 10
106.671947
 20
517.2
 30
0.0
 40
1.0
100
AcDbArc
 50
199.471221
 51
270.0
  0
LINE
  5
9C
100
AcDbEntity
  8
LAY-3
  6
CONTINUOUS
 62
     3
100
AcDbLine
 10
101.015093
 20
516.2
 30
0.0
 11
98.671947
 21
516.2
 31
0.0
  0
ARC
  5
9D
100
AcDbEntity
  8
LAY-3
  6
CONTINUOUS
 62
     3
100
AcDbCircle
 10
109.015093
 20
517.2
 30
0.0
 40
1.0
100
AcDbArc
 50
270.0
 51
340.528779
  0
ARC
  5
9E
100
AcDbEntity
  8
LAY-3
  6
CONTINUOUS
 62
     3
100
AcDbCircle
 10
111.84352
 20
516.2
 30
0.0
 40
2.0
100
AcDbArc
 50
90.0
 51
160.528779
  0
ARC
  5
9F
100
AcDbEntity
  8
LAY-3
  6
CONTINUOUS
 62
     3
100
AcDbCircle
 10
111.84352
 20
516.2
 30
0.0
 40
2.0
100
AcDbArc
 50
19.471221
 51
90.0
  0
ARC
  5
A0
100
AcDbEntity
  8
LAY-3
  6
CONTINUOUS
 62
     3
100
AcDbCircle
 10
114.671947
 20
517.2
 30
0.0
 40
1.0
100
AcDbArc
 50
199.471221
 51
270.0
  0
ARC
  5
A1
100
AcDbEntity
  8
LAY-3
  6
CONTINUOUS
 62
     3
100
AcDbCircle
 10
123.17852
 20
515.535
 30
0.0
 40
0.665
100
AcDbArc
 50
0.0
 51
90.0
  0
LINE
  5
A2
100
AcDbEntity
  8
LAY-3
  6
CONTINUOUS
 62
     3
100
AcDbLine
 10
123.17852
 20
516.2
 30
0.0
 11
123.17852
 21
513.4
 31
0.0
  0
LINE
  5
A3
100
AcDbEntity
  8
LAY-3
  6
CONTINUOUS
 62
     3
100
AcDbLine
 10
123.84352
 20
515.535
 30
0.0
 11
123.84352
 21
511.265
 31
0.0
  0
LINE
  5
A4
100
AcDbEntity
  8
LAY-3
  6
CONTINUOUS
 62
     3
100
AcDbLine
 10
114.671947
 20
516.2
 30
0.0
 11
123.17852
 21
516.2
 31
0.0
  0
ARC
  5
A5
100
AcDbEntity
  8
LAY-3
  6
CONTINUOUS
 62
     3
100
AcDbCircle
 10
84.50852
 20
511.265
 30
0.0
 40
0.665
100
AcDbArc
 50
180.0
 51
270.0
  0
LINE
  5
A6
100
AcDbEntity
  8
LAY-3
  6
CONTINUOUS
 62
     3
100
AcDbLine
 10
84.50852
 20
510.6
 30
0.0
 11
84.50852
 21
513.4
 31
0.0
  0
LINE
  5
A7
100
AcDbEntity
  8
LAY-3
  6
CONTINUOUS
 62
     3
100
AcDbLine
 10
83.84352
 20
511.265
 30
0.0
 11
83.84352
 21
515.535
 31
0.0
  0
LINE
  5
A8
100
AcDbEntity
  8
LAY-3
  6
CONTINUOUS
 62
     3
100
AcDbLine
 10
123.84352
 20
515.535
 30
0.0
 11
123.84352
 21
513.4
 31
0.0
  0
LINE
  5
A9
100
AcDbEntity
  8
LAY-3
  6
CONTINUOUS
 62
     3
100
AcDbLine
 10
123.84352
 20
511.265
 30
0.0
 11
123.84352
 21
513.4
 31
0.0
  0
ARC
  5
AA
100
AcDbEntity
  8
LAY-3
  6
CONTINUOUS
 62
     3
100
AcDbCircle
 10
93.015093
 20
509.6
 30
0.0
 40
1.0
100
AcDbArc
 50
19.471221
 51
90.0
  0
ARC
  5
AB
100
AcDbEntity
  8
LAY-3
  6
CONTINUOUS
 62
     3
100
AcDbCircle
 10
95.84352
 20
510.6
 30
0.0
 40
2.0
100
AcDbArc
 50
199.471221
 51
270.0
  0
ARC
  5
AC
100
AcDbEntity
  8
LAY-3
  6
CONTINUOUS
 62
     3
100
AcDbCircle
 10
95.84352
 20
510.6
 30
0.0
 40
2.0
100
AcDbArc
 50
270.0
 51
340.528779
  0
ARC
  5
AD
100
AcDbEntity
  8
LAY-3
  6
CONTINUOUS
 62
     3
100
AcDbCircle
 10
98.671947
 20
509.6
 30
0.0
 40
1.0
100
AcDbArc
 50
90.0
 51
160.528779
  0
LINE
  5
AE
100
AcDbEntity
  8
LAY-3
  6
CONTINUOUS
 62
     3
100
AcDbLine
 10
93.015093
 20
510.6
 30
0.0
 11
84.50852
 21
510.6
 31
0.0
  0
LINE
  5
AF
100
AcDbEntity
  8
LAY-3
  6
CONTINUOUS
 62
     3
100
AcDbLine
 10
103.757124
 20
516.555951
 30
0.0
 11
103.762869
 21
516.555951
 31
0.0
  0
ARC
  5
B0
100
AcDbEntity
  8
LAY-3
  6
CONTINUOUS
 62
     3
100
AcDbCircle
 10
101.015093
 20
509.6
 30
0.0
 40
1.0
100
AcDbArc
 50
19.471221
 51
90.0
  0
ARC
  5
B1
100
AcDbEntity
  8
LAY-3
  6
CONTINUOUS
 62
     3
100
AcDbCircle
 10
103.84352
 20
510.6
 30
0.0
 40
2.0
100
AcDbArc
 50
199.471221
 51
270.0
  0
ARC
  5
B2
100
AcDbEntity
  8
LAY-3
  6
CONTINUOUS
 62
     3
100
AcDbCircle
 10
103.84352
 20
510.6
 30
0.0
 40
2.0
100
AcDbArc
 50
270.0
 51
340.528779
  0
ARC
  5
B3
100
AcDbEntity
  8
LAY-3
  6
CONTINUOUS
 62
     3
100
AcDbCircle
 10
106.671947
 20
509.6
 30
0.0
 40
1.0
100
AcDbArc
 50
90.0
 51
160.528779
  0
LINE
  5
B4
100
AcDbEntity
  8
LAY-3
  6
CONTINUOUS
 62
     3
100
AcDbLine
 10
101.015093
 20
510.6
 30
0.0
 11
98.671947
 21
510.6
 31
0.0
  0
ARC
  5
B5
100
AcDbEntity
  8
LAY-3
  6
CONTINUOUS
 62
     3
100
AcDbCircle
 10
109.015093
 20
509.6
 30
0.0
 40
1.0
100
AcDbArc
 50
19.471221
 51
90.0
  0
ARC
  5
B6
100
AcDbEntity
  8
LAY-3
  6
CONTINUOUS
 62
     3
100
AcDbCircle
 10
111.84352
 20
510.6
 30
0.0
 40
2.0
100
AcDbArc
 50
199.471221
 51
270.0
  0
ARC
  5
B7
100
AcDbEntity
  8
LAY-3
  6
CONTINUOUS
 62
     3
100
AcDbCircle
 10
111.84352
 20
510.6
 30
0.0
 40
2.0
100
AcDbArc
 50
270.0
 51
340.528779
  0
ARC
  5
B8
100
AcDbEntity
  8
LAY-3
  6
CONTINUOUS
 62
     3
100
AcDbCircle
 10
114.671947
 20
509.6
 30
0.0
 40
1.0
100
AcDbArc
 50
90.0
 51
160.528779
  0
LINE
  5
B9
100
AcDbEntity
  8
LAY-3
  6
CONTINUOUS
 62
     3
100
AcDbLine
 10
109.015093
 20
510.6
 30
0.0
 11
106.671947
 21
510.6
 31
0.0
  0
ARC
  5
BA
100
AcDbEntity
  8
LAY-3
  6
CONTINUOUS
 62
     3
100
AcDbCircle
 10
123.17852
 20
511.265
 30
0.0
 40
0.665
100
AcDbArc
 50
270.0
 51
0.0
  0
LINE
  5
BB
100
AcDbEntity
  8
LAY-3
  6
CONTINUOUS
 62
     3
100
AcDbLine
 10
123.17852
 20
510.6
 30
0.0
 11
123.17852
 21
513.4
 31
0.0
  0
LINE
  5
BC
100
AcDbEntity
  8
LAY-3
  6
CONTINUOUS
 62
     3
100
AcDbLine
 10
123.84352
 20
511.265
 30
0.0
 11
123.84352
 21
515.535
 31
0.0
  0
LINE
  5
BD
100
AcDbEntity
  8
LAY-3
  6
CONTINUOUS
 62
     3
100
AcDbLine
 10
114.671947
 20
510.6
 30
0.0
 11
123.17852
 21
510.6
 31
0.0
  0
LINE
  5
BE
100
AcDbEntity
  8
LAY-3
  6
CONTINUOUS
 62
     3
100
AcDbLine
 10
180.286377
 20
515.83
 30
0.0
 11
180.286377
 21
510.97
 31
0.0
  0
LINE
  5
BF
100
AcDbEntity
  8
LAY-3
  6
CONTINUOUS
 62
     3
100
AcDbLine
 10
196.056377
 20
516.6
 30
0.0
 11
196.056377
 21
513.4
 31
0.0
  0
LINE
  5
C0
100
AcDbEntity
  8
LAY-3
  6
CONTINUOUS
 62
     3
100
AcDbLine
 10
195.286377
 20
515.83
 30
0.0
 11
195.286377
 21
511.265
 31
0.0
  0
ARC
  5
C1
100
AcDbEntity
  8
LAY-3
  6
CONTINUOUS
 62
     3
100
AcDbCircle
 10
204.45795
 20
517.6
 30
0.0
 40
1.0
100
AcDbArc
 50
270.0
 51
340.528779
  0
ARC
  5
C2
100
AcDbEntity
  8
LAY-3
  6
CONTINUOUS
 62
     3
100
AcDbCircle
 10
207.286377
 20
516.6
 30
0.0
 40
2.0
100
AcDbArc
 50
90.0
 51
160.528779
  0
ARC
  5
C3
100
AcDbEntity
  8
LAY-3
  6
CONTINUOUS
 62
     3
100
AcDbCircle
 10
207.286377
 20
516.6
 30
0.0
 40
2.0
100
AcDbArc
 50
19.471221
 51
90.0
  0
ARC
  5
C4
100
AcDbEntity
  8
LAY-3
  6
CONTINUOUS
 62
     3
100
AcDbCircle
 10
210.114804
 20
517.6
 30
0.0
 40
1.0
100
AcDbArc
 50
199.471221
 51
270.0
  0
LINE
  5
C5
100
AcDbEntity
  8
LAY-3
  6
CONTINUOUS
 62
     3
100
AcDbLine
 10
204.45795
 20
516.6
 30
0.0
 11
196.056377
 21
516.6
 31
0.0
  0
ARC
  5
C6
100
AcDbEntity
  8
LAY-3
  6
CONTINUOUS
 62
     3
100
AcDbCircle
 10
212.45795
 20
517.6
 30
0.0
 40
1.0
100
AcDbArc
 50
270.0
 51
340.528779
  0
ARC
  5
C7
100
AcDbEntity
  8
LAY-3
  6
CONTINUOUS
 62
     3
100
AcDbCircle
 10
215.286377
 20
516.6
 30
0.0
 40
2.0
100
AcDbArc
 50
90.0
 51
160.528779
  0
ARC
  5
C8
100
AcDbEntity
  8
LAY-3
  6
CONTINUOUS
 62
     3
100
AcDbCircle
 10
215.286377
 20
516.6
 30
0.0
 40
2.0
100
AcDbArc
 50
19.471221
 51
90.0
  0
ARC
  5
C9
100
AcDbEntity
  8
LAY-3
  6
CONTINUOUS
 62
     3
100
AcDbCircle
 10
218.114804
 20
517.6
 30
0.0
 40
1.0
100
AcDbArc
 50
199.471221
 51
270.0
  0
LINE
  5
CA
100
AcDbEntity
  8
LAY-3
  6
CONTINUOUS
 62
     3
100
AcDbLine
 10
212.45795
 20
516.6
 30
0.0
 11
210.114804
 21
516.6
 31
0.0
  0
ARC
  5
CB
100
AcDbEntity
  8
LAY-3
  6
CONTINUOUS
 62
     3
100
AcDbCircle
 10
220.45795
 20
517.6
 30
0.0
 40
1.0
100
AcDbArc
 50
270.0
 51
340.528779
  0
ARC
  5
CC
100
AcDbEntity
  8
LAY-3
  6
CONTINUOUS
 62
     3
100
AcDbCircle
 10
223.286377
 20
516.6
 30
0.0
 40
2.0
100
AcDbArc
 50
90.0
 51
160.528779
  0
ARC
  5
CD
100
AcDbEntity
  8
LAY-3
  6
CONTINUOUS
 62
     3
100
AcDbCircle
 10
223.286377
 20
516.6
 30
0.0
 40
2.0
100
AcDbArc
 50
19.471221
 51
90.0
  0
ARC
  5
CE
100
AcDbEntity
  8
LAY-3
  6
CONTINUOUS
 62
     3
100
AcDbCircle
 10
226.114804
 20
517.6
 30
0.0
 40
1.0
100
AcDbArc
 50
199.471221
 51
270.0
  0
LINE
  5
CF
100
AcDbEntity
  8
LAY-3
  6
CONTINUOUS
 62
     3
100
AcDbLine
 10
220.45795
 20
516.6
 30
0.0
 11
218.114804
 21
516.6
 31
0.0
  0
LINE
  5
D0
100
AcDbEntity
  8
LAY-3
  6
CONTINUOUS
 62
     3
100
AcDbLine
 10
226.114804
 20
516.6
 30
0.0
 11
234.621377
 21
516.6
 31
0.0
  0
LINE
  5
D1
100
AcDbEntity
  8
LAY-3
  6
CONTINUOUS
 62
     3
100
AcDbLine
 10
207.199981
 20
516.955951
 30
0.0
 11
207.205726
 21
516.955951
 31
0.0
  0
LINE
  5
D2
100
AcDbEntity
  8
LAY-3
  6
CONTINUOUS
 62
     3
100
AcDbLine
 10
196.056377
 20
510.2
 30
0.0
 11
196.056377
 21
513.4
 31
0.0
  0
LINE
  5
D3
100
AcDbEntity
  8
LAY-3
  6
CONTINUOUS
 62
     3
100
AcDbLine
 10
195.286377
 20
510.97
 30
0.0
 11
195.286377
 21
515.535
 31
0.0
  0
ARC
  5
D4
100
AcDbEntity
  8
LAY-3
  6
CONTINUOUS
 62
     3
100
AcDbCircle
 10
204.56295
 20
509.2
 30
0.0
 40
1.0
100
AcDbArc
 50
19.471221
 51
90.0
  0
ARC
  5
D5
100
AcDbEntity
  8
LAY-3
  6
CONTINUOUS
 62
     3
100
AcDbCircle
 10
207.391377
 20
510.2
 30
0.0
 40
2.0
100
AcDbArc
 50
199.471221
 51
270.0
  0
ARC
  5
D6
100
AcDbEntity
  8
LAY-3
  6
CONTINUOUS
 62
     3
100
AcDbCircle
 10
207.391377
 20
510.2
 30
0.0
 40
2.0
100
AcDbArc
 50
270.0
 51
340.528779
  0
ARC
  5
D7
100
AcDbEntity
  8
LAY-3
  6
CONTINUOUS
 62
     3
100
AcDbCircle
 10
210.219804
 20
509.2
 30
0.0
 40
1.0
100
AcDbArc
 50
90.0
 51
160.528779
  0
LINE
  5
D8
100
AcDbEntity
  8
LAY-3
  6
CONTINUOUS
 62
     3
100
AcDbLine
 10
204.56295
 20
510.2
 30
0.0
 11
196.056377
 21
510.2
 31
0.0
  0
LINE
  5
D9
100
AcDbEntity
  8
LAY-3
  6
CONTINUOUS
 62
     3
100
AcDbLine
 10
215.199981
 20
516.955951
 30
0.0
 11
215.205726
 21
516.955951
 31
0.0
  0
ARC
  5
DA
100
AcDbEntity
  8
LAY-3
  6
CONTINUOUS
 62
     3
100
AcDbCircle
 10
212.56295
 20
509.2
 30
0.0
 40
1.0
100
AcDbArc
 50
19.471221
 51
90.0
  0
ARC
  5
DB
100
AcDbEntity
  8
LAY-3
  6
CONTINUOUS
 62
     3
100
AcDbCircle
 10
215.391377
 20
510.2
 30
0.0
 40
2.0
100
AcDbArc
 50
199.471221
 51
270.0
  0
ARC
  5
DC
100
AcDbEntity
  8
LAY-3
  6
CONTINUOUS
 62
     3
100
AcDbCircle
 10
215.391377
 20
510.2
 30
0.0
 40
2.0
100
AcDbArc
 50
270.0
 51
340.528779
  0
ARC
  5
DD
100
AcDbEntity
  8
LAY-3
  6
CONTINUOUS
 62
     3
100
AcDbCircle
 10
218.219804
 20
509.2
 30
0.0
 40
1.0
100
AcDbArc
 50
90.0
 51
160.528779
  0
LINE
  5
DE
100
AcDbEntity
  8
LAY-3
  6
CONTINUOUS
 62
     3
100
AcDbLine
 10
212.56295
 20
510.2
 30
0.0
 11
210.219804
 21
510.2
 31
0.0
  0
ARC
  5
DF
100
AcDbEntity
  8
LAY-3
  6
CONTINUOUS
 62
     3
100
AcDbCircle
 10
220.56295
 20
509.2
 30
0.0
 40
1.0
100
AcDbArc
 50
19.471221
 51
90.0
  0
ARC
  5
E0
100
AcDbEntity
  8
LAY-3
  6
CONTINUOUS
 62
     3
100
AcDbCircle
 10
223.391377
 20
510.2
 30
0.0
 40
2.0
100
AcDbArc
 50
199.471221
 51
270.0
  0
ARC
  5
E1
100
AcDbEntity
  8
LAY-3
  6
CONTINUOUS
 62
     3
100
AcDbCircle
 10
223.391377
 20
510.2
 30
0.0
 40
2.0
100
AcDbArc
 50
270.0
 51
340.528779
  0
ARC
  5
E2
100
AcDbEntity
  8
LAY-3
  6
CONTINUOUS
 62
     3
100
AcDbCircle
 10
226.219804
 20
509.2
 30
0.0
 40
1.0
100
AcDbArc
 50
90.0
 51
160.528779
  0
LINE
  5
E3
100
AcDbEntity
  8
LAY-3
  6
CONTINUOUS
 62
     3
100
AcDbLine
 10
220.56295
 20
510.2
 30
0.0
 11
218.219804
 21
510.2
 31
0.0
  0
LINE
  5
E4
100
AcDbEntity
  8
LAY-3
  6
CONTINUOUS
 62
     3
100
AcDbLine
 10
226.219804
 20
510.2
 30
0.0
 11
234.726377
 21
510.2
 31
0.0
  0
LINE
  5
E5
100
AcDbEntity
  8
LAY-3
  6
CONTINUOUS
 62
     3
100
AcDbLine
 10
180.286377
 20
515.83
 30
0.0
 11
195.286377
 21
515.83
 31
0.0
  0
LINE
  5
E6
100
AcDbEntity
  8
LAY-3
  6
CONTINUOUS
 62
     3
100
AcDbLine
 10
180.286377
 20
510.97
 30
0.0
 11
195.286377
 21
510.97
 31
0.0
  0
ARC
  5
E7
100
AcDbEntity
  8
LAY-3
  6
CONTINUOUS
 62
     3
100
AcDbCircle
 10
196.056377
 20
515.83
 30
0.0
 40
0.77
100
AcDbArc
 50
90.0
 51
180.0
  0
ARC
  5
E8
100
AcDbEntity
  8
LAY-3
  6
CONTINUOUS
 62
     3
100
AcDbCircle
 10
196.056377
 20
510.97
 30
0.0
 40
0.77
100
AcDbArc
 50
180.0
 51
270.0
  0
LINE
  5
E9
100
AcDbEntity
  8
LAY-3
  6
CONTINUOUS
 62
     3
100
AcDbLine
 10
250.286377
 20
515.83
 30
0.0
 11
235.286377
 21
515.83
 31
0.0
  0
LINE
  5
EA
100
AcDbEntity
  8
LAY-3
  6
CONTINUOUS
 62
     3
100
AcDbLine
 10
250.286377
 20
510.97
 30
0.0
 11
235.286377
 21
510.97
 31
0.0
  0
LINE
  5
EB
100
AcDbEntity
  8
LAY-3
  6
CONTINUOUS
 62
     3
100
AcDbLine
 10
250.286377
 20
515.83
 30
0.0
 11
250.286377
 21
510.97
 31
0.0
  0
ARC
  5
EC
100
AcDbEntity
  8
LAY-3
  6
CONTINUOUS
 62
     3
100
AcDbCircle
 10
234.516377
 20
515.83
 30
0.0
 40
0.77
100
AcDbArc
 50
0.0
 51
90.0
  0
LINE
  5
ED
100
AcDbEntity
  8
LAY-3
  6
CONTINUOUS
 62
     3
100
AcDbLine
 10
235.286377
 20
515.83
 30
0.0
 11
235.286377
 21
511.265
 31
0.0
  0
LINE
  5
EE
100
AcDbEntity
  8
LAY-3
  6
CONTINUOUS
 62
     3
100
AcDbLine
 10
234.516377
 20
516.6
 30
0.0
 11
234.516377
 21
513.4
 31
0.0
  0
ARC
  5
EF
100
AcDbEntity
  8
LAY-3
  6
CONTINUOUS
 62
     3
100
AcDbCircle
 10
234.516377
 20
510.97
 30
0.0
 40
0.77
100
AcDbArc
 50
270.0
 51
0.0
  0
LINE
  5
F0
100
AcDbEntity
  8
LAY-3
  6
CONTINUOUS
 62
     3
100
AcDbLine
 10
235.286377
 20
510.97
 30
0.0
 11
235.286377
 21
515.535
 31
0.0
  0
LINE
  5
F1
100
AcDbEntity
  8
LAY-3
  6
CONTINUOUS
 62
     3
100
AcDbLine
 10
234.516377
 20
510.2
 30
0.0
 11
234.516377
 21
513.4
 31
0.0
  0
ARC
  5
F2
100
AcDbEntity
  8
LAY-3
  6
CONTINUOUS
 62
     3
100
AcDbCircle
 10
315.900807
 20
518.1
 30
0.0
 40
1.0
100
AcDbArc
 50
270.0
 51
340.528779
  0
ARC
  5
F3
100
AcDbEntity
  8
LAY-3
  6
CONTINUOUS
 62
     3
100
AcDbCircle
 10
318.729234
 20
517.1
 30
0.0
 40
2.0
100
AcDbArc
 50
90.0
 51
160.528779
  0
ARC
  5
F4
100
AcDbEntity
  8
LAY-3
  6
CONTINUOUS
 62
     3
100
AcDbCircle
 10
318.729234
 20
517.1
 30
0.0
 40
2.0
100
AcDbArc
 50
19.471221
 51
90.0
  0
ARC
  5
F5
100
AcDbEntity
  8
LAY-3
  6
CONTINUOUS
 62
     3
100
AcDbCircle
 10
321.557662
 20
518.1
 30
0.0
 40
1.0
100
AcDbArc
 50
199.471221
 51
270.0
  0
ARC
  5
F6
100
AcDbEntity
  8
LAY-3
  6
CONTINUOUS
 62
     3
100
AcDbCircle
 10
323.900807
 20
518.1
 30
0.0
 40
1.0
100
AcDbArc
 50
270.0
 51
340.528779
  0
ARC
  5
F7
100
AcDbEntity
  8
LAY-3
  6
CONTINUOUS
 62
     3
100
AcDbCircle
 10
326.729234
 20
517.1
 30
0.0
 40
2.0
100
AcDbArc
 50
90.0
 51
160.528779
  0
ARC
  5
F8
100
AcDbEntity
  8
LAY-3
  6
CONTINUOUS
 62
     3
100
AcDbCircle
 10
326.729234
 20
517.1
 30
0.0
 40
2.0
100
AcDbArc
 50
19.471221
 51
90.0
  0
ARC
  5
F9
100
AcDbEntity
  8
LAY-3
  6
CONTINUOUS
 62
     3
100
AcDbCircle
 10
329.557662
 20
518.1
 30
0.0
 40
1.0
100
AcDbArc
 50
199.471221
 51
270.0
  0
LINE
  5
FA
100
AcDbEntity
  8
LAY-3
  6
CONTINUOUS
 62
     3
100
AcDbLine
 10
323.900807
 20
517.1
 30
0.0
 11
321.557662
 21
517.1
 31
0.0
  0
ARC
  5
FB
100
AcDbEntity
  8
LAY-3
  6
CONTINUOUS
 62
     3
100
AcDbCircle
 10
331.900807
 20
518.1
 30
0.0
 40
1.0
100
AcDbArc
 50
270.0
 51
340.528779
  0
ARC
  5
FC
100
AcDbEntity
  8
LAY-3
  6
CONTINUOUS
 62
     3
100
AcDbCircle
 10
334.729234
 20
517.1
 30
0.0
 40
2.0
100
AcDbArc
 50
90.0
 51
160.528779
  0
ARC
  5
FD
100
AcDbEntity
  8
LAY-3
  6
CONTINUOUS
 62
     3
100
AcDbCircle
 10
334.729234
 20
517.1
 30
0.0
 40
2.0
100
AcDbArc
 50
19.471221
 51
90.0
  0
ARC
  5
FE
100
AcDbEntity
  8
LAY-3
  6
CONTINUOUS
 62
     3
100
AcDbCircle
 10
337.557662
 20
518.1
 30
0.0
 40
1.0
100
AcDbArc
 50
199.471221
 51
270.0
  0
LINE
  5
FF
100
AcDbEntity
  8
LAY-3
  6
CONTINUOUS
 62
     3
100
AcDbLine
 10
331.900807
 20
517.1
 30
0.0
 11
329.557662
 21
517.1
 31
0.0
  0
LINE
  5
100
100
AcDbEntity
  8
LAY-3
  6
CONTINUOUS
 62
     3
100
AcDbLine
 10
337.557662
 20
517.1
 30
0.0
 11
346.064234
 21
517.1
 31
0.0
  0
LINE
  5
101
100
AcDbEntity
  8
LAY-3
  6
CONTINUOUS
 62
     3
100
AcDbLine
 10
318.642838
 20
517.455951
 30
0.0
 11
318.648583
 21
517.455951
 31
0.0
  0
LINE
  5
102
100
AcDbEntity
  8
LAY-3
  6
CONTINUOUS
 62
     3
100
AcDbLine
 10
326.642838
 20
517.455951
 30
0.0
 11
326.648583
 21
517.455951
 31
0.0
  0
LINE
  5
103
100
AcDbEntity
  8
LAY-3
  6
CONTINUOUS
 62
     3
100
AcDbLine
 10
291.729234
 20
516.425
 30
0.0
 11
291.729234
 21
510.375
 31
0.0
  0
LINE
  5
104
100
AcDbEntity
  8
LAY-3
  6
CONTINUOUS
 62
     3
100
AcDbLine
 10
315.900807
 20
517.1
 30
0.0
 11
307.404234
 21
517.1
 31
0.0
  0
LINE
  5
105
100
AcDbEntity
  8
LAY-3
  6
CONTINUOUS
 62
     3
100
AcDbLine
 10
306.729234
 20
516.425
 30
0.0
 11
306.729234
 21
510.375
 31
0.0
  0
LINE
  5
106
100
AcDbEntity
  8
LAY-3
  6
CONTINUOUS
 62
     3
100
AcDbLine
 10
307.404234
 20
517.1
 30
0.0
 11
307.404234
 21
509.7
 31
0.0
  0
LINE
  5
107
100
AcDbEntity
  8
LAY-3
  6
CONTINUOUS
 62
     3
100
AcDbLine
 10
306.729234
 20
513.4
 30
0.0
 11
306.729234
 21
515.535
 31
0.0
  0
LINE
  5
108
100
AcDbEntity
  8
LAY-3
  6
CONTINUOUS
 62
     3
100
AcDbLine
 10
315.910807
 20
509.7
 30
0.0
 11
307.404234
 21
509.7
 31
0.0
  0
LINE
  5
109
100
AcDbEntity
  8
LAY-3
  6
CONTINUOUS
 62
     3
100
AcDbLine
 10
318.652838
 20
509.344049
 30
0.0
 11
318.658583
 21
509.344049
 31
0.0
  0
LINE
  5
10A
100
AcDbEntity
  8
LAY-3
  6
CONTINUOUS
 62
     3
100
AcDbLine
 10
326.652838
 20
509.344049
 30
0.0
 11
326.658583
 21
509.344049
 31
0.0
  0
ARC
  5
10B
100
AcDbEntity
  8
LAY-3
  6
CONTINUOUS
 62
     3
100
AcDbCircle
 10
315.910807
 20
508.7
 30
0.0
 40
1.0
100
AcDbArc
 50
19.471221
 51
90.0
  0
ARC
  5
10C
100
AcDbEntity
  8
LAY-3
  6
CONTINUOUS
 62
     3
100
AcDbCircle
 10
318.739234
 20
509.7
 30
0.0
 40
2.0
100
AcDbArc
 50
199.471221
 51
270.0
  0
ARC
  5
10D
100
AcDbEntity
  8
LAY-3
  6
CONTINUOUS
 62
     3
100
AcDbCircle
 10
318.739234
 20
509.7
 30
0.0
 40
2.0
100
AcDbArc
 50
270.0
 51
340.528779
  0
ARC
  5
10E
100
AcDbEntity
  8
LAY-3
  6
CONTINUOUS
 62
     3
100
AcDbCircle
 10
321.567662
 20
508.7
 30
0.0
 40
1.0
100
AcDbArc
 50
90.0
 51
160.528779
  0
ARC
  5
10F
100
AcDbEntity
  8
LAY-3
  6
CONTINUOUS
 62
     3
100
AcDbCircle
 10
323.910807
 20
508.7
 30
0.0
 40
1.0
100
AcDbArc
 50
19.471221
 51
90.0
  0
ARC
  5
110
100
AcDbEntity
  8
LAY-3
  6
CONTINUOUS
 62
     3
100
AcDbCircle
 10
326.739234
 20
509.7
 30
0.0
 40
2.0
100
AcDbArc
 50
199.471221
 51
270.0
  0
ARC
  5
111
100
AcDbEntity
  8
LAY-3
  6
CONTINUOUS
 62
     3
100
AcDbCircle
 10
326.739234
 20
509.7
 30
0.0
 40
2.0
100
AcDbArc
 50
270.0
 51
340.528779
  0
ARC
  5
112
100
AcDbEntity
  8
LAY-3
  6
CONTINUOUS
 62
     3
100
AcDbCircle
 10
329.567662
 20
508.7
 30
0.0
 40
1.0
100
AcDbArc
 50
90.0
 51
160.528779
  0
LINE
  5
113
100
AcDbEntity
  8
LAY-3
  6
CONTINUOUS
 62
     3
100
AcDbLine
 10
323.910807
 20
509.7
 30
0.0
 11
321.567662
 21
509.7
 31
0.0
  0
ARC
  5
114
100
AcDbEntity
  8
LAY-3
  6
CONTINUOUS
 62
     3
100
AcDbCircle
 10
331.910807
 20
508.7
 30
0.0
 40
1.0
100
AcDbArc
 50
19.471221
 51
90.0
  0
ARC
  5
115
100
AcDbEntity
  8
LAY-3
  6
CONTINUOUS
 62
     3
100
AcDbCircle
 10
334.739234
 20
509.7
 30
0.0
 40
2.0
100
AcDbArc
 50
199.471221
 51
270.0
  0
ARC
  5
116
100
AcDbEntity
  8
LAY-3
  6
CONTINUOUS
 62
     3
100
AcDbCircle
 10
334.739234
 20
509.7
 30
0.0
 40
2.0
100
AcDbArc
 50
270.0
 51
340.528779
  0
ARC
  5
117
100
AcDbEntity
  8
LAY-3
  6
CONTINUOUS
 62
     3
100
AcDbCircle
 10
337.567662
 20
508.7
 30
0.0
 40
1.0
100
AcDbArc
 50
90.0
 51
160.528779
  0
LINE
  5
118
100
AcDbEntity
  8
LAY-3
  6
CONTINUOUS
 62
     3
100
AcDbLine
 10
331.910807
 20
509.7
 30
0.0
 11
329.567662
 21
509.7
 31
0.0
  0
LINE
  5
119
100
AcDbEntity
  8
LAY-3
  6
CONTINUOUS
 62
     3
100
AcDbLine
 10
337.567662
 20
509.7
 30
0.0
 11
346.074234
 21
509.7
 31
0.0
  0
LINE
  5
11A
100
AcDbEntity
  8
LAY-3
  6
CONTINUOUS
 62
     3
100
AcDbLine
 10
291.729234
 20
516.425
 30
0.0
 11
306.729234
 21
516.425
 31
0.0
  0
ARC
  5
11B
100
AcDbEntity
  8
LAY-3
  6
CONTINUOUS
 62
     3
100
AcDbCircle
 10
307.404234
 20
516.425
 30
0.0
 40
0.675
100
AcDbArc
 50
90.0
 51
180.0
  0
LINE
  5
11C
100
AcDbEntity
  8
LAY-3
  6
CONTINUOUS
 62
     3
100
AcDbLine
 10
291.729234
 20
510.375
 30
0.0
 11
306.729234
 21
510.375
 31
0.0
  0
ARC
  5
11D
100
AcDbEntity
  8
LAY-3
  6
CONTINUOUS
 62
     3
100
AcDbCircle
 10
307.404234
 20
510.375
 30
0.0
 40
0.675
100
AcDbArc
 50
180.0
 51
270.0
  0
LINE
  5
11E
100
AcDbEntity
  8
LAY-3
  6
CONTINUOUS
 62
     3
100
AcDbLine
 10
361.729234
 20
516.425
 30
0.0
 11
346.729234
 21
516.425
 31
0.0
  0
ARC
  5
11F
100
AcDbEntity
  8
LAY-3
  6
CONTINUOUS
 62
     3
100
AcDbCircle
 10
346.054234
 20
516.425
 30
0.0
 40
0.675
100
AcDbArc
 50
0.0
 51
90.0
  0
LINE
  5
120
100
AcDbEntity
  8
LAY-3
  6
CONTINUOUS
 62
     3
100
AcDbLine
 10
361.729234
 20
510.375
 30
0.0
 11
346.729234
 21
510.375
 31
0.0
  0
LINE
  5
121
100
AcDbEntity
  8
LAY-3
  6
CONTINUOUS
 62
     3
100
AcDbLine
 10
361.729234
 20
516.425
 30
0.0
 11
361.729234
 21
510.375
 31
0.0
  0
LINE
  5
122
100
AcDbEntity
  8
LAY-3
  6
CONTINUOUS
 62
     3
100
AcDbLine
 10
346.729234
 20
513.4
 30
0.0
 11
346.729234
 21
515.535
 31
0.0
  0
ARC
  5
123
100
AcDbEntity
  8
LAY-3
  6
CONTINUOUS
 62
     3
100
AcDbCircle
 10
346.054234
 20
510.375
 30
0.0
 40
0.675
100
AcDbArc
 50
270.0
 51
0.0
  0
LINE
  5
124
100
AcDbEntity
  8
LAY-3
  6
CONTINUOUS
 62
     3
100
AcDbLine
 10
346.054234
 20
517.1
 30
0.0
 11
346.054234
 21
509.7
 31
0.0
  0
LINE
  5
125
100
AcDbEntity
  8
LAY-3
  6
CONTINUOUS
 62
     3
100
AcDbLine
 10
346.729234
 20
516.425
 30
0.0
 11
346.729234
 21
510.375
 31
0.0
  0
ARC
  5
126
100
AcDbEntity
  8
LAY-3
  6
CONTINUOUS
 62
     3
100
AcDbCircle
 10
427.343664
 20
519.65
 30
0.0
 40
1.0
100
AcDbArc
 50
270.0
 51
340.528779
  0
ARC
  5
127
100
AcDbEntity
  8
LAY-3
  6
CONTINUOUS
 62
     3
100
AcDbCircle
 10
430.172092
 20
518.65
 30
0.0
 40
2.0
100
AcDbArc
 50
90.0
 51
160.528779
  0
ARC
  5
128
100
AcDbEntity
  8
LAY-3
  6
CONTINUOUS
 62
     3
100
AcDbCircle
 10
430.172092
 20
518.65
 30
0.0
 40
2.0
100
AcDbArc
 50
19.471221
 51
90.0
  0
ARC
  5
129
100
AcDbEntity
  8
LAY-3
  6
CONTINUOUS
 62
     3
100
AcDbCircle
 10
433.000519
 20
519.65
 30
0.0
 40
1.0
100
AcDbArc
 50
199.471221
 51
270.0
  0
ARC
  5
12A
100
AcDbEntity
  8
LAY-3
  6
CONTINUOUS
 62
     3
100
AcDbCircle
 10
435.343664
 20
519.65
 30
0.0
 40
1.0
100
AcDbArc
 50
270.0
 51
340.528779
  0
ARC
  5
12B
100
AcDbEntity
  8
LAY-3
  6
CONTINUOUS
 62
     3
100
AcDbCircle
 10
438.172092
 20
518.65
 30
0.0
 40
2.0
100
AcDbArc
 50
90.0
 51
160.528779
  0
ARC
  5
12C
100
AcDbEntity
  8
LAY-3
  6
CONTINUOUS
 62
     3
100
AcDbCircle
 10
438.172092
 20
518.65
 30
0.0
 40
2.0
100
AcDbArc
 50
19.471221
 51
90.0
  0
ARC
  5
12D
100
AcDbEntity
  8
LAY-3
  6
CONTINUOUS
 62
     3
100
AcDbCircle
 10
441.000519
 20
519.65
 30
0.0
 40
1.0
100
AcDbArc
 50
199.471221
 51
270.0
  0
LINE
  5
12E
100
AcDbEntity
  8
LAY-3
  6
CONTINUOUS
 62
     3
100
AcDbLine
 10
435.343664
 20
518.65
 30
0.0
 11
433.000519
 21
518.65
 31
0.0
  0
ARC
  5
12F
100
AcDbEntity
  8
LAY-3
  6
CONTINUOUS
 62
     3
100
AcDbCircle
 10
443.343664
 20
519.65
 30
0.0
 40
1.0
100
AcDbArc
 50
270.0
 51
340.528779
  0
ARC
  5
130
100
AcDbEntity
  8
LAY-3
  6
CONTINUOUS
 62
     3
100
AcDbCircle
 10
446.172092
 20
518.65
 30
0.0
 40
2.0
100
AcDbArc
 50
90.0
 51
160.528779
  0
ARC
  5
131
100
AcDbEntity
  8
LAY-3
  6
CONTINUOUS
 62
     3
100
AcDbCircle
 10
446.172092
 20
518.65
 30
0.0
 40
2.0
100
AcDbArc
 50
19.471221
 51
90.0
  0
ARC
  5
132
100
AcDbEntity
  8
LAY-3
  6
CONTINUOUS
 62
     3
100
AcDbCircle
 10
449.000519
 20
519.65
 30
0.0
 40
1.0
100
AcDbArc
 50
199.471221
 51
270.0
  0
LINE
  5
133
100
AcDbEntity
  8
LAY-3
  6
CONTINUOUS
 62
     3
100
AcDbLine
 10
443.343664
 20
518.65
 30
0.0
 11
441.000519
 21
518.65
 31
0.0
  0
LINE
  5
134
100
AcDbEntity
  8
LAY-3
  6
CONTINUOUS
 62
     3
100
AcDbLine
 10
449.000519
 20
518.65
 30
0.0
 11
456.737092
 21
518.65
 31
0.0
  0
LINE
  5
135
100
AcDbEntity
  8
LAY-3
  6
CONTINUOUS
 62
     3
100
AcDbLine
 10
430.085696
 20
519.005951
 30
0.0
 11
430.09144
 21
519.005951
 31
0.0
  0
LINE
  5
136
100
AcDbEntity
  8
LAY-3
  6
CONTINUOUS
 62
     3
100
AcDbLine
 10
438.085696
 20
519.005951
 30
0.0
 11
438.09144
 21
519.005951
 31
0.0
  0
LINE
  5
137
100
AcDbEntity
  8
LAY-3
  6
CONTINUOUS
 62
     3
100
AcDbLine
 10
427.343664
 20
518.65
 30
0.0
 11
419.607092
 21
518.65
 31
0.0
  0
LINE
  5
138
100
AcDbEntity
  8
LAY-3
  6
CONTINUOUS
 62
     3
100
AcDbLine
 10
403.172092
 20
517.215
 30
0.0
 11
403.172092
 21
509.585
 31
0.0
  0
LINE
  5
139
100
AcDbEntity
  8
LAY-3
  6
CONTINUOUS
 62
     3
100
AcDbLine
 10
418.172092
 20
517.215
 30
0.0
 11
418.172092
 21
509.585
 31
0.0
  0
LINE
  5
13A
100
AcDbEntity
  8
LAY-3
  6
CONTINUOUS
 62
     3
100
AcDbLine
 10
403.172092
 20
517.215
 30
0.0
 11
418.172092
 21
517.215
 31
0.0
  0
ARC
  5
13B
100
AcDbEntity
  8
LAY-3
  6
CONTINUOUS
 62
     3
100
AcDbCircle
 10
427.343664
 20
507.15
 30
0.0
 40
1.0
100
AcDbArc
 50
19.471221
 51
90.0
  0
ARC
  5
13C
100
AcDbEntity
  8
LAY-3
  6
CONTINUOUS
 62
     3
100
AcDbCircle
 10
430.172092
 20
508.15
 30
0.0
 40
2.0
100
AcDbArc
 50
199.471221
 51
270.0
  0
ARC
  5
13D
100
AcDbEntity
  8
LAY-3
  6
CONTINUOUS
 62
     3
100
AcDbCircle
 10
430.172092
 20
508.15
 30
0.0
 40
2.0
100
AcDbArc
 50
270.0
 51
340.528779
  0
ARC
  5
13E
100
AcDbEntity
  8
LAY-3
  6
CONTINUOUS
 62
     3
100
AcDbCircle
 10
433.000519
 20
507.15
 30
0.0
 40
1.0
100
AcDbArc
 50
90.0
 51
160.528779
  0
ARC
  5
13F
100
AcDbEntity
  8
LAY-3
  6
CONTINUOUS
 62
     3
100
AcDbCircle
 10
435.343664
 20
507.15
 30
0.0
 40
1.0
100
AcDbArc
 50
19.471221
 51
90.0
  0
ARC
  5
140
100
AcDbEntity
  8
LAY-3
  6
CONTINUOUS
 62
     3
100
AcDbCircle
 10
438.172092
 20
508.15
 30
0.0
 40
2.0
100
AcDbArc
 50
199.471221
 51
270.0
  0
ARC
  5
141
100
AcDbEntity
  8
LAY-3
  6
CONTINUOUS
 62
     3
100
AcDbCircle
 10
438.172092
 20
508.15
 30
0.0
 40
2.0
100
AcDbArc
 50
270.0
 51
340.528779
  0
ARC
  5
142
100
AcDbEntity
  8
LAY-3
  6
CONTINUOUS
 62
     3
100
AcDbCircle
 10
441.000519
 20
507.15
 30
0.0
 40
1.0
100
AcDbArc
 50
90.0
 51
160.528779
  0
LINE
  5
143
100
AcDbEntity
  8
LAY-3
  6
CONTINUOUS
 62
     3
100
AcDbLine
 10
435.343664
 20
508.15
 30
0.0
 11
433.000519
 21
508.15
 31
0.0
  0
ARC
  5
144
100
AcDbEntity
  8
LAY-3
  6
CONTINUOUS
 62
     3
100
AcDbCircle
 10
443.343664
 20
507.15
 30
0.0
 40
1.0
100
AcDbArc
 50
19.471221
 51
90.0
  0
ARC
  5
145
100
AcDbEntity
  8
LAY-3
  6
CONTINUOUS
 62
     3
100
AcDbCircle
 10
446.172092
 20
508.15
 30
0.0
 40
2.0
100
AcDbArc
 50
199.471221
 51
270.0
  0
ARC
  5
146
100
AcDbEntity
  8
LAY-3
  6
CONTINUOUS
 62
     3
100
AcDbCircle
 10
446.172092
 20
508.15
 30
0.0
 40
2.0
100
AcDbArc
 50
270.0
 51
340.528779
  0
ARC
  5
147
100
AcDbEntity
  8
LAY-3
  6
CONTINUOUS
 62
     3
100
AcDbCircle
 10
449.000519
 20
507.15
 30
0.0
 40
1.0
100
AcDbArc
 50
90.0
 51
160.528779
  0
LINE
  5
148
100
AcDbEntity
  8
LAY-3
  6
CONTINUOUS
 62
     3
100
AcDbLine
 10
443.343664
 20
508.15
 30
0.0
 11
441.000519
 21
508.15
 31
0.0
  0
LINE
  5
149
100
AcDbEntity
  8
LAY-3
  6
CONTINUOUS
 62
     3
100
AcDbLine
 10
449.000519
 20
508.15
 30
0.0
 11
456.737092
 21
508.15
 31
0.0
  0
LINE
  5
14A
100
AcDbEntity
  8
LAY-3
  6
CONTINUOUS
 62
     3
100
AcDbLine
 10
430.085696
 20
507.794049
 30
0.0
 11
430.09144
 21
507.794049
 31
0.0
  0
LINE
  5
14B
100
AcDbEntity
  8
LAY-3
  6
CONTINUOUS
 62
     3
100
AcDbLine
 10
438.085696
 20
507.794049
 30
0.0
 11
438.09144
 21
507.794049
 31
0.0
  0
LINE
  5
14C
100
AcDbEntity
  8
LAY-3
  6
CONTINUOUS
 62
     3
100
AcDbLine
 10
427.343664
 20
508.15
 30
0.0
 11
419.607092
 21
508.15
 31
0.0
  0
LINE
  5
14D
100
AcDbEntity
  8
LAY-3
  6
CONTINUOUS
 62
     3
100
AcDbLine
 10
403.172092
 20
509.585
 30
0.0
 11
418.172092
 21
509.585
 31
0.0
  0
ARC
  5
14E
100
AcDbEntity
  8
LAY-3
  6
CONTINUOUS
 62
     3
100
AcDbCircle
 10
419.607092
 20
517.215
 30
0.0
 40
1.435
100
AcDbArc
 50
90.0
 51
180.0
  0
ARC
  5
14F
100
AcDbEntity
  8
LAY-3
  6
CONTINUOUS
 62
     3
100
AcDbCircle
 10
419.607092
 20
509.585
 30
0.0
 40
1.435
100
AcDbArc
 50
180.0
 51
270.0
  0
LINE
  5
150
100
AcDbEntity
  8
LAY-3
  6
CONTINUOUS
 62
     3
100
AcDbLine
 10
419.607092
 20
518.65
 30
0.0
 11
419.607092
 21
508.15
 31
0.0
  0
LINE
  5
151
100
AcDbEntity
  8
LAY-3
  6
CONTINUOUS
 62
     3
100
AcDbLine
 10
473.172092
 20
517.215
 30
0.0
 11
458.172092
 21
517.215
 31
0.0
  0
LINE
  5
152
100
AcDbEntity
  8
LAY-3
  6
CONTINUOUS
 62
     3
100
AcDbLine
 10
473.172092
 20
509.585
 30
0.0
 11
458.172092
 21
509.585
 31
0.0
  0
LINE
  5
153
100
AcDbEntity
  8
LAY-3
  6
CONTINUOUS
 62
     3
100
AcDbLine
 10
473.172092
 20
517.215
 30
0.0
 11
473.172092
 21
509.585
 31
0.0
  0
ARC
  5
154
100
AcDbEntity
  8
LAY-3
  6
CONTINUOUS
 62
     3
100
AcDbCircle
 10
456.737092
 20
517.215
 30
0.0
 40
1.435
100
AcDbArc
 50
0.0
 51
90.0
  0
ARC
  5
155
100
AcDbEntity
  8
LAY-3
  6
CONTINUOUS
 62
     3
100
AcDbCircle
 10
456.737092
 20
509.585
 30
0.0
 40
1.435
100
AcDbArc
 50
270.0
 51
0.0
  0
LINE
  5
156
100
AcDbEntity
  8
LAY-3
  6
CONTINUOUS
 62
     3
100
AcDbLine
 10
458.172092
 20
517.215
 30
0.0
 11
458.172092
 21
509.585
 31
0.0
  0
LINE
  5
157
100
AcDbEntity
  8
LAY-3
  6
CONTINUOUS
 62
     3
100
AcDbLine
 10
456.737092
 20
518.65
 30
0.0
 11
456.737092
 21
508.15
 31
0.0
  0
ARC
  5
158
100
AcDbEntity
  8
LAY-3
  6
CONTINUOUS
 62
     3
100
AcDbCircle
 10
538.786522
 20
520.15
 30
0.0
 40
1.0
100
AcDbArc
 50
270.0
 51
340.528779
  0
ARC
  5
159
100
AcDbEntity
  8
LAY-3
  6
CONTINUOUS
 62
     3
100
AcDbCircle
 10
541.614949
 20
519.15
 30
0.0
 40
2.0
100
AcDbArc
 50
90.0
 51
160.528779
  0
ARC
  5
15A
100
AcDbEntity
  8
LAY-3
  6
CONTINUOUS
 62
     3
100
AcDbCircle
 10
541.614949
 20
519.15
 30
0.0
 40
2.0
100
AcDbArc
 50
19.471221
 51
90.0
  0
ARC
  5
15B
100
AcDbEntity
  8
LAY-3
  6
CONTINUOUS
 62
     3
100
AcDbCircle
 10
544.443376
 20
520.15
 30
0.0
 40
1.0
100
AcDbArc
 50
199.471221
 51
270.0
  0
ARC
  5
15C
100
AcDbEntity
  8
LAY-3
  6
CONTINUOUS
 62
     3
100
AcDbCircle
 10
546.786522
 20
520.15
 30
0.0
 40
1.0
100
AcDbArc
 50
270.0
 51
340.528779
  0
ARC
  5
15D
100
AcDbEntity
  8
LAY-3
  6
CONTINUOUS
 62
     3
100
AcDbCircle
 10
549.614949
 20
519.15
 30
0.0
 40
2.0
100
AcDbArc
 50
90.0
 51
160.528779
  0
ARC
  5
15E
100
AcDbEntity
  8
LAY-3
  6
CONTINUOUS
 62
     3
100
AcDbCircle
 10
549.614949
 20
519.15
 30
0.0
 40
2.0
100
AcDbArc
 50
19.471221
 51
90.0
  0
ARC
  5
15F
100
AcDbEntity
  8
LAY-3
  6
CONTINUOUS
 62
     3
100
AcDbCircle
 10
552.443376
 20
520.15
 30
0.0
 40
1.0
100
AcDbArc
 50
199.471221
 51
270.0
  0
LINE
  5
160
100
AcDbEntity
  8
LAY-3
  6
CONTINUOUS
 62
     3
100
AcDbLine
 10
546.786522
 20
519.15
 30
0.0
 11
544.443376
 21
519.15
 31
0.0
  0
ARC
  5
161
100
AcDbEntity
  8
LAY-3
  6
CONTINUOUS
 62
     3
100
AcDbCircle
 10
554.786522
 20
520.15
 30
0.0
 40
1.0
100
AcDbArc
 50
270.0
 51
340.528779
  0
ARC
  5
162
100
AcDbEntity
  8
LAY-3
  6
CONTINUOUS
 62
     3
100
AcDbCircle
 10
557.614949
 20
519.15
 30
0.0
 40
2.0
100
AcDbArc
 50
90.0
 51
160.528779
  0
ARC
  5
163
100
AcDbEntity
  8
LAY-3
  6
CONTINUOUS
 62
     3
100
AcDbCircle
 10
557.614949
 20
519.15
 30
0.0
 40
2.0
100
AcDbArc
 50
19.471221
 51
90.0
  0
ARC
  5
164
100
AcDbEntity
  8
LAY-3
  6
CONTINUOUS
 62
     3
100
AcDbCircle
 10
560.443376
 20
520.15
 30
0.0
 40
1.0
100
AcDbArc
 50
199.471221
 51
270.0
  0
LINE
  5
165
100
AcDbEntity
  8
LAY-3
  6
CONTINUOUS
 62
     3
100
AcDbLine
 10
554.786522
 20
519.15
 30
0.0
 11
552.443376
 21
519.15
 31
0.0
  0
LINE
  5
166
100
AcDbEntity
  8
LAY-3
  6
CONTINUOUS
 62
     3
100
AcDbLine
 10
541.528553
 20
519.505951
 30
0.0
 11
541.534297
 21
519.505951
 31
0.0
  0
LINE
  5
167
100
AcDbEntity
  8
LAY-3
  6
CONTINUOUS
 62
     3
100
AcDbLine
 10
549.528553
 20
519.505951
 30
0.0
 11
549.534297
 21
519.505951
 31
0.0
  0
ARC
  5
168
100
AcDbEntity
  8
LAY-3
  6
CONTINUOUS
 62
     3
100
AcDbCircle
 10
538.786522
 20
506.65
 30
0.0
 40
1.0
100
AcDbArc
 50
19.471221
 51
90.0
  0
ARC
  5
169
100
AcDbEntity
  8
LAY-3
  6
CONTINUOUS
 62
     3
100
AcDbCircle
 10
541.614949
 20
507.65
 30
0.0
 40
2.0
100
AcDbArc
 50
199.471221
 51
270.0
  0
ARC
  5
16A
100
AcDbEntity
  8
LAY-3
  6
CONTINUOUS
 62
     3
100
AcDbCircle
 10
541.614949
 20
507.65
 30
0.0
 40
2.0
100
AcDbArc
 50
270.0
 51
340.528779
  0
ARC
  5
16B
100
AcDbEntity
  8
LAY-3
  6
CONTINUOUS
 62
     3
100
AcDbCircle
 10
544.443376
 20
506.65
 30
0.0
 40
1.0
100
AcDbArc
 50
90.0
 51
160.528779
  0
ARC
  5
16C
100
AcDbEntity
  8
LAY-3
  6
CONTINUOUS
 62
     3
100
AcDbCircle
 10
546.786522
 20
506.65
 30
0.0
 40
1.0
100
AcDbArc
 50
19.471221
 51
90.0
  0
ARC
  5
16D
100
AcDbEntity
  8
LAY-3
  6
CONTINUOUS
 62
     3
100
AcDbCircle
 10
549.614949
 20
507.65
 30
0.0
 40
2.0
100
AcDbArc
 50
199.471221
 51
270.0
  0
ARC
  5
16E
100
AcDbEntity
  8
LAY-3
  6
CONTINUOUS
 62
     3
100
AcDbCircle
 10
549.614949
 20
507.65
 30
0.0
 40
2.0
100
AcDbArc
 50
270.0
 51
340.528779
  0
ARC
  5
16F
100
AcDbEntity
  8
LAY-3
  6
CONTINUOUS
 62
     3
100
AcDbCircle
 10
552.443376
 20
506.65
 30
0.0
 40
1.0
100
AcDbArc
 50
90.0
 51
160.528779
  0
LINE
  5
170
100
AcDbEntity
  8
LAY-3
  6
CONTINUOUS
 62
     3
100
AcDbLine
 10
546.786522
 20
507.65
 30
0.0
 11
544.443376
 21
507.65
 31
0.0
  0
ARC
  5
171
100
AcDbEntity
  8
LAY-3
  6
CONTINUOUS
 62
     3
100
AcDbCircle
 10
554.786522
 20
506.65
 30
0.0
 40
1.0
100
AcDbArc
 50
19.471221
 51
90.0
  0
ARC
  5
172
100
AcDbEntity
  8
LAY-3
  6
CONTINUOUS
 62
     3
100
AcDbCircle
 10
557.614949
 20
507.65
 30
0.0
 40
2.0
100
AcDbArc
 50
199.471221
 51
270.0
  0
ARC
  5
173
100
AcDbEntity
  8
LAY-3
  6
CONTINUOUS
 62
     3
100
AcDbCircle
 10
557.614949
 20
507.65
 30
0.0
 40
2.0
100
AcDbArc
 50
270.0
 51
340.528779
  0
ARC
  5
174
100
AcDbEntity
  8
LAY-3
  6
CONTINUOUS
 62
     3
100
AcDbCircle
 10
560.443376
 20
506.65
 30
0.0
 40
1.0
100
AcDbArc
 50
90.0
 51
160.528779
  0
LINE
  5
175
100
AcDbEntity
  8
LAY-3
  6
CONTINUOUS
 62
     3
100
AcDbLine
 10
554.786522
 20
507.65
 30
0.0
 11
552.443376
 21
507.65
 31
0.0
  0
LINE
  5
176
100
AcDbEntity
  8
LAY-3
  6
CONTINUOUS
 62
     3
100
AcDbLine
 10
541.528553
 20
507.294049
 30
0.0
 11
541.534297
 21
507.294049
 31
0.0
  0
LINE
  5
177
100
AcDbEntity
  8
LAY-3
  6
CONTINUOUS
 62
     3
100
AcDbLine
 10
549.528553
 20
507.294049
 30
0.0
 11
549.534297
 21
507.294049
 31
0.0
  0
LINE
  5
178
100
AcDbEntity
  8
LAY-3
  6
CONTINUOUS
 62
     3
100
AcDbLine
 10
514.614949
 20
517.855
 30
0.0
 11
514.614949
 21
508.945
 31
0.0
  0
LINE
  5
179
100
AcDbEntity
  8
LAY-3
  6
CONTINUOUS
 62
     3
100
AcDbLine
 10
538.786522
 20
519.15
 30
0.0
 11
530.909949
 21
519.15
 31
0.0
  0
LINE
  5
17A
100
AcDbEntity
  8
LAY-3
  6
CONTINUOUS
 62
     3
100
AcDbLine
 10
529.614949
 20
517.855
 30
0.0
 11
529.614949
 21
508.945
 31
0.0
  0
LINE
  5
17B
100
AcDbEntity
  8
LAY-3
  6
CONTINUOUS
 62
     3
100
AcDbLine
 10
538.786522
 20
507.65
 30
0.0
 11
530.909949
 21
507.65
 31
0.0
  0
LINE
  5
17C
100
AcDbEntity
  8
LAY-3
  6
CONTINUOUS
 62
     3
100
AcDbLine
 10
530.909949
 20
519.15
 30
0.0
 11
530.909949
 21
507.65
 31
0.0
  0
LINE
  5
17D
100
AcDbEntity
  8
LAY-3
  6
CONTINUOUS
 62
     3
100
AcDbLine
 10
560.443376
 20
519.15
 30
0.0
 11
568.319949
 21
519.15
 31
0.0
  0
LINE
  5
17E
100
AcDbEntity
  8
LAY-3
  6
CONTINUOUS
 62
     3
100
AcDbLine
 10
560.443376
 20
507.65
 30
0.0
 11
568.319949
 21
507.65
 31
0.0
  0
LINE
  5
17F
100
AcDbEntity
  8
LAY-3
  6
CONTINUOUS
 62
     3
100
AcDbLine
 10
529.614949
 20
517.855
 30
0.0
 11
514.614949
 21
517.855
 31
0.0
  0
LINE
  5
180
100
AcDbEntity
  8
LAY-3
  6
CONTINUOUS
 62
     3
100
AcDbLine
 10
529.614949
 20
508.945
 30
0.0
 11
514.614949
 21
508.945
 31
0.0
  0
ARC
  5
181
100
AcDbEntity
  8
LAY-3
  6
CONTINUOUS
 62
     3
100
AcDbCircle
 10
530.909949
 20
517.855
 30
0.0
 40
1.295
100
AcDbArc
 50
90.0
 51
180.0
  0
ARC
  5
182
100
AcDbEntity
  8
LAY-3
  6
CONTINUOUS
 62
     3
100
AcDbCircle
 10
530.909949
 20
508.945
 30
0.0
 40
1.295
100
AcDbArc
 50
180.0
 51
270.0
  0
LINE
  5
183
100
AcDbEntity
  8
LAY-3
  6
CONTINUOUS
 62
     3
100
AcDbLine
 10
569.614949
 20
517.855
 30
0.0
 11
584.614949
 21
517.855
 31
0.0
  0
LINE
  5
184
100
AcDbEntity
  8
LAY-3
  6
CONTINUOUS
 62
     3
100
AcDbLine
 10
569.614949
 20
508.945
 30
0.0
 11
584.614949
 21
508.945
 31
0.0
  0
LINE
  5
185
100
AcDbEntity
  8
LAY-3
  6
CONTINUOUS
 62
     3
100
AcDbLine
 10
584.614949
 20
517.855
 30
0.0
 11
584.614949
 21
508.945
 31
0.0
  0
ARC
  5
186
100
AcDbEntity
  8
LAY-3
  6
CONTINUOUS
 62
     3
100
AcDbCircle
 10
568.319949
 20
517.855
 30
0.0
 40
1.295
100
AcDbArc
 50
0.0
 51
90.0
  0
ARC
  5
187
100
AcDbEntity
  8
LAY-3
  6
CONTINUOUS
 62
     3
100
AcDbCircle
 10
568.319949
 20
508.945
 30
0.0
 40
1.295
100
AcDbArc
 50
270.0
 51
0.0
  0
LINE
  5
188
100
AcDbEntity
  8
LAY-3
  6
CONTINUOUS
 62
     3
100
AcDbLine
 10
569.614949
 20
517.855
 30
0.0
 11
569.614949
 21
508.945
 31
0.0
  0
LINE
  5
189
100
AcDbEntity
  8
LAY-3
  6
CONTINUOUS
 62
     3
100
AcDbLine
 10
568.319949
 20
519.15
 30
0.0
 11
568.319949
 21
507.65
 31
0.0
  0
LINE
  5
18A
100
AcDbEntity
  8
LAY-3
  6
CONTINUOUS
 62
     3
100
AcDbLine
 10
626.057806
 20
519.115
 30
0.0
 11
626.057806
 21
507.685
 31
0.0
  0
ARC
  5
18B
100
AcDbEntity
  8
LAY-3
  6
CONTINUOUS
 62
     3
100
AcDbCircle
 10
650.229379
 20
521.9
 30
0.0
 40
1.0
100
AcDbArc
 50
270.0
 51
340.528779
  0
ARC
  5
18C
100
AcDbEntity
  8
LAY-3
  6
CONTINUOUS
 62
     3
100
AcDbCircle
 10
653.057806
 20
520.9
 30
0.0
 40
2.0
100
AcDbArc
 50
90.0
 51
160.528779
  0
ARC
  5
18D
100
AcDbEntity
  8
LAY-3
  6
CONTINUOUS
 62
     3
100
AcDbCircle
 10
653.057806
 20
520.9
 30
0.0
 40
2.0
100
AcDbArc
 50
19.471221
 51
90.0
  0
ARC
  5
18E
100
AcDbEntity
  8
LAY-3
  6
CONTINUOUS
 62
     3
100
AcDbCircle
 10
655.886233
 20
521.9
 30
0.0
 40
1.0
100
AcDbArc
 50
199.471221
 51
270.0
  0
ARC
  5
18F
100
AcDbEntity
  8
LAY-3
  6
CONTINUOUS
 62
     3
100
AcDbCircle
 10
658.229379
 20
521.9
 30
0.0
 40
1.0
100
AcDbArc
 50
270.0
 51
340.528779
  0
ARC
  5
190
100
AcDbEntity
  8
LAY-3
  6
CONTINUOUS
 62
     3
100
AcDbCircle
 10
661.057806
 20
520.9
 30
0.0
 40
2.0
100
AcDbArc
 50
90.0
 51
160.528779
  0
ARC
  5
191
100
AcDbEntity
  8
LAY-3
  6
CONTINUOUS
 62
     3
100
AcDbCircle
 10
661.057806
 20
520.9
 30
0.0
 40
2.0
100
AcDbArc
 50
19.471221
 51
90.0
  0
ARC
  5
192
100
AcDbEntity
  8
LAY-3
  6
CONTINUOUS
 62
     3
100
AcDbCircle
 10
663.886233
 20
521.9
 30
0.0
 40
1.0
100
AcDbArc
 50
199.471221
 51
270.0
  0
LINE
  5
193
100
AcDbEntity
  8
LAY-3
  6
CONTINUOUS
 62
     3
100
AcDbLine
 10
658.229379
 20
520.9
 30
0.0
 11
655.886233
 21
520.9
 31
0.0
  0
ARC
  5
194
100
AcDbEntity
  8
LAY-3
  6
CONTINUOUS
 62
     3
100
AcDbCircle
 10
666.229379
 20
521.9
 30
0.0
 40
1.0
100
AcDbArc
 50
270.0
 51
340.528779
  0
ARC
  5
195
100
AcDbEntity
  8
LAY-3
  6
CONTINUOUS
 62
     3
100
AcDbCircle
 10
669.057806
 20
520.9
 30
0.0
 40
2.0
100
AcDbArc
 50
90.0
 51
160.528779
  0
ARC
  5
196
100
AcDbEntity
  8
LAY-3
  6
CONTINUOUS
 62
     3
100
AcDbCircle
 10
669.057806
 20
520.9
 30
0.0
 40
2.0
100
AcDbArc
 50
19.471221
 51
90.0
  0
ARC
  5
197
100
AcDbEntity
  8
LAY-3
  6
CONTINUOUS
 62
     3
100
AcDbCircle
 10
671.886233
 20
521.9
 30
0.0
 40
1.0
100
AcDbArc
 50
199.471221
 51
270.0
  0
LINE
  5
198
100
AcDbEntity
  8
LAY-3
  6
CONTINUOUS
 62
     3
100
AcDbLine
 10
666.229379
 20
520.9
 30
0.0
 11
663.886233
 21
520.9
 31
0.0
  0
LINE
  5
199
100
AcDbEntity
  8
LAY-3
  6
CONTINUOUS
 62
     3
100
AcDbLine
 10
652.97141
 20
521.255951
 30
0.0
 11
652.977154
 21
521.255951
 31
0.0
  0
ARC
  5
19A
100
AcDbEntity
  8
LAY-3
  6
CONTINUOUS
 62
     3
100
AcDbCircle
 10
650.229379
 20
504.9
 30
0.0
 40
1.0
100
AcDbArc
 50
19.471221
 51
90.0
  0
ARC
  5
19B
100
AcDbEntity
  8
LAY-3
  6
CONTINUOUS
 62
     3
100
AcDbCircle
 10
653.057806
 20
505.9
 30
0.0
 40
2.0
100
AcDbArc
 50
199.471221
 51
270.0
  0
ARC
  5
19C
100
AcDbEntity
  8
LAY-3
  6
CONTINUOUS
 62
     3
100
AcDbCircle
 10
653.057806
 20
505.9
 30
0.0
 40
2.0
100
AcDbArc
 50
270.0
 51
340.528779
  0
ARC
  5
19D
100
AcDbEntity
  8
LAY-3
  6
CONTINUOUS
 62
     3
100
AcDbCircle
 10
655.886233
 20
504.9
 30
0.0
 40
1.0
100
AcDbArc
 50
90.0
 51
160.528779
  0
ARC
  5
19E
100
AcDbEntity
  8
LAY-3
  6
CONTINUOUS
 62
     3
100
AcDbCircle
 10
658.229379
 20
504.9
 30
0.0
 40
1.0
100
AcDbArc
 50
19.471221
 51
90.0
  0
ARC
  5
19F
100
AcDbEntity
  8
LAY-3
  6
CONTINUOUS
 62
     3
100
AcDbCircle
 10
661.057806
 20
505.9
 30
0.0
 40
2.0
100
AcDbArc
 50
199.471221
 51
270.0
  0
ARC
  5
1A0
100
AcDbEntity
  8
LAY-3
  6
CONTINUOUS
 62
     3
100
AcDbCircle
 10
661.057806
 20
505.9
 30
0.0
 40
2.0
100
AcDbArc
 50
270.0
 51
340.528779
  0
ARC
  5
1A1
100
AcDbEntity
  8
LAY-3
  6
CONTINUOUS
 62
     3
100
AcDbCircle
 10
663.886233
 20
504.9
 30
0.0
 40
1.0
100
AcDbArc
 50
90.0
 51
160.528779
  0
LINE
  5
1A2
100
AcDbEntity
  8
LAY-3
  6
CONTINUOUS
 62
     3
100
AcDbLine
 10
658.229379
 20
505.9
 30
0.0
 11
655.886233
 21
505.9
 31
0.0
  0
ARC
  5
1A3
100
AcDbEntity
  8
LAY-3
  6
CONTINUOUS
 62
     3
100
AcDbCircle
 10
666.229379
 20
504.9
 30
0.0
 40
1.0
100
AcDbArc
 50
19.471221
 51
90.0
  0
ARC
  5
1A4
100
AcDbEntity
  8
LAY-3
  6
CONTINUOUS
 62
     3
100
AcDbCircle
 10
669.057806
 20
505.9
 30
0.0
 40
2.0
100
AcDbArc
 50
199.471221
 51
270.0
  0
ARC
  5
1A5
100
AcDbEntity
  8
LAY-3
  6
CONTINUOUS
 62
     3
100
AcDbCircle
 10
669.057806
 20
505.9
 30
0.0
 40
2.0
100
AcDbArc
 50
270.0
 51
340.528779
  0
ARC
  5
1A6
100
AcDbEntity
  8
LAY-3
  6
CONTINUOUS
 62
     3
100
AcDbCircle
 10
671.886233
 20
504.9
 30
0.0
 40
1.0
100
AcDbArc
 50
90.0
 51
160.528779
  0
LINE
  5
1A7
100
AcDbEntity
  8
LAY-3
  6
CONTINUOUS
 62
     3
100
AcDbLine
 10
666.229379
 20
505.9
 30
0.0
 11
663.886233
 21
505.9
 31
0.0
  0
LINE
  5
1A8
100
AcDbEntity
  8
LAY-3
  6
CONTINUOUS
 62
     3
100
AcDbLine
 10
652.97141
 20
505.544049
 30
0.0
 11
652.977154
 21
505.544049
 31
0.0
  0
LINE
  5
1A9
100
AcDbEntity
  8
LAY-3
  6
CONTINUOUS
 62
     3
100
AcDbLine
 10
660.97141
 20
505.544049
 30
0.0
 11
660.977154
 21
505.544049
 31
0.0
  0
LINE
  5
1AA
100
AcDbEntity
  8
LAY-3
  6
CONTINUOUS
 62
     3
100
AcDbLine
 10
650.229379
 20
520.9
 30
0.0
 11
642.82
 21
520.9
 31
0.0
  0
LINE
  5
1AB
100
AcDbEntity
  8
LAY-3
  6
CONTINUOUS
 62
     3
100
AcDbLine
 10
641.057806
 20
519.115
 30
0.0
 11
641.057806
 21
507.685
 31
0.0
  0
LINE
  5
1AC
100
AcDbEntity
  8
LAY-3
  6
CONTINUOUS
 62
     3
100
AcDbLine
 10
642.842806
 20
520.9
 30
0.0
 11
642.842806
 21
505.9
 31
0.0
  0
LINE
  5
1AD
100
AcDbEntity
  8
LAY-3
  6
CONTINUOUS
 62
     3
100
AcDbLine
 10
650.229379
 20
505.9
 30
0.0
 11
642.842806
 21
505.9
 31
0.0
  0
LINE
  5
1AE
100
AcDbEntity
  8
LAY-3
  6
CONTINUOUS
 62
     3
100
AcDbLine
 10
671.886233
 20
520.9
 30
0.0
 11
679.762806
 21
520.9
 31
0.0
  0
LINE
  5
1AF
100
AcDbEntity
  8
LAY-3
  6
CONTINUOUS
 62
     3
100
AcDbLine
 10
671.886233
 20
505.9
 30
0.0
 11
679.762806
 21
505.9
 31
0.0
  0
LINE
  5
1B0
100
AcDbEntity
  8
LAY-3
  6
CONTINUOUS
 62
     3
100
AcDbLine
 10
626.057806
 20
519.115
 30
0.0
 11
641.057806
 21
519.115
 31
0.0
  0
LINE
  5
1B1
100
AcDbEntity
  8
LAY-3
  6
CONTINUOUS
 62
     3
100
AcDbLine
 10
626.057806
 20
507.685
 30
0.0
 11
641.057806
 21
507.685
 31
0.0
  0
ARC
  5
1B2
100
AcDbEntity
  8
LAY-3
  6
CONTINUOUS
 62
     3
100
AcDbCircle
 10
642.842806
 20
519.115
 30
0.0
 40
1.785
100
AcDbArc
 50
90.0
 51
180.0
  0
ARC
  5
1B3
100
AcDbEntity
  8
LAY-3
  6
CONTINUOUS
 62
     3
100
AcDbCircle
 10
642.842806
 20
507.685
 30
0.0
 40
1.785
100
AcDbArc
 50
180.0
 51
270.0
  0
LINE
  5
1B4
100
AcDbEntity
  8
LAY-3
  6
CONTINUOUS
 62
     3
100
AcDbLine
 10
696.057806
 20
519.115
 30
0.0
 11
681.057806
 21
519.115
 31
0.0
  0
LINE
  5
1B5
100
AcDbEntity
  8
LAY-3
  6
CONTINUOUS
 62
     3
100
AcDbLine
 10
696.057806
 20
507.685
 30
0.0
 11
681.057806
 21
507.685
 31
0.0
  0
LINE
  5
1B6
100
AcDbEntity
  8
LAY-3
  6
CONTINUOUS
 62
     3
100
AcDbLine
 10
696.057806
 20
519.115
 30
0.0
 11
696.057806
 21
507.685
 31
0.0
  0
ARC
  5
1B7
100
AcDbEntity
  8
LAY-3
  6
CONTINUOUS
 62
     3
100
AcDbCircle
 10
679.272806
 20
519.115
 30
0.0
 40
1.785
100
AcDbArc
 50
0.0
 51
90.0
  0
LINE
  5
1B8
100
AcDbEntity
  8
LAY-3
  6
CONTINUOUS
 62
     3
100
AcDbLine
 10
679.272806
 20
520.9
 30
0.0
 11
679.272806
 21
505.9
 31
0.0
  0
ARC
  5
1B9
100
AcDbEntity
  8
LAY-3
  6
CONTINUOUS
 62
     3
100
AcDbCircle
 10
679.272806
 20
507.685
 30
0.0
 40
1.785
100
AcDbArc
 50
270.0
 51
0.0
  0
LINE
  5
1BA
100
AcDbEntity
  8
LAY-3
  6
CONTINUOUS
 62
     3
100
AcDbLine
 10
681.057806
 20
519.115
 30
0.0
 11
681.057806
 21
507.685
 31
0.0
  0
LINE
  5
1BB
100
AcDbEntity
  8
LAY-3
  6
CONTINUOUS
 62
     3
100
AcDbLine
 10
737.500663
 20
520.39
 30
0.0
 11
737.500663
 21
506.41
 31
0.0
  0
ARC
  5
1BC
100
AcDbEntity
  8
LAY-3
  6
CONTINUOUS
 62
     3
100
AcDbCircle
 10
761.672236
 20
522.9
 30
0.0
 40
1.0
100
AcDbArc
 50
270.0
 51
340.528779
  0
ARC
  5
1BD
100
AcDbEntity
  8
LAY-3
  6
CONTINUOUS
 62
     3
100
AcDbCircle
 10
764.500663
 20
521.9
 30
0.0
 40
2.0
100
AcDbArc
 50
90.0
 51
160.528779
  0
ARC
  5
1BE
100
AcDbEntity
  8
LAY-3
  6
CONTINUOUS
 62
     3
100
AcDbCircle
 10
764.500663
 20
521.9
 30
0.0
 40
2.0
100
AcDbArc
 50
19.471221
 51
90.0
  0
ARC
  5
1BF
100
AcDbEntity
  8
LAY-3
  6
CONTINUOUS
 62
     3
100
AcDbCircle
 10
767.32909
 20
522.9
 30
0.0
 40
1.0
100
AcDbArc
 50
199.471221
 51
270.0
  0
ARC
  5
1C0
100
AcDbEntity
  8
LAY-3
  6
CONTINUOUS
 62
     3
100
AcDbCircle
 10
769.672236
 20
522.9
 30
0.0
 40
1.0
100
AcDbArc
 50
270.0
 51
340.528779
  0
ARC
  5
1C1
100
AcDbEntity
  8
LAY-3
  6
CONTINUOUS
 62
     3
100
AcDbCircle
 10
772.500663
 20
521.9
 30
0.0
 40
2.0
100
AcDbArc
 50
90.0
 51
160.528779
  0
ARC
  5
1C2
100
AcDbEntity
  8
LAY-3
  6
CONTINUOUS
 62
     3
100
AcDbCircle
 10
772.500663
 20
521.9
 30
0.0
 40
2.0
100
AcDbArc
 50
19.471221
 51
90.0
  0
ARC
  5
1C3
100
AcDbEntity
  8
LAY-3
  6
CONTINUOUS
 62
     3
100
AcDbCircle
 10
775.32909
 20
522.9
 30
0.0
 40
1.0
100
AcDbArc
 50
199.471221
 51
270.0
  0
LINE
  5
1C4
100
AcDbEntity
  8
LAY-3
  6
CONTINUOUS
 62
     3
100
AcDbLine
 10
769.672236
 20
521.9
 30
0.0
 11
767.32909
 21
521.9
 31
0.0
  0
ARC
  5
1C5
100
AcDbEntity
  8
LAY-3
  6
CONTINUOUS
 62
     3
100
AcDbCircle
 10
777.672236
 20
522.9
 30
0.0
 40
1.0
100
AcDbArc
 50
270.0
 51
340.528779
  0
ARC
  5
1C6
100
AcDbEntity
  8
LAY-3
  6
CONTINUOUS
 62
     3
100
AcDbCircle
 10
780.500663
 20
521.9
 30
0.0
 40
2.0
100
AcDbArc
 50
90.0
 51
160.528779
  0
ARC
  5
1C7
100
AcDbEntity
  8
LAY-3
  6
CONTINUOUS
 62
     3
100
AcDbCircle
 10
780.500663
 20
521.9
 30
0.0
 40
2.0
100
AcDbArc
 50
19.471221
 51
90.0
  0
ARC
  5
1C8
100
AcDbEntity
  8
LAY-3
  6
CONTINUOUS
 62
     3
100
AcDbCircle
 10
783.32909
 20
522.9
 30
0.0
 40
1.0
100
AcDbArc
 50
199.471221
 51
270.0
  0
LINE
  5
1C9
100
AcDbEntity
  8
LAY-3
  6
CONTINUOUS
 62
     3
100
AcDbLine
 10
777.672236
 20
521.9
 30
0.0
 11
775.32909
 21
521.9
 31
0.0
  0
LINE
  5
1CA
100
AcDbEntity
  8
LAY-3
  6
CONTINUOUS
 62
     3
100
AcDbLine
 10
764.414267
 20
522.255951
 30
0.0
 11
764.420012
 21
522.255951
 31
0.0
  0
LINE
  5
1CB
100
AcDbEntity
  8
LAY-3
  6
CONTINUOUS
 62
     3
100
AcDbLine
 10
772.414267
 20
522.255951
 30
0.0
 11
772.420012
 21
522.255951
 31
0.0
  0
LINE
  5
1CC
100
AcDbEntity
  8
LAY-3
  6
CONTINUOUS
 62
     3
100
AcDbLine
 10
783.32909
 20
521.9
 30
0.0
 11
791.205663
 21
521.9
 31
0.0
  0
ARC
  5
1CD
100
AcDbEntity
  8
LAY-3
  6
CONTINUOUS
 62
     3
100
AcDbCircle
 10
761.672236
 20
503.9
 30
0.0
 40
1.0
100
AcDbArc
 50
19.471221
 51
90.0
  0
ARC
  5
1CE
100
AcDbEntity
  8
LAY-3
  6
CONTINUOUS
 62
     3
100
AcDbCircle
 10
764.500663
 20
504.9
 30
0.0
 40
2.0
100
AcDbArc
 50
199.471221
 51
270.0
  0
ARC
  5
1CF
100
AcDbEntity
  8
LAY-3
  6
CONTINUOUS
 62
     3
100
AcDbCircle
 10
764.500663
 20
504.9
 30
0.0
 40
2.0
100
AcDbArc
 50
270.0
 51
340.528779
  0
ARC
  5
1D0
100
AcDbEntity
  8
LAY-3
  6
CONTINUOUS
 62
     3
100
AcDbCircle
 10
767.32909
 20
503.9
 30
0.0
 40
1.0
100
AcDbArc
 50
90.0
 51
160.528779
  0
ARC
  5
1D1
100
AcDbEntity
  8
LAY-3
  6
CONTINUOUS
 62
     3
100
AcDbCircle
 10
769.672236
 20
503.9
 30
0.0
 40
1.0
100
AcDbArc
 50
19.471221
 51
90.0
  0
ARC
  5
1D2
100
AcDbEntity
  8
LAY-3
  6
CONTINUOUS
 62
     3
100
AcDbCircle
 10
772.500663
 20
504.9
 30
0.0
 40
2.0
100
AcDbArc
 50
199.471221
 51
270.0
  0
ARC
  5
1D3
100
AcDbEntity
  8
LAY-3
  6
CONTINUOUS
 62
     3
100
AcDbCircle
 10
772.500663
 20
504.9
 30
0.0
 40
2.0
100
AcDbArc
 50
270.0
 51
340.528779
  0
ARC
  5
1D4
100
AcDbEntity
  8
LAY-3
  6
CONTINUOUS
 62
     3
100
AcDbCircle
 10
775.32909
 20
503.9
 30
0.0
 40
1.0
100
AcDbArc
 50
90.0
 51
160.528779
  0
LINE
  5
1D5
100
AcDbEntity
  8
LAY-3
  6
CONTINUOUS
 62
     3
100
AcDbLine
 10
769.672236
 20
504.9
 30
0.0
 11
767.32909
 21
504.9
 31
0.0
  0
ARC
  5
1D6
100
AcDbEntity
  8
LAY-3
  6
CONTINUOUS
 62
     3
100
AcDbCircle
 10
777.672236
 20
503.9
 30
0.0
 40
1.0
100
AcDbArc
 50
19.471221
 51
90.0
  0
ARC
  5
1D7
100
AcDbEntity
  8
LAY-3
  6
CONTINUOUS
 62
     3
100
AcDbCircle
 10
780.500663
 20
504.9
 30
0.0
 40
2.0
100
AcDbArc
 50
199.471221
 51
270.0
  0
ARC
  5
1D8
100
AcDbEntity
  8
LAY-3
  6
CONTINUOUS
 62
     3
100
AcDbCircle
 10
780.500663
 20
504.9
 30
0.0
 40
2.0
100
AcDbArc
 50
270.0
 51
340.528779
  0
ARC
  5
1D9
100
AcDbEntity
  8
LAY-3
  6
CONTINUOUS
 62
     3
100
AcDbCircle
 10
783.32909
 20
503.9
 30
0.0
 40
1.0
100
AcDbArc
 50
90.0
 51
160.528779
  0
LINE
  5
1DA
100
AcDbEntity
  8
LAY-3
  6
CONTINUOUS
 62
     3
100
AcDbLine
 10
777.672236
 20
504.9
 30
0.0
 11
775.32909
 21
504.9
 31
0.0
  0
LINE
  5
1DB
100
AcDbEntity
  8
LAY-3
  6
CONTINUOUS
 62
     3
100
AcDbLine
 10
764.414267
 20
504.544049
 30
0.0
 11
764.420012
 21
504.544049
 31
0.0
  0
LINE
  5
1DC
100
AcDbEntity
  8
LAY-3
  6
CONTINUOUS
 62
     3
100
AcDbLine
 10
772.414267
 20
504.544049
 30
0.0
 11
772.420012
 21
504.544049
 31
0.0
  0
LINE
  5
1DD
100
AcDbEntity
  8
LAY-3
  6
CONTINUOUS
 62
     3
100
AcDbLine
 10
783.32909
 20
504.9
 30
0.0
 11
791.205663
 21
504.9
 31
0.0
  0
LINE
  5
1DE
100
AcDbEntity
  8
LAY-3
  6
CONTINUOUS
 62
     3
100
AcDbLine
 10
761.672236
 20
521.9
 30
0.0
 11
754.010663
 21
521.9
 31
0.0
  0
LINE
  5
1DF
100
AcDbEntity
  8
LAY-3
  6
CONTINUOUS
 62
     3
100
AcDbLine
 10
754.010663
 20
521.9
 30
0.0
 11
754.010663
 21
504.9
 31
0.0
  0
LINE
  5
1E0
100
AcDbEntity
  8
LAY-3
  6
CONTINUOUS
 62
     3
100
AcDbLine
 10
752.500663
 20
520.39
 30
0.0
 11
752.500663
 21
506.41
 31
0.0
  0
LINE
  5
1E1
100
AcDbEntity
  8
LAY-3
  6
CONTINUOUS
 62
     3
100
AcDbLine
 10
761.672236
 20
504.9
 30
0.0
 11
754.0
 21
504.9
 31
0.0
  0
LINE
  5
1E2
100
AcDbEntity
  8
LAY-3
  6
CONTINUOUS
 62
     3
100
AcDbLine
 10
737.500663
 20
520.39
 30
0.0
 11
752.500663
 21
520.39
 31
0.0
  0
LINE
  5
1E3
100
AcDbEntity
  8
LAY-3
  6
CONTINUOUS
 62
     3
100
AcDbLine
 10
737.500663
 20
506.41
 30
0.0
 11
752.500663
 21
506.41
 31
0.0
  0
ARC
  5
1E4
100
AcDbEntity
  8
LAY-3
  6
CONTINUOUS
 62
     3
100
AcDbCircle
 10
754.010663
 20
520.39
 30
0.0
 40
1.51
100
AcDbArc
 50
90.0
 51
180.0
  0
ARC
  5
1E5
100
AcDbEntity
  8
LAY-3
  6
CONTINUOUS
 62
     3
100
AcDbCircle
 10
754.010663
 20
506.41
 30
0.0
 40
1.51
100
AcDbArc
 50
180.0
 51
270.0
  0
LINE
  5
1E6
100
AcDbEntity
  8
LAY-3
  6
CONTINUOUS
 62
     3
100
AcDbLine
 10
807.500663
 20
520.39
 30
0.0
 11
792.500663
 21
520.39
 31
0.0
  0
LINE
  5
1E7
100
AcDbEntity
  8
LAY-3
  6
CONTINUOUS
 62
     3
100
AcDbLine
 10
807.500663
 20
506.41
 30
0.0
 11
792.500663
 21
506.41
 31
0.0
  0
LINE
  5
1E8
100
AcDbEntity
  8
LAY-3
  6
CONTINUOUS
 62
     3
100
AcDbLine
 10
807.500663
 20
520.39
 30
0.0
 11
807.500663
 21
506.41
 31
0.0
  0
ARC
  5
1E9
100
AcDbEntity
  8
LAY-3
  6
CONTINUOUS
 62
     3
100
AcDbCircle
 10
790.990663
 20
520.39
 30
0.0
 40
1.51
100
AcDbArc
 50
0.0
 51
90.0
  0
ARC
  5
1EA
100
AcDbEntity
  8
LAY-3
  6
CONTINUOUS
 62
     3
100
AcDbCircle
 10
790.990663
 20
506.41
 30
0.0
 40
1.51
100
AcDbArc
 50
270.0
 51
0.0
  0
LINE
  5
1EB
100
AcDbEntity
  8
LAY-3
  6
CONTINUOUS
 62
     3
100
AcDbLine
 10
792.500663
 20
520.39
 30
0.0
 11
792.500663
 21
506.41
 31
0.0
  0
LINE
  5
1EC
100
AcDbEntity
  8
LAY-3
  6
CONTINUOUS
 62
     3
100
AcDbLine
 10
790.990663
 20
521.9
 30
0.0
 11
790.990663
 21
504.9
 31
0.0
  0
LINE
  5
1ED
100
AcDbEntity
  8
LAY-3
  6
CONTINUOUS
 62
     3
100
AcDbLine
 10
66.14352
 20
448.26
 30
0.0
 11
66.14352
 21
431.74
 31
0.0
  0
LINE
  5
1EE
100
AcDbEntity
  8
LAY-3
  6
CONTINUOUS
 62
     3
100
AcDbLine
 10
81.14352
 20
448.26
 30
0.0
 11
81.14352
 21
431.74
 31
0.0
  0
LINE
  5
1EF
100
AcDbEntity
  8
LAY-3
  6
CONTINUOUS
 62
     3
100
AcDbLine
 10
82.38352
 20
449.5
 30
0.0
 11
82.38352
 21
430.5
 31
0.0
  0
LINE
  5
1F0
100
AcDbEntity
  8
LAY-3
  6
CONTINUOUS
 62
     3
100
AcDbLine
 10
66.14352
 20
448.26
 30
0.0
 11
81.14352
 21
448.26
 31
0.0
  0
LINE
  5
1F1
100
AcDbEntity
  8
LAY-3
  6
CONTINUOUS
 62
     3
100
AcDbLine
 10
66.14352
 20
431.74
 30
0.0
 11
81.14352
 21
431.74
 31
0.0
  0
ARC
  5
1F2
100
AcDbEntity
  8
LAY-3
  6
CONTINUOUS
 62
     3
100
AcDbCircle
 10
89.770537
 20
450.5
 30
0.0
 40
1.0
100
AcDbArc
 50
270.0
 51
345.522488
  0
LINE
  5
1F3
100
AcDbEntity
  8
LAY-3
  6
CONTINUOUS
 62
     3
100
AcDbLine
 10
89.770537
 20
449.5
 30
0.0
 11
82.38352
 21
449.5
 31
0.0
  0
ARC
  5
1F4
100
AcDbEntity
  8
LAY-3
  6
CONTINUOUS
 62
     3
100
AcDbCircle
 10
93.64352
 20
449.5
 30
0.0
 40
3.0
100
AcDbArc
 50
90.0
 51
165.522488
  0
ARC
  5
1F5
100
AcDbEntity
  8
LAY-3
  6
CONTINUOUS
 62
     3
100
AcDbCircle
 10
93.64352
 20
449.5
 30
0.0
 40
3.0
100
AcDbArc
 50
14.477512
 51
90.0
  0
ARC
  5
1F6
100
AcDbEntity
  8
LAY-3
  6
CONTINUOUS
 62
     3
100
AcDbCircle
 10
97.516503
 20
450.5
 30
0.0
 40
1.0
100
AcDbArc
 50
194.477512
 51
270.0
  0
ARC
  5
1F7
100
AcDbEntity
  8
LAY-3
  6
CONTINUOUS
 62
     3
100
AcDbCircle
 10
82.38352
 20
448.26
 30
0.0
 40
1.24
100
AcDbArc
 50
90.0
 51
180.0
  0
ARC
  5
1F8
100
AcDbEntity
  8
LAY-3
  6
CONTINUOUS
 62
     3
100
AcDbCircle
 10
110.016503
 20
450.5
 30
0.0
 40
1.0
100
AcDbArc
 50
194.477512
 51
270.0
  0
ARC
  5
1F9
100
AcDbEntity
  8
LAY-3
  6
CONTINUOUS
 62
     3
100
AcDbCircle
 10
106.14352
 20
449.5
 30
0.0
 40
3.0
100
AcDbArc
 50
14.477512
 51
90.0
  0
ARC
  5
1FA
100
AcDbEntity
  8
LAY-3
  6
CONTINUOUS
 62
     3
100
AcDbCircle
 10
106.14352
 20
449.5
 30
0.0
 40
3.0
100
AcDbArc
 50
90.0
 51
165.522488
  0
ARC
  5
1FB
100
AcDbEntity
  8
LAY-3
  6
CONTINUOUS
 62
     3
100
AcDbCircle
 10
102.270537
 20
450.5
 30
0.0
 40
1.0
100
AcDbArc
 50
270.0
 51
345.522488
  0
LINE
  5
1FC
100
AcDbEntity
  8
LAY-3
  6
CONTINUOUS
 62
     3
100
AcDbLine
 10
97.516503
 20
449.5
 30
0.0
 11
102.270537
 21
449.5
 31
0.0
  0
ARC
  5
1FD
100
AcDbEntity
  8
LAY-3
  6
CONTINUOUS
 62
     3
100
AcDbCircle
 10
82.38352
 20
431.74
 30
0.0
 40
1.24
100
AcDbArc
 50
180.0
 51
270.0
  0
ARC
  5
1FE
100
AcDbEntity
  8
LAY-3
  6
CONTINUOUS
 62
     3
100
AcDbCircle
 10
122.516503
 20
450.5
 30
0.0
 40
1.0
100
AcDbArc
 50
194.477512
 51
270.0
  0
ARC
  5
1FF
100
AcDbEntity
  8
LAY-3
  6
CONTINUOUS
 62
     3
100
AcDbCircle
 10
118.64352
 20
449.5
 30
0.0
 40
3.0
100
AcDbArc
 50
14.477512
 51
90.0
  0
ARC
  5
200
100
AcDbEntity
  8
LAY-3
  6
CONTINUOUS
 62
     3
100
AcDbCircle
 10
118.64352
 20
449.5
 30
0.0
 40
3.0
100
AcDbArc
 50
90.0
 51
165.522488
  0
ARC
  5
201
100
AcDbEntity
  8
LAY-3
  6
CONTINUOUS
 62
     3
100
AcDbCircle
 10
114.770537
 20
450.5
 30
0.0
 40
1.0
100
AcDbArc
 50
270.0
 51
345.522488
  0
LINE
  5
202
100
AcDbEntity
  8
LAY-3
  6
CONTINUOUS
 62
     3
100
AcDbLine
 10
114.770537
 20
449.5
 30
0.0
 11
110.016503
 21
449.5
 31
0.0
  0
LINE
  5
203
100
AcDbEntity
  8
LAY-3
  6
CONTINUOUS
 62
     3
100
AcDbLine
 10
146.14352
 20
448.26
 30
0.0
 11
131.14352
 21
448.26
 31
0.0
  0
LINE
  5
204
100
AcDbEntity
  8
LAY-3
  6
CONTINUOUS
 62
     3
100
AcDbLine
 10
146.14352
 20
431.74
 30
0.0
 11
131.14352
 21
431.74
 31
0.0
  0
LINE
  5
205
100
AcDbEntity
  8
LAY-3
  6
CONTINUOUS
 62
     3
100
AcDbLine
 10
146.14352
 20
448.26
 30
0.0
 11
146.14352
 21
431.74
 31
0.0
  0
ARC
  5
206
100
AcDbEntity
  8
LAY-3
  6
CONTINUOUS
 62
     3
100
AcDbCircle
 10
129.90352
 20
448.26
 30
0.0
 40
1.24
100
AcDbArc
 50
0.0
 51
90.0
  0
ARC
  5
207
100
AcDbEntity
  8
LAY-3
  6
CONTINUOUS
 62
     3
100
AcDbCircle
 10
129.90352
 20
431.74
 30
0.0
 40
1.24
100
AcDbArc
 50
270.0
 51
0.0
  0
LINE
  5
208
100
AcDbEntity
  8
LAY-3
  6
CONTINUOUS
 62
     3
100
AcDbLine
 10
131.14352
 20
448.26
 30
0.0
 11
131.14352
 21
431.74
 31
0.0
  0
LINE
  5
209
100
AcDbEntity
  8
LAY-3
  6
CONTINUOUS
 62
     3
100
AcDbLine
 10
129.90352
 20
449.5
 30
0.0
 11
129.90352
 21
430.5
 31
0.0
  0
LINE
  5
20A
100
AcDbEntity
  8
LAY-3
  6
CONTINUOUS
 62
     3
100
AcDbLine
 10
122.516503
 20
449.5
 30
0.0
 11
129.90352
 21
449.5
 31
0.0
  0
ARC
  5
20B
100
AcDbEntity
  8
LAY-3
  6
CONTINUOUS
 62
     3
100
AcDbCircle
 10
82.38352
 20
431.74
 30
0.0
 40
1.24
100
AcDbArc
 50
180.0
 51
270.0
  0
ARC
  5
20C
100
AcDbEntity
  8
LAY-3
  6
CONTINUOUS
 62
     3
100
AcDbCircle
 10
110.016503
 20
429.5
 30
0.0
 40
1.0
100
AcDbArc
 50
90.0
 51
165.522488
  0
ARC
  5
20D
100
AcDbEntity
  8
LAY-3
  6
CONTINUOUS
 62
     3
100
AcDbCircle
 10
106.14352
 20
430.5
 30
0.0
 40
3.0
100
AcDbArc
 50
270.0
 51
345.522488
  0
ARC
  5
20E
100
AcDbEntity
  8
LAY-3
  6
CONTINUOUS
 62
     3
100
AcDbCircle
 10
106.14352
 20
430.5
 30
0.0
 40
3.0
100
AcDbArc
 50
194.477512
 51
270.0
  0
ARC
  5
20F
100
AcDbEntity
  8
LAY-3
  6
CONTINUOUS
 62
     3
100
AcDbCircle
 10
102.270537
 20
429.5
 30
0.0
 40
1.0
100
AcDbArc
 50
14.477512
 51
90.0
  0
ARC
  5
210
100
AcDbEntity
  8
LAY-3
  6
CONTINUOUS
 62
     3
100
AcDbCircle
 10
89.770537
 20
429.5
 30
0.0
 40
1.0
100
AcDbArc
 50
14.477512
 51
90.0
  0
ARC
  5
211
100
AcDbEntity
  8
LAY-3
  6
CONTINUOUS
 62
     3
100
AcDbCircle
 10
93.64352
 20
430.5
 30
0.0
 40
3.0
100
AcDbArc
 50
194.477512
 51
270.0
  0
ARC
  5
212
100
AcDbEntity
  8
LAY-3
  6
CONTINUOUS
 62
     3
100
AcDbCircle
 10
93.64352
 20
430.5
 30
0.0
 40
3.0
100
AcDbArc
 50
270.0
 51
345.522488
  0
ARC
  5
213
100
AcDbEntity
  8
LAY-3
  6
CONTINUOUS
 62
     3
100
AcDbCircle
 10
97.516503
 20
429.5
 30
0.0
 40
1.0
100
AcDbArc
 50
90.0
 51
165.522488
  0
LINE
  5
214
100
AcDbEntity
  8
LAY-3
  6
CONTINUOUS
 62
     3
100
AcDbLine
 10
89.770537
 20
430.5
 30
0.0
 11
82.38352
 21
430.5
 31
0.0
  0
LINE
  5
215
100
AcDbEntity
  8
LAY-3
  6
CONTINUOUS
 62
     3
100
AcDbLine
 10
97.516503
 20
430.5
 30
0.0
 11
102.270537
 21
430.5
 31
0.0
  0
ARC
  5
216
100
AcDbEntity
  8
LAY-3
  6
CONTINUOUS
 62
     3
100
AcDbCircle
 10
122.516503
 20
429.5
 30
0.0
 40
1.0
100
AcDbArc
 50
90.0
 51
165.522488
  0
ARC
  5
217
100
AcDbEntity
  8
LAY-3
  6
CONTINUOUS
 62
     3
100
AcDbCircle
 10
118.64352
 20
430.5
 30
0.0
 40
3.0
100
AcDbArc
 50
270.0
 51
345.522488
  0
ARC
  5
218
100
AcDbEntity
  8
LAY-3
  6
CONTINUOUS
 62
     3
100
AcDbCircle
 10
118.64352
 20
430.5
 30
0.0
 40
3.0
100
AcDbArc
 50
194.477512
 51
270.0
  0
ARC
  5
219
100
AcDbEntity
  8
LAY-3
  6
CONTINUOUS
 62
     3
100
AcDbCircle
 10
114.770537
 20
429.5
 30
0.0
 40
1.0
100
AcDbArc
 50
14.477512
 51
90.0
  0
LINE
  5
21A
100
AcDbEntity
  8
LAY-3
  6
CONTINUOUS
 62
     3
100
AcDbLine
 10
114.770537
 20
430.5
 30
0.0
 11
110.016503
 21
430.5
 31
0.0
  0
ARC
  5
21B
100
AcDbEntity
  8
LAY-3
  6
CONTINUOUS
 62
     3
100
AcDbCircle
 10
129.90352
 20
431.74
 30
0.0
 40
1.24
100
AcDbArc
 50
270.0
 51
0.0
  0
LINE
  5
21C
100
AcDbEntity
  8
LAY-3
  6
CONTINUOUS
 62
     3
100
AcDbLine
 10
122.516503
 20
430.5
 30
0.0
 11
129.90352
 21
430.5
 31
0.0
  0
LINE
  5
21D
100
AcDbEntity
  8
LAY-3
  6
CONTINUOUS
 62
     3
100
AcDbLine
 10
177.586377
 20
450.815
 30
0.0
 11
177.586377
 21
429.185
 31
0.0
  0
ARC
  5
21E
100
AcDbEntity
  8
LAY-3
  6
CONTINUOUS
 62
     3
100
AcDbCircle
 10
221.459361
 20
453.0
 30
0.0
 40
1.0
100
AcDbArc
 50
194.477512
 51
270.0
  0
ARC
  5
21F
100
AcDbEntity
  8
LAY-3
  6
CONTINUOUS
 62
     3
100
AcDbCircle
 10
217.586377
 20
452.0
 30
0.0
 40
3.0
100
AcDbArc
 50
14.477512
 51
90.0
  0
ARC
  5
220
100
AcDbEntity
  8
LAY-3
  6
CONTINUOUS
 62
     3
100
AcDbCircle
 10
217.586377
 20
452.0
 30
0.0
 40
3.0
100
AcDbArc
 50
90.0
 51
165.522488
  0
ARC
  5
221
100
AcDbEntity
  8
LAY-3
  6
CONTINUOUS
 62
     3
100
AcDbCircle
 10
213.713394
 20
453.0
 30
0.0
 40
1.0
100
AcDbArc
 50
270.0
 51
345.522488
  0
ARC
  5
222
100
AcDbEntity
  8
LAY-3
  6
CONTINUOUS
 62
     3
100
AcDbCircle
 10
201.213394
 20
453.0
 30
0.0
 40
1.0
100
AcDbArc
 50
270.0
 51
345.522488
  0
ARC
  5
223
100
AcDbEntity
  8
LAY-3
  6
CONTINUOUS
 62
     3
100
AcDbCircle
 10
205.086377
 20
452.0
 30
0.0
 40
3.0
100
AcDbArc
 50
90.0
 51
165.522488
  0
ARC
  5
224
100
AcDbEntity
  8
LAY-3
  6
CONTINUOUS
 62
     3
100
AcDbCircle
 10
205.086377
 20
452.0
 30
0.0
 40
3.0
100
AcDbArc
 50
14.477512
 51
90.0
  0
ARC
  5
225
100
AcDbEntity
  8
LAY-3
  6
CONTINUOUS
 62
     3
100
AcDbCircle
 10
208.959361
 20
453.0
 30
0.0
 40
1.0
100
AcDbArc
 50
194.477512
 51
270.0
  0
LINE
  5
226
100
AcDbEntity
  8
LAY-3
  6
CONTINUOUS
 62
     3
100
AcDbLine
 10
201.213394
 20
452.0
 30
0.0
 11
193.771377
 21
452.0
 31
0.0
  0
LINE
  5
227
100
AcDbEntity
  8
LAY-3
  6
CONTINUOUS
 62
     3
100
AcDbLine
 10
208.959361
 20
452.0
 30
0.0
 11
213.713394
 21
452.0
 31
0.0
  0
LINE
  5
228
100
AcDbEntity
  8
LAY-3
  6
CONTINUOUS
 62
     3
100
AcDbLine
 10
192.586377
 20
450.815
 30
0.0
 11
192.586377
 21
429.185
 31
0.0
  0
LINE
  5
229
100
AcDbEntity
  8
LAY-3
  6
CONTINUOUS
 62
     3
100
AcDbLine
 10
193.771377
 20
452.0
 30
0.0
 11
193.771377
 21
428.0
 31
0.0
  0
ARC
  5
22A
100
AcDbEntity
  8
LAY-3
  6
CONTINUOUS
 62
     3
100
AcDbCircle
 10
233.959361
 20
453.0
 30
0.0
 40
1.0
100
AcDbArc
 50
194.477512
 51
270.0
  0
ARC
  5
22B
100
AcDbEntity
  8
LAY-3
  6
CONTINUOUS
 62
     3
100
AcDbCircle
 10
230.086377
 20
452.0
 30
0.0
 40
3.0
100
AcDbArc
 50
14.477512
 51
90.0
  0
ARC
  5
22C
100
AcDbEntity
  8
LAY-3
  6
CONTINUOUS
 62
     3
100
AcDbCircle
 10
230.086377
 20
452.0
 30
0.0
 40
3.0
100
AcDbArc
 50
90.0
 51
165.522488
  0
ARC
  5
22D
100
AcDbEntity
  8
LAY-3
  6
CONTINUOUS
 62
     3
100
AcDbCircle
 10
226.213394
 20
453.0
 30
0.0
 40
1.0
100
AcDbArc
 50
270.0
 51
345.522488
  0
LINE
  5
22E
100
AcDbEntity
  8
LAY-3
  6
CONTINUOUS
 62
     3
100
AcDbLine
 10
226.213394
 20
452.0
 30
0.0
 11
221.459361
 21
452.0
 31
0.0
  0
LINE
  5
22F
100
AcDbEntity
  8
LAY-3
  6
CONTINUOUS
 62
     3
100
AcDbLine
 10
233.959361
 20
452.0
 30
0.0
 11
241.346377
 21
452.0
 31
0.0
  0
ARC
  5
230
100
AcDbEntity
  8
LAY-3
  6
CONTINUOUS
 62
     3
100
AcDbCircle
 10
221.459361
 20
427.0
 30
0.0
 40
1.0
100
AcDbArc
 50
90.0
 51
165.522488
  0
ARC
  5
231
100
AcDbEntity
  8
LAY-3
  6
CONTINUOUS
 62
     3
100
AcDbCircle
 10
217.586377
 20
428.0
 30
0.0
 40
3.0
100
AcDbArc
 50
270.0
 51
345.522488
  0
ARC
  5
232
100
AcDbEntity
  8
LAY-3
  6
CONTINUOUS
 62
     3
100
AcDbCircle
 10
217.586377
 20
428.0
 30
0.0
 40
3.0
100
AcDbArc
 50
194.477512
 51
270.0
  0
ARC
  5
233
100
AcDbEntity
  8
LAY-3
  6
CONTINUOUS
 62
     3
100
AcDbCircle
 10
213.713394
 20
427.0
 30
0.0
 40
1.0
100
AcDbArc
 50
14.477512
 51
90.0
  0
ARC
  5
234
100
AcDbEntity
  8
LAY-3
  6
CONTINUOUS
 62
     3
100
AcDbCircle
 10
201.213394
 20
427.0
 30
0.0
 40
1.0
100
AcDbArc
 50
14.477512
 51
90.0
  0
ARC
  5
235
100
AcDbEntity
  8
LAY-3
  6
CONTINUOUS
 62
     3
100
AcDbCircle
 10
205.086377
 20
428.0
 30
0.0
 40
3.0
100
AcDbArc
 50
194.477512
 51
270.0
  0
ARC
  5
236
100
AcDbEntity
  8
LAY-3
  6
CONTINUOUS
 62
     3
100
AcDbCircle
 10
205.086377
 20
428.0
 30
0.0
 40
3.0
100
AcDbArc
 50
270.0
 51
345.522488
  0
ARC
  5
237
100
AcDbEntity
  8
LAY-3
  6
CONTINUOUS
 62
     3
100
AcDbCircle
 10
208.959361
 20
427.0
 30
0.0
 40
1.0
100
AcDbArc
 50
90.0
 51
165.522488
  0
LINE
  5
238
100
AcDbEntity
  8
LAY-3
  6
CONTINUOUS
 62
     3
100
AcDbLine
 10
201.213394
 20
428.0
 30
0.0
 11
193.826377
 21
428.0
 31
0.0
  0
LINE
  5
239
100
AcDbEntity
  8
LAY-3
  6
CONTINUOUS
 62
     3
100
AcDbLine
 10
208.959361
 20
428.0
 30
0.0
 11
213.713394
 21
428.0
 31
0.0
  0
ARC
  5
23A
100
AcDbEntity
  8
LAY-3
  6
CONTINUOUS
 62
     3
100
AcDbCircle
 10
233.959361
 20
427.0
 30
0.0
 40
1.0
100
AcDbArc
 50
90.0
 51
165.522488
  0
ARC
  5
23B
100
AcDbEntity
  8
LAY-3
  6
CONTINUOUS
 62
     3
100
AcDbCircle
 10
230.086377
 20
428.0
 30
0.0
 40
3.0
100
AcDbArc
 50
270.0
 51
345.522488
  0
ARC
  5
23C
100
AcDbEntity
  8
LAY-3
  6
CONTINUOUS
 62
     3
100
AcDbCircle
 10
230.086377
 20
428.0
 30
0.0
 40
3.0
100
AcDbArc
 50
194.477512
 51
270.0
  0
ARC
  5
23D
100
AcDbEntity
  8
LAY-3
  6
CONTINUOUS
 62
     3
100
AcDbCircle
 10
226.213394
 20
427.0
 30
0.0
 40
1.0
100
AcDbArc
 50
14.477512
 51
90.0
  0
LINE
  5
23E
100
AcDbEntity
  8
LAY-3
  6
CONTINUOUS
 62
     3
100
AcDbLine
 10
226.213394
 20
428.0
 30
0.0
 11
221.459361
 21
428.0
 31
0.0
  0
LINE
  5
23F
100
AcDbEntity
  8
LAY-3
  6
CONTINUOUS
 62
     3
100
AcDbLine
 10
233.959361
 20
428.0
 30
0.0
 11
241.346377
 21
428.0
 31
0.0
  0
LINE
  5
240
100
AcDbEntity
  8
LAY-3
  6
CONTINUOUS
 62
     3
100
AcDbLine
 10
177.586377
 20
450.815
 30
0.0
 11
192.586377
 21
450.815
 31
0.0
  0
LINE
  5
241
100
AcDbEntity
  8
LAY-3
  6
CONTINUOUS
 62
     3
100
AcDbLine
 10
177.586377
 20
429.185
 30
0.0
 11
192.586377
 21
429.185
 31
0.0
  0
ARC
  5
242
100
AcDbEntity
  8
LAY-3
  6
CONTINUOUS
 62
     3
100
AcDbCircle
 10
193.771377
 20
450.815
 30
0.0
 40
1.185
100
AcDbArc
 50
90.0
 51
180.0
  0
ARC
  5
243
100
AcDbEntity
  8
LAY-3
  6
CONTINUOUS
 62
     3
100
AcDbCircle
 10
193.771377
 20
429.185
 30
0.0
 40
1.185
100
AcDbArc
 50
180.0
 51
270.0
  0
LINE
  5
244
100
AcDbEntity
  8
LAY-3
  6
CONTINUOUS
 62
     3
100
AcDbLine
 10
257.586377
 20
450.815
 30
0.0
 11
242.586377
 21
450.815
 31
0.0
  0
LINE
  5
245
100
AcDbEntity
  8
LAY-3
  6
CONTINUOUS
 62
     3
100
AcDbLine
 10
257.586377
 20
429.185
 30
0.0
 11
242.586377
 21
429.185
 31
0.0
  0
LINE
  5
246
100
AcDbEntity
  8
LAY-3
  6
CONTINUOUS
 62
     3
100
AcDbLine
 10
257.586377
 20
450.815
 30
0.0
 11
257.586377
 21
429.185
 31
0.0
  0
ARC
  5
247
100
AcDbEntity
  8
LAY-3
  6
CONTINUOUS
 62
     3
100
AcDbCircle
 10
241.401377
 20
450.815
 30
0.0
 40
1.185
100
AcDbArc
 50
0.0
 51
90.0
  0
LINE
  5
248
100
AcDbEntity
  8
LAY-3
  6
CONTINUOUS
 62
     3
100
AcDbLine
 10
241.401377
 20
452.0
 30
0.0
 11
241.401377
 21
428.0
 31
0.0
  0
ARC
  5
249
100
AcDbEntity
  8
LAY-3
  6
CONTINUOUS
 62
     3
100
AcDbCircle
 10
241.401377
 20
429.185
 30
0.0
 40
1.185
100
AcDbArc
 50
270.0
 51
0.0
  0
LINE
  5
24A
100
AcDbEntity
  8
LAY-3
  6
CONTINUOUS
 62
     3
100
AcDbLine
 10
242.586377
 20
450.815
 30
0.0
 11
242.586377
 21
429.185
 31
0.0
  0
LINE
  5
24B
100
AcDbEntity
  8
LAY-3
  6
CONTINUOUS
 62
     3
100
AcDbLine
 10
289.029234
 20
453.37
 30
0.0
 11
289.029234
 21
426.63
 31
0.0
  0
ARC
  5
24C
100
AcDbEntity
  8
LAY-3
  6
CONTINUOUS
 62
     3
100
AcDbCircle
 10
332.902218
 20
455.5
 30
0.0
 40
1.0
100
AcDbArc
 50
194.477512
 51
270.0
  0
ARC
  5
24D
100
AcDbEntity
  8
LAY-3
  6
CONTINUOUS
 62
     3
100
AcDbCircle
 10
329.029234
 20
454.5
 30
0.0
 40
3.0
100
AcDbArc
 50
14.477512
 51
90.0
  0
ARC
  5
24E
100
AcDbEntity
  8
LAY-3
  6
CONTINUOUS
 62
     3
100
AcDbCircle
 10
329.029234
 20
454.5
 30
0.0
 40
3.0
100
AcDbArc
 50
90.0
 51
165.522488
  0
ARC
  5
24F
100
AcDbEntity
  8
LAY-3
  6
CONTINUOUS
 62
     3
100
AcDbCircle
 10
325.156251
 20
455.5
 30
0.0
 40
1.0
100
AcDbArc
 50
270.0
 51
345.522488
  0
ARC
  5
250
100
AcDbEntity
  8
LAY-3
  6
CONTINUOUS
 62
     3
100
AcDbCircle
 10
312.656251
 20
455.5
 30
0.0
 40
1.0
100
AcDbArc
 50
270.0
 51
345.522488
  0
ARC
  5
251
100
AcDbEntity
  8
LAY-3
  6
CONTINUOUS
 62
     3
100
AcDbCircle
 10
316.529234
 20
454.5
 30
0.0
 40
3.0
100
AcDbArc
 50
90.0
 51
165.522488
  0
ARC
  5
252
100
AcDbEntity
  8
LAY-3
  6
CONTINUOUS
 62
     3
100
AcDbCircle
 10
316.529234
 20
454.5
 30
0.0
 40
3.0
100
AcDbArc
 50
14.477512
 51
90.0
  0
ARC
  5
253
100
AcDbEntity
  8
LAY-3
  6
CONTINUOUS
 62
     3
100
AcDbCircle
 10
320.402218
 20
455.5
 30
0.0
 40
1.0
100
AcDbArc
 50
194.477512
 51
270.0
  0
LINE
  5
254
100
AcDbEntity
  8
LAY-3
  6
CONTINUOUS
 62
     3
100
AcDbLine
 10
320.402218
 20
454.5
 30
0.0
 11
325.156251
 21
454.5
 31
0.0
  0
ARC
  5
255
100
AcDbEntity
  8
LAY-3
  6
CONTINUOUS
 62
     3
100
AcDbCircle
 10
345.402218
 20
455.5
 30
0.0
 40
1.0
100
AcDbArc
 50
194.477512
 51
270.0
  0
ARC
  5
256
100
AcDbEntity
  8
LAY-3
  6
CONTINUOUS
 62
     3
100
AcDbCircle
 10
341.529234
 20
454.5
 30
0.0
 40
3.0
100
AcDbArc
 50
14.477512
 51
90.0
  0
ARC
  5
257
100
AcDbEntity
  8
LAY-3
  6
CONTINUOUS
 62
     3
100
AcDbCircle
 10
341.529234
 20
454.5
 30
0.0
 40
3.0
100
AcDbArc
 50
90.0
 51
165.522488
  0
ARC
  5
258
100
AcDbEntity
  8
LAY-3
  6
CONTINUOUS
 62
     3
100
AcDbCircle
 10
337.656251
 20
455.5
 30
0.0
 40
1.0
100
AcDbArc
 50
270.0
 51
345.522488
  0
LINE
  5
259
100
AcDbEntity
  8
LAY-3
  6
CONTINUOUS
 62
     3
100
AcDbLine
 10
337.656251
 20
454.5
 30
0.0
 11
332.902218
 21
454.5
 31
0.0
  0
LINE
  5
25A
100
AcDbEntity
  8
LAY-3
  6
CONTINUOUS
 62
     3
100
AcDbLine
 10
345.402218
 20
454.5
 30
0.0
 11
352.789234
 21
454.5
 31
0.0
  0
ARC
  5
25B
100
AcDbEntity
  8
LAY-3
  6
CONTINUOUS
 62
     3
100
AcDbCircle
 10
332.902218
 20
424.5
 30
0.0
 40
1.0
100
AcDbArc
 50
90.0
 51
165.522488
  0
ARC
  5
25C
100
AcDbEntity
  8
LAY-3
  6
CONTINUOUS
 62
     3
100
AcDbCircle
 10
329.029234
 20
425.5
 30
0.0
 40
3.0
100
AcDbArc
 50
270.0
 51
345.522488
  0
ARC
  5
25D
100
AcDbEntity
  8
LAY-3
  6
CONTINUOUS
 62
     3
100
AcDbCircle
 10
329.029234
 20
425.5
 30
0.0
 40
3.0
100
AcDbArc
 50
194.477512
 51
270.0
  0
ARC
  5
25E
100
AcDbEntity
  8
LAY-3
  6
CONTINUOUS
 62
     3
100
AcDbCircle
 10
325.156251
 20
424.5
 30
0.0
 40
1.0
100
AcDbArc
 50
14.477512
 51
90.0
  0
ARC
  5
25F
100
AcDbEntity
  8
LAY-3
  6
CONTINUOUS
 62
     3
100
AcDbCircle
 10
312.656251
 20
424.5
 30
0.0
 40
1.0
100
AcDbArc
 50
14.477512
 51
90.0
  0
ARC
  5
260
100
AcDbEntity
  8
LAY-3
  6
CONTINUOUS
 62
     3
100
AcDbCircle
 10
316.529234
 20
425.5
 30
0.0
 40
3.0
100
AcDbArc
 50
194.477512
 51
270.0
  0
ARC
  5
261
100
AcDbEntity
  8
LAY-3
  6
CONTINUOUS
 62
     3
100
AcDbCircle
 10
316.529234
 20
425.5
 30
0.0
 40
3.0
100
AcDbArc
 50
270.0
 51
345.522488
  0
ARC
  5
262
100
AcDbEntity
  8
LAY-3
  6
CONTINUOUS
 62
     3
100
AcDbCircle
 10
320.402218
 20
424.5
 30
0.0
 40
1.0
100
AcDbArc
 50
90.0
 51
165.522488
  0
LINE
  5
263
100
AcDbEntity
  8
LAY-3
  6
CONTINUOUS
 62
     3
100
AcDbLine
 10
320.402218
 20
425.5
 30
0.0
 11
325.156251
 21
425.5
 31
0.0
  0
LINE
  5
264
100
AcDbEntity
  8
LAY-3
  6
CONTINUOUS
 62
     3
100
AcDbLine
 10
312.656251
 20
425.5
 30
0.0
 11
305.269234
 21
425.5
 31
0.0
  0
ARC
  5
265
100
AcDbEntity
  8
LAY-3
  6
CONTINUOUS
 62
     3
100
AcDbCircle
 10
345.402218
 20
424.5
 30
0.0
 40
1.0
100
AcDbArc
 50
90.0
 51
165.522488
  0
ARC
  5
266
100
AcDbEntity
  8
LAY-3
  6
CONTINUOUS
 62
     3
100
AcDbCircle
 10
341.529234
 20
425.5
 30
0.0
 40
3.0
100
AcDbArc
 50
270.0
 51
345.522488
  0
ARC
  5
267
100
AcDbEntity
  8
LAY-3
  6
CONTINUOUS
 62
     3
100
AcDbCircle
 10
341.529234
 20
425.5
 30
0.0
 40
3.0
100
AcDbArc
 50
194.477512
 51
270.0
  0
ARC
  5
268
100
AcDbEntity
  8
LAY-3
  6
CONTINUOUS
 62
     3
100
AcDbCircle
 10
337.656251
 20
424.5
 30
0.0
 40
1.0
100
AcDbArc
 50
14.477512
 51
90.0
  0
LINE
  5
269
100
AcDbEntity
  8
LAY-3
  6
CONTINUOUS
 62
     3
100
AcDbLine
 10
337.656251
 20
425.5
 30
0.0
 11
332.902218
 21
425.5
 31
0.0
  0
LINE
  5
26A
100
AcDbEntity
  8
LAY-3
  6
CONTINUOUS
 62
     3
100
AcDbLine
 10
345.402218
 20
425.5
 30
0.0
 11
352.789234
 21
425.5
 31
0.0
  0
LINE
  5
26B
100
AcDbEntity
  8
LAY-3
  6
CONTINUOUS
 62
     3
100
AcDbLine
 10
312.656251
 20
454.5
 30
0.0
 11
305.159234
 21
454.5
 31
0.0
  0
LINE
  5
26C
100
AcDbEntity
  8
LAY-3
  6
CONTINUOUS
 62
     3
100
AcDbLine
 10
305.159234
 20
454.5
 30
0.0
 11
305.159234
 21
425.5
 31
0.0
  0
LINE
  5
26D
100
AcDbEntity
  8
LAY-3
  6
CONTINUOUS
 62
     3
100
AcDbLine
 10
304.029234
 20
453.37
 30
0.0
 11
304.029234
 21
426.63
 31
0.0
  0
LINE
  5
26E
100
AcDbEntity
  8
LAY-3
  6
CONTINUOUS
 62
     3
100
AcDbLine
 10
289.029234
 20
453.37
 30
0.0
 11
304.029234
 21
453.37
 31
0.0
  0
LINE
  5
26F
100
AcDbEntity
  8
LAY-3
  6
CONTINUOUS
 62
     3
100
AcDbLine
 10
289.029234
 20
426.63
 30
0.0
 11
304.029234
 21
426.63
 31
0.0
  0
ARC
  5
270
100
AcDbEntity
  8
LAY-3
  6
CONTINUOUS
 62
     3
100
AcDbCircle
 10
305.159234
 20
453.37
 30
0.0
 40
1.13
100
AcDbArc
 50
90.0
 51
180.0
  0
ARC
  5
271
100
AcDbEntity
  8
LAY-3
  6
CONTINUOUS
 62
     3
100
AcDbCircle
 10
305.159234
 20
426.63
 30
0.0
 40
1.13
100
AcDbArc
 50
180.0
 51
270.0
  0
LINE
  5
272
100
AcDbEntity
  8
LAY-3
  6
CONTINUOUS
 62
     3
100
AcDbLine
 10
369.029234
 20
453.37
 30
0.0
 11
354.029234
 21
453.37
 31
0.0
  0
LINE
  5
273
100
AcDbEntity
  8
LAY-3
  6
CONTINUOUS
 62
     3
100
AcDbLine
 10
369.029234
 20
426.63
 30
0.0
 11
354.029234
 21
426.63
 31
0.0
  0
LINE
  5
274
100
AcDbEntity
  8
LAY-3
  6
CONTINUOUS
 62
     3
100
AcDbLine
 10
369.029234
 20
453.37
 30
0.0
 11
369.029234
 21
426.63
 31
0.0
  0
ARC
  5
275
100
AcDbEntity
  8
LAY-3
  6
CONTINUOUS
 62
     3
100
AcDbCircle
 10
352.899234
 20
453.37
 30
0.0
 40
1.13
100
AcDbArc
 50
0.0
 51
90.0
  0
LINE
  5
276
100
AcDbEntity
  8
LAY-3
  6
CONTINUOUS
 62
     3
100
AcDbLine
 10
352.899234
 20
454.5
 30
0.0
 11
352.899234
 21
425.5
 31
0.0
  0
ARC
  5
277
100
AcDbEntity
  8
LAY-3
  6
CONTINUOUS
 62
     3
100
AcDbCircle
 10
352.899234
 20
426.63
 30
0.0
 40
1.13
100
AcDbArc
 50
270.0
 51
0.0
  0
LINE
  5
278
100
AcDbEntity
  8
LAY-3
  6
CONTINUOUS
 62
     3
100
AcDbLine
 10
354.029234
 20
453.37
 30
0.0
 11
354.029234
 21
426.63
 31
0.0
  0
LINE
  5
279
100
AcDbEntity
  8
LAY-3
  6
CONTINUOUS
 62
     3
100
AcDbLine
 10
400.472092
 20
455.925
 30
0.0
 11
400.472092
 21
424.075
 31
0.0
  0
ARC
  5
27A
100
AcDbEntity
  8
LAY-3
  6
CONTINUOUS
 62
     3
100
AcDbCircle
 10
444.345075
 20
458.0
 30
0.0
 40
1.0
100
AcDbArc
 50
194.477512
 51
270.0
  0
ARC
  5
27B
100
AcDbEntity
  8
LAY-3
  6
CONTINUOUS
 62
     3
100
AcDbCircle
 10
440.472092
 20
457.0
 30
0.0
 40
3.0
100
AcDbArc
 50
14.477512
 51
90.0
  0
ARC
  5
27C
100
AcDbEntity
  8
LAY-3
  6
CONTINUOUS
 62
     3
100
AcDbCircle
 10
440.472092
 20
457.0
 30
0.0
 40
3.0
100
AcDbArc
 50
90.0
 51
165.522488
  0
ARC
  5
27D
100
AcDbEntity
  8
LAY-3
  6
CONTINUOUS
 62
     3
100
AcDbCircle
 10
436.599108
 20
458.0
 30
0.0
 40
1.0
100
AcDbArc
 50
270.0
 51
345.522488
  0
ARC
  5
27E
100
AcDbEntity
  8
LAY-3
  6
CONTINUOUS
 62
     3
100
AcDbCircle
 10
424.099108
 20
458.0
 30
0.0
 40
1.0
100
AcDbArc
 50
270.0
 51
345.522488
  0
ARC
  5
27F
100
AcDbEntity
  8
LAY-3
  6
CONTINUOUS
 62
     3
100
AcDbCircle
 10
427.972092
 20
457.0
 30
0.0
 40
3.0
100
AcDbArc
 50
90.0
 51
165.522488
  0
ARC
  5
280
100
AcDbEntity
  8
LAY-3
  6
CONTINUOUS
 62
     3
100
AcDbCircle
 10
427.972092
 20
457.0
 30
0.0
 40
3.0
100
AcDbArc
 50
14.477512
 51
90.0
  0
ARC
  5
281
100
AcDbEntity
  8
LAY-3
  6
CONTINUOUS
 62
     3
100
AcDbCircle
 10
431.845075
 20
458.0
 30
0.0
 40
1.0
100
AcDbArc
 50
194.477512
 51
270.0
  0
LINE
  5
282
100
AcDbEntity
  8
LAY-3
  6
CONTINUOUS
 62
     3
100
AcDbLine
 10
431.845075
 20
457.0
 30
0.0
 11
436.599108
 21
457.0
 31
0.0
  0
ARC
  5
283
100
AcDbEntity
  8
LAY-3
  6
CONTINUOUS
 62
     3
100
AcDbCircle
 10
456.845075
 20
458.0
 30
0.0
 40
1.0
100
AcDbArc
 50
194.477512
 51
270.0
  0
ARC
  5
284
100
AcDbEntity
  8
LAY-3
  6
CONTINUOUS
 62
     3
100
AcDbCircle
 10
452.972092
 20
457.0
 30
0.0
 40
3.0
100
AcDbArc
 50
14.477512
 51
90.0
  0
ARC
  5
285
100
AcDbEntity
  8
LAY-3
  6
CONTINUOUS
 62
     3
100
AcDbCircle
 10
452.972092
 20
457.0
 30
0.0
 40
3.0
100
AcDbArc
 50
90.0
 51
165.522488
  0
ARC
  5
286
100
AcDbEntity
  8
LAY-3
  6
CONTINUOUS
 62
     3
100
AcDbCircle
 10
449.099108
 20
458.0
 30
0.0
 40
1.0
100
AcDbArc
 50
270.0
 51
345.522488
  0
LINE
  5
287
100
AcDbEntity
  8
LAY-3
  6
CONTINUOUS
 62
     3
100
AcDbLine
 10
449.099108
 20
457.0
 30
0.0
 11
444.345075
 21
457.0
 31
0.0
  0
LINE
  5
288
100
AcDbEntity
  8
LAY-3
  6
CONTINUOUS
 62
     3
100
AcDbLine
 10
456.845075
 20
457.0
 30
0.0
 11
464.516795
 21
457.0
 31
0.0
  0
ARC
  5
289
100
AcDbEntity
  8
LAY-3
  6
CONTINUOUS
 62
     3
100
AcDbCircle
 10
444.345075
 20
422.0
 30
0.0
 40
1.0
100
AcDbArc
 50
90.0
 51
165.522488
  0
ARC
  5
28A
100
AcDbEntity
  8
LAY-3
  6
CONTINUOUS
 62
     3
100
AcDbCircle
 10
440.472092
 20
423.0
 30
0.0
 40
3.0
100
AcDbArc
 50
270.0
 51
345.522488
  0
ARC
  5
28B
100
AcDbEntity
  8
LAY-3
  6
CONTINUOUS
 62
     3
100
AcDbCircle
 10
440.472092
 20
423.0
 30
0.0
 40
3.0
100
AcDbArc
 50
194.477512
 51
270.0
  0
ARC
  5
28C
100
AcDbEntity
  8
LAY-3
  6
CONTINUOUS
 62
     3
100
AcDbCircle
 10
436.599108
 20
422.0
 30
0.0
 40
1.0
100
AcDbArc
 50
14.477512
 51
90.0
  0
ARC
  5
28D
100
AcDbEntity
  8
LAY-3
  6
CONTINUOUS
 62
     3
100
AcDbCircle
 10
424.099108
 20
422.0
 30
0.0
 40
1.0
100
AcDbArc
 50
14.477512
 51
90.0
  0
ARC
  5
28E
100
AcDbEntity
  8
LAY-3
  6
CONTINUOUS
 62
     3
100
AcDbCircle
 10
427.972092
 20
423.0
 30
0.0
 40
3.0
100
AcDbArc
 50
194.477512
 51
270.0
  0
ARC
  5
28F
100
AcDbEntity
  8
LAY-3
  6
CONTINUOUS
 62
     3
100
AcDbCircle
 10
427.972092
 20
423.0
 30
0.0
 40
3.0
100
AcDbArc
 50
270.0
 51
345.522488
  0
ARC
  5
290
100
AcDbEntity
  8
LAY-3
  6
CONTINUOUS
 62
     3
100
AcDbCircle
 10
431.845075
 20
422.0
 30
0.0
 40
1.0
100
AcDbArc
 50
90.0
 51
165.522488
  0
LINE
  5
291
100
AcDbEntity
  8
LAY-3
  6
CONTINUOUS
 62
     3
100
AcDbLine
 10
431.845075
 20
423.0
 30
0.0
 11
436.599108
 21
423.0
 31
0.0
  0
LINE
  5
292
100
AcDbEntity
  8
LAY-3
  6
CONTINUOUS
 62
     3
100
AcDbLine
 10
424.099108
 20
423.0
 30
0.0
 11
416.427388
 21
423.0
 31
0.0
  0
ARC
  5
293
100
AcDbEntity
  8
LAY-3
  6
CONTINUOUS
 62
     3
100
AcDbCircle
 10
456.845075
 20
422.0
 30
0.0
 40
1.0
100
AcDbArc
 50
90.0
 51
165.522488
  0
ARC
  5
294
100
AcDbEntity
  8
LAY-3
  6
CONTINUOUS
 62
     3
100
AcDbCircle
 10
452.972092
 20
423.0
 30
0.0
 40
3.0
100
AcDbArc
 50
270.0
 51
345.522488
  0
ARC
  5
295
100
AcDbEntity
  8
LAY-3
  6
CONTINUOUS
 62
     3
100
AcDbCircle
 10
452.972092
 20
423.0
 30
0.0
 40
3.0
100
AcDbArc
 50
194.477512
 51
270.0
  0
ARC
  5
296
100
AcDbEntity
  8
LAY-3
  6
CONTINUOUS
 62
     3
100
AcDbCircle
 10
449.099108
 20
422.0
 30
0.0
 40
1.0
100
AcDbArc
 50
14.477512
 51
90.0
  0
LINE
  5
297
100
AcDbEntity
  8
LAY-3
  6
CONTINUOUS
 62
     3
100
AcDbLine
 10
449.099108
 20
423.0
 30
0.0
 11
444.345075
 21
423.0
 31
0.0
  0
LINE
  5
298
100
AcDbEntity
  8
LAY-3
  6
CONTINUOUS
 62
     3
100
AcDbLine
 10
456.845075
 20
423.0
 30
0.0
 11
464.516795
 21
423.0
 31
0.0
  0
LINE
  5
299
100
AcDbEntity
  8
LAY-3
  6
CONTINUOUS
 62
     3
100
AcDbLine
 10
424.099108
 20
457.0
 30
0.0
 11
416.547092
 21
457.0
 31
0.0
  0
LINE
  5
29A
100
AcDbEntity
  8
LAY-3
  6
CONTINUOUS
 62
     3
100
AcDbLine
 10
416.427388
 20
456.993315
 30
0.0
 11
416.427388
 21
422.993315
 31
0.0
  0
LINE
  5
29B
100
AcDbEntity
  8
LAY-3
  6
CONTINUOUS
 62
     3
100
AcDbLine
 10
415.472092
 20
455.925
 30
0.0
 11
415.472092
 21
424.075
 31
0.0
  0
LINE
  5
29C
100
AcDbEntity
  8
LAY-3
  6
CONTINUOUS
 62
     3
100
AcDbLine
 10
400.472092
 20
455.925
 30
0.0
 11
415.472092
 21
455.925
 31
0.0
  0
ARC
  5
29D
100
AcDbEntity
  8
LAY-3
  6
CONTINUOUS
 62
     3
100
AcDbCircle
 10
416.547092
 20
455.925
 30
0.0
 40
1.075
100
AcDbArc
 50
90.0
 51
180.0
  0
LINE
  5
29E
100
AcDbEntity
  8
LAY-3
  6
CONTINUOUS
 62
     3
100
AcDbLine
 10
400.472092
 20
424.075
 30
0.0
 11
415.472092
 21
424.075
 31
0.0
  0
ARC
  5
29F
100
AcDbEntity
  8
LAY-3
  6
CONTINUOUS
 62
     3
100
AcDbCircle
 10
416.547092
 20
424.075
 30
0.0
 40
1.075
100
AcDbArc
 50
180.0
 51
270.0
  0
LINE
  5
2A0
100
AcDbEntity
  8
LAY-3
  6
CONTINUOUS
 62
     3
100
AcDbLine
 10
480.472092
 20
455.925
 30
0.0
 11
465.472092
 21
455.925
 31
0.0
  0
ARC
  5
2A1
100
AcDbEntity
  8
LAY-3
  6
CONTINUOUS
 62
     3
100
AcDbCircle
 10
464.397092
 20
455.925
 30
0.0
 40
1.075
100
AcDbArc
 50
0.0
 51
90.0
  0
LINE
  5
2A2
100
AcDbEntity
  8
LAY-3
  6
CONTINUOUS
 62
     3
100
AcDbLine
 10
464.516795
 20
456.993315
 30
0.0
 11
464.516795
 21
422.993315
 31
0.0
  0
LINE
  5
2A3
100
AcDbEntity
  8
LAY-3
  6
CONTINUOUS
 62
     3
100
AcDbLine
 10
480.472092
 20
424.075
 30
0.0
 11
465.472092
 21
424.075
 31
0.0
  0
ARC
  5
2A4
100
AcDbEntity
  8
LAY-3
  6
CONTINUOUS
 62
     3
100
AcDbCircle
 10
464.397092
 20
424.075
 30
0.0
 40
1.075
100
AcDbArc
 50
270.0
 51
0.0
  0
LINE
  5
2A5
100
AcDbEntity
  8
LAY-3
  6
CONTINUOUS
 62
     3
100
AcDbLine
 10
480.472092
 20
455.925
 30
0.0
 11
480.472092
 21
424.075
 31
0.0
  0
LINE
  5
2A6
100
AcDbEntity
  8
LAY-3
  6
CONTINUOUS
 62
     3
100
AcDbLine
 10
465.472092
 20
455.925
 30
0.0
 11
465.472092
 21
424.075
 31
0.0
  0
LINE
  5
2A7
100
AcDbEntity
  8
LAY-3
  6
CONTINUOUS
 62
     3
100
AcDbLine
 10
517.214949
 20
460.5
 30
0.0
 11
517.214949
 21
419.5
 31
0.0
  0
LINE
  5
2A8
100
AcDbEntity
  8
LAY-3
  6
CONTINUOUS
 62
     3
100
AcDbLine
 10
500.014949
 20
458.3
 30
0.0
 11
500.014949
 21
421.7
 31
0.0
  0
LINE
  5
2A9
100
AcDbEntity
  8
LAY-3
  6
CONTINUOUS
 62
     3
100
AcDbLine
 10
515.014949
 20
458.3
 30
0.0
 11
515.014949
 21
421.7
 31
0.0
  0
LINE
  5
2AA
100
AcDbEntity
  8
LAY-3
  6
CONTINUOUS
 62
     3
100
AcDbLine
 10
500.014949
 20
458.3
 30
0.0
 11
515.014949
 21
458.3
 31
0.0
  0
ARC
  5
2AB
100
AcDbEntity
  8
LAY-3
  6
CONTINUOUS
 62
     3
100
AcDbCircle
 10
532.514949
 20
460.5
 30
0.0
 40
3.5
100
AcDbArc
 50
90.0
 51
158.676314
  0
ARC
  5
2AC
100
AcDbEntity
  8
LAY-3
  6
CONTINUOUS
 62
     3
100
AcDbCircle
 10
527.391473
 20
462.5
 30
0.0
 40
2.0
100
AcDbArc
 50
270.0
 51
338.676314
  0
LINE
  5
2AD
100
AcDbEntity
  8
LAY-3
  6
CONTINUOUS
 62
     3
100
AcDbLine
 10
527.391473
 20
460.5
 30
0.0
 11
517.214949
 21
460.5
 31
0.0
  0
ARC
  5
2AE
100
AcDbEntity
  8
LAY-3
  6
CONTINUOUS
 62
     3
100
AcDbCircle
 10
537.638424
 20
462.5
 30
0.0
 40
2.0
100
AcDbArc
 50
201.323686
 51
270.0
  0
ARC
  5
2AF
100
AcDbEntity
  8
LAY-3
  6
CONTINUOUS
 62
     3
100
AcDbCircle
 10
532.514949
 20
460.5
 30
0.0
 40
3.5
100
AcDbArc
 50
21.323686
 51
90.0
  0
LINE
  5
2B0
100
AcDbEntity
  8
LAY-3
  6
CONTINUOUS
 62
     3
100
AcDbLine
 10
537.638424
 20
460.5
 30
0.0
 11
544.891473
 21
460.5
 31
0.0
  0
ARC
  5
2B1
100
AcDbEntity
  8
LAY-3
  6
CONTINUOUS
 62
     3
100
AcDbCircle
 10
517.214949
 20
458.3
 30
0.0
 40
2.2
100
AcDbArc
 50
90.0
 51
180.0
  0
ARC
  5
2B2
100
AcDbEntity
  8
LAY-3
  6
CONTINUOUS
 62
     3
100
AcDbCircle
 10
555.138424
 20
462.5
 30
0.0
 40
2.0
100
AcDbArc
 50
201.323686
 51
270.0
  0
ARC
  5
2B3
100
AcDbEntity
  8
LAY-3
  6
CONTINUOUS
 62
     3
100
AcDbCircle
 10
550.014949
 20
460.5
 30
0.0
 40
3.5
100
AcDbArc
 50
21.323686
 51
90.0
  0
ARC
  5
2B4
100
AcDbEntity
  8
LAY-3
  6
CONTINUOUS
 62
     3
100
AcDbCircle
 10
544.891473
 20
462.5
 30
0.0
 40
2.0
100
AcDbArc
 50
270.0
 51
338.676314
  0
ARC
  5
2B5
100
AcDbEntity
  8
LAY-3
  6
CONTINUOUS
 62
     3
100
AcDbCircle
 10
550.014949
 20
460.5
 30
0.0
 40
3.5
100
AcDbArc
 50
90.0
 51
158.676314
  0
ARC
  5
2B6
100
AcDbEntity
  8
LAY-3
  6
CONTINUOUS
 62
     3
100
AcDbCircle
 10
572.638424
 20
462.5
 30
0.0
 40
2.0
100
AcDbArc
 50
201.323686
 51
270.0
  0
ARC
  5
2B7
100
AcDbEntity
  8
LAY-3
  6
CONTINUOUS
 62
     3
100
AcDbCircle
 10
567.514949
 20
460.5
 30
0.0
 40
3.5
100
AcDbArc
 50
21.323686
 51
90.0
  0
ARC
  5
2B8
100
AcDbEntity
  8
LAY-3
  6
CONTINUOUS
 62
     3
100
AcDbCircle
 10
562.391473
 20
462.5
 30
0.0
 40
2.0
100
AcDbArc
 50
270.0
 51
338.676314
  0
ARC
  5
2B9
100
AcDbEntity
  8
LAY-3
  6
CONTINUOUS
 62
     3
100
AcDbCircle
 10
567.514949
 20
460.5
 30
0.0
 40
3.5
100
AcDbArc
 50
90.0
 51
158.676314
  0
LINE
  5
2BA
100
AcDbEntity
  8
LAY-3
  6
CONTINUOUS
 62
     3
100
AcDbLine
 10
562.391473
 20
460.5
 30
0.0
 11
555.138424
 21
460.5
 31
0.0
  0
ARC
  5
2BB
100
AcDbEntity
  8
LAY-3
  6
CONTINUOUS
 62
     3
100
AcDbCircle
 10
527.391473
 20
417.5
 30
0.0
 40
2.0
100
AcDbArc
 50
21.323686
 51
90.0
  0
ARC
  5
2BC
100
AcDbEntity
  8
LAY-3
  6
CONTINUOUS
 62
     3
100
AcDbCircle
 10
532.514949
 20
419.5
 30
0.0
 40
3.5
100
AcDbArc
 50
201.323686
 51
270.0
  0
ARC
  5
2BD
100
AcDbEntity
  8
LAY-3
  6
CONTINUOUS
 62
     3
100
AcDbCircle
 10
537.638424
 20
417.5
 30
0.0
 40
2.0
100
AcDbArc
 50
90.0
 51
158.676314
  0
ARC
  5
2BE
100
AcDbEntity
  8
LAY-3
  6
CONTINUOUS
 62
     3
100
AcDbCircle
 10
532.514949
 20
419.5
 30
0.0
 40
3.5
100
AcDbArc
 50
270.0
 51
338.676314
  0
ARC
  5
2BF
100
AcDbEntity
  8
LAY-3
  6
CONTINUOUS
 62
     3
100
AcDbCircle
 10
517.214949
 20
421.7
 30
0.0
 40
2.2
100
AcDbArc
 50
180.0
 51
270.0
  0
LINE
  5
2C0
100
AcDbEntity
  8
LAY-3
  6
CONTINUOUS
 62
     3
100
AcDbLine
 10
527.391473
 20
419.5
 30
0.0
 11
517.214949
 21
419.5
 31
0.0
  0
ARC
  5
2C1
100
AcDbEntity
  8
LAY-3
  6
CONTINUOUS
 62
     3
100
AcDbCircle
 10
555.138424
 20
417.5
 30
0.0
 40
2.0
100
AcDbArc
 50
90.0
 51
158.676314
  0
ARC
  5
2C2
100
AcDbEntity
  8
LAY-3
  6
CONTINUOUS
 62
     3
100
AcDbCircle
 10
550.014949
 20
419.5
 30
0.0
 40
3.5
100
AcDbArc
 50
270.0
 51
338.676314
  0
ARC
  5
2C3
100
AcDbEntity
  8
LAY-3
  6
CONTINUOUS
 62
     3
100
AcDbCircle
 10
544.891473
 20
417.5
 30
0.0
 40
2.0
100
AcDbArc
 50
21.323686
 51
90.0
  0
ARC
  5
2C4
100
AcDbEntity
  8
LAY-3
  6
CONTINUOUS
 62
     3
100
AcDbCircle
 10
550.014949
 20
419.5
 30
0.0
 40
3.5
100
AcDbArc
 50
201.323686
 51
270.0
  0
LINE
  5
2C5
100
AcDbEntity
  8
LAY-3
  6
CONTINUOUS
 62
     3
100
AcDbLine
 10
537.638424
 20
419.5
 30
0.0
 11
544.891473
 21
419.5
 31
0.0
  0
ARC
  5
2C6
100
AcDbEntity
  8
LAY-3
  6
CONTINUOUS
 62
     3
100
AcDbCircle
 10
572.638424
 20
417.5
 30
0.0
 40
2.0
100
AcDbArc
 50
90.0
 51
158.676314
  0
ARC
  5
2C7
100
AcDbEntity
  8
LAY-3
  6
CONTINUOUS
 62
     3
100
AcDbCircle
 10
567.514949
 20
419.5
 30
0.0
 40
3.5
100
AcDbArc
 50
270.0
 51
338.676314
  0
ARC
  5
2C8
100
AcDbEntity
  8
LAY-3
  6
CONTINUOUS
 62
     3
100
AcDbCircle
 10
562.391473
 20
417.5
 30
0.0
 40
2.0
100
AcDbArc
 50
21.323686
 51
90.0
  0
ARC
  5
2C9
100
AcDbEntity
  8
LAY-3
  6
CONTINUOUS
 62
     3
100
AcDbCircle
 10
567.514949
 20
419.5
 30
0.0
 40
3.5
100
AcDbArc
 50
201.323686
 51
270.0
  0
LINE
  5
2CA
100
AcDbEntity
  8
LAY-3
  6
CONTINUOUS
 62
     3
100
AcDbLine
 10
562.391473
 20
419.5
 30
0.0
 11
555.138424
 21
419.5
 31
0.0
  0
LINE
  5
2CB
100
AcDbEntity
  8
LAY-3
  6
CONTINUOUS
 62
     3
100
AcDbLine
 10
500.014949
 20
421.7
 30
0.0
 11
515.014949
 21
421.7
 31
0.0
  0
LINE
  5
2CC
100
AcDbEntity
  8
LAY-3
  6
CONTINUOUS
 62
     3
100
AcDbLine
 10
600.014949
 20
458.3
 30
0.0
 11
585.014949
 21
458.3
 31
0.0
  0
ARC
  5
2CD
100
AcDbEntity
  8
LAY-3
  6
CONTINUOUS
 62
     3
100
AcDbCircle
 10
582.814949
 20
458.3
 30
0.0
 40
2.2
100
AcDbArc
 50
0.0
 51
90.0
  0
ARC
  5
2CE
100
AcDbEntity
  8
LAY-3
  6
CONTINUOUS
 62
     3
100
AcDbCircle
 10
582.814949
 20
421.7
 30
0.0
 40
2.2
100
AcDbArc
 50
270.0
 51
0.0
  0
LINE
  5
2CF
100
AcDbEntity
  8
LAY-3
  6
CONTINUOUS
 62
     3
100
AcDbLine
 10
585.014949
 20
458.3
 30
0.0
 11
585.014949
 21
421.7
 31
0.0
  0
LINE
  5
2D0
100
AcDbEntity
  8
LAY-3
  6
CONTINUOUS
 62
     3
100
AcDbLine
 10
582.814949
 20
460.5
 30
0.0
 11
582.814949
 21
419.5
 31
0.0
  0
LINE
  5
2D1
100
AcDbEntity
  8
LAY-3
  6
CONTINUOUS
 62
     3
100
AcDbLine
 10
600.014949
 20
421.7
 30
0.0
 11
585.014949
 21
421.7
 31
0.0
  0
LINE
  5
2D2
100
AcDbEntity
  8
LAY-3
  6
CONTINUOUS
 62
     3
100
AcDbLine
 10
600.014949
 20
458.3
 30
0.0
 11
600.014949
 21
421.7
 31
0.0
  0
LINE
  5
2D3
100
AcDbEntity
  8
LAY-3
  6
CONTINUOUS
 62
     3
100
AcDbLine
 10
572.638424
 20
460.5
 30
0.0
 11
582.814949
 21
460.5
 31
0.0
  0
LINE
  5
2D4
100
AcDbEntity
  8
LAY-3
  6
CONTINUOUS
 62
     3
100
AcDbLine
 10
572.638424
 20
419.5
 30
0.0
 11
582.814949
 21
419.5
 31
0.0
  0
LINE
  5
2D5
100
AcDbEntity
  8
LAY-3
  6
CONTINUOUS
 62
     3
100
AcDbLine
 10
627.457806
 20
460.8
 30
0.0
 11
627.457806
 21
419.2
 31
0.0
  0
LINE
  5
2D6
100
AcDbEntity
  8
LAY-3
  6
CONTINUOUS
 62
     3
100
AcDbLine
 10
629.657806
 20
463.0
 30
0.0
 11
629.657806
 21
417.0
 31
0.0
  0
LINE
  5
2D7
100
AcDbEntity
  8
LAY-3
  6
CONTINUOUS
 62
     3
100
AcDbLine
 10
611.457806
 20
460.8
 30
0.0
 11
611.457806
 21
419.2
 31
0.0
  0
LINE
  5
2D8
100
AcDbEntity
  8
LAY-3
  6
CONTINUOUS
 62
     3
100
AcDbLine
 10
611.457806
 20
460.8
 30
0.0
 11
627.457806
 21
460.8
 31
0.0
  0
ARC
  5
2D9
100
AcDbEntity
  8
LAY-3
  6
CONTINUOUS
 62
     3
100
AcDbCircle
 10
644.457806
 20
463.0
 30
0.0
 40
3.5
100
AcDbArc
 50
90.0
 51
158.676314
  0
LINE
  5
2DA
100
AcDbEntity
  8
LAY-3
  6
CONTINUOUS
 62
     3
100
AcDbLine
 10
639.33433
 20
463.0
 30
0.0
 11
629.657806
 21
463.0
 31
0.0
  0
ARC
  5
2DB
100
AcDbEntity
  8
LAY-3
  6
CONTINUOUS
 62
     3
100
AcDbCircle
 10
639.33433
 20
465.0
 30
0.0
 40
2.0
100
AcDbArc
 50
270.0
 51
338.676314
  0
ARC
  5
2DC
100
AcDbEntity
  8
LAY-3
  6
CONTINUOUS
 62
     3
100
AcDbCircle
 10
629.657806
 20
460.8
 30
0.0
 40
2.2
100
AcDbArc
 50
90.0
 51
180.0
  0
ARC
  5
2DD
100
AcDbEntity
  8
LAY-3
  6
CONTINUOUS
 62
     3
100
AcDbCircle
 10
649.581281
 20
465.0
 30
0.0
 40
2.0
100
AcDbArc
 50
201.323686
 51
270.0
  0
ARC
  5
2DE
100
AcDbEntity
  8
LAY-3
  6
CONTINUOUS
 62
     3
100
AcDbCircle
 10
644.457806
 20
463.0
 30
0.0
 40
3.5
100
AcDbArc
 50
21.323686
 51
90.0
  0
LINE
  5
2DF
100
AcDbEntity
  8
LAY-3
  6
CONTINUOUS
 62
     3
100
AcDbLine
 10
649.581281
 20
463.0
 30
0.0
 11
656.6
 21
463.0
 31
0.0
  0
ARC
  5
2E0
100
AcDbEntity
  8
LAY-3
  6
CONTINUOUS
 62
     3
100
AcDbCircle
 10
666.581281
 20
465.0
 30
0.0
 40
2.0
100
AcDbArc
 50
201.323686
 51
270.0
  0
ARC
  5
2E1
100
AcDbEntity
  8
LAY-3
  6
CONTINUOUS
 62
     3
100
AcDbCircle
 10
661.457806
 20
463.0
 30
0.0
 40
3.5
100
AcDbArc
 50
21.323686
 51
90.0
  0
ARC
  5
2E2
100
AcDbEntity
  8
LAY-3
  6
CONTINUOUS
 62
     3
100
AcDbCircle
 10
656.33433
 20
465.0
 30
0.0
 40
2.0
100
AcDbArc
 50
270.0
 51
338.676314
  0
ARC
  5
2E3
100
AcDbEntity
  8
LAY-3
  6
CONTINUOUS
 62
     3
100
AcDbCircle
 10
661.457806
 20
463.0
 30
0.0
 40
3.5
100
AcDbArc
 50
90.0
 51
158.676314
  0
LINE
  5
2E4
100
AcDbEntity
  8
LAY-3
  6
CONTINUOUS
 62
     3
100
AcDbLine
 10
666.581281
 20
463.0
 30
0.0
 11
673.33433
 21
463.0
 31
0.0
  0
ARC
  5
2E5
100
AcDbEntity
  8
LAY-3
  6
CONTINUOUS
 62
     3
100
AcDbCircle
 10
683.581281
 20
465.0
 30
0.0
 40
2.0
100
AcDbArc
 50
201.323686
 51
270.0
  0
ARC
  5
2E6
100
AcDbEntity
  8
LAY-3
  6
CONTINUOUS
 62
     3
100
AcDbCircle
 10
678.457806
 20
463.0
 30
0.0
 40
3.5
100
AcDbArc
 50
21.323686
 51
90.0
  0
ARC
  5
2E7
100
AcDbEntity
  8
LAY-3
  6
CONTINUOUS
 62
     3
100
AcDbCircle
 10
673.33433
 20
465.0
 30
0.0
 40
2.0
100
AcDbArc
 50
270.0
 51
338.676314
  0
ARC
  5
2E8
100
AcDbEntity
  8
LAY-3
  6
CONTINUOUS
 62
     3
100
AcDbCircle
 10
678.457806
 20
463.0
 30
0.0
 40
3.5
100
AcDbArc
 50
90.0
 51
158.676314
  0
ARC
  5
2E9
100
AcDbEntity
  8
LAY-3
  6
CONTINUOUS
 62
     3
100
AcDbCircle
 10
683.581281
 20
465.0
 30
0.0
 40
2.0
100
AcDbArc
 50
201.323686
 51
270.0
  0
ARC
  5
2EA
100
AcDbEntity
  8
LAY-3
  6
CONTINUOUS
 62
     3
100
AcDbCircle
 10
693.257806
 20
460.8
 30
0.0
 40
2.2
100
AcDbArc
 50
0.0
 51
90.0
  0
LINE
  5
2EB
100
AcDbEntity
  8
LAY-3
  6
CONTINUOUS
 62
     3
100
AcDbLine
 10
683.581281
 20
463.0
 30
0.0
 11
693.257806
 21
463.0
 31
0.0
  0
LINE
  5
2EC
100
AcDbEntity
  8
LAY-3
  6
CONTINUOUS
 62
     3
100
AcDbLine
 10
711.457806
 20
460.8
 30
0.0
 11
695.457806
 21
460.8
 31
0.0
  0
LINE
  5
2ED
100
AcDbEntity
  8
LAY-3
  6
CONTINUOUS
 62
     3
100
AcDbLine
 10
611.457806
 20
419.2
 30
0.0
 11
627.457806
 21
419.2
 31
0.0
  0
ARC
  5
2EE
100
AcDbEntity
  8
LAY-3
  6
CONTINUOUS
 62
     3
100
AcDbCircle
 10
629.657806
 20
419.2
 30
0.0
 40
2.2
100
AcDbArc
 50
180.0
 51
270.0
  0
ARC
  5
2EF
100
AcDbEntity
  8
LAY-3
  6
CONTINUOUS
 62
     3
100
AcDbCircle
 10
639.33433
 20
415.0
 30
0.0
 40
2.0
100
AcDbArc
 50
21.323686
 51
90.0
  0
ARC
  5
2F0
100
AcDbEntity
  8
LAY-3
  6
CONTINUOUS
 62
     3
100
AcDbCircle
 10
644.457806
 20
417.0
 30
0.0
 40
3.5
100
AcDbArc
 50
201.323686
 51
270.0
  0
ARC
  5
2F1
100
AcDbEntity
  8
LAY-3
  6
CONTINUOUS
 62
     3
100
AcDbCircle
 10
629.657806
 20
419.2
 30
0.0
 40
2.2
100
AcDbArc
 50
180.0
 51
270.0
  0
LINE
  5
2F2
100
AcDbEntity
  8
LAY-3
  6
CONTINUOUS
 62
     3
100
AcDbLine
 10
639.33433
 20
417.0
 30
0.0
 11
629.657806
 21
417.0
 31
0.0
  0
ARC
  5
2F3
100
AcDbEntity
  8
LAY-3
  6
CONTINUOUS
 62
     3
100
AcDbCircle
 10
649.581281
 20
415.0
 30
0.0
 40
2.0
100
AcDbArc
 50
90.0
 51
158.676314
  0
ARC
  5
2F4
100
AcDbEntity
  8
LAY-3
  6
CONTINUOUS
 62
     3
100
AcDbCircle
 10
644.457806
 20
417.0
 30
0.0
 40
3.5
100
AcDbArc
 50
270.0
 51
338.676314
  0
ARC
  5
2F5
100
AcDbEntity
  8
LAY-3
  6
CONTINUOUS
 62
     3
100
AcDbCircle
 10
666.581281
 20
415.0
 30
0.0
 40
2.0
100
AcDbArc
 50
90.0
 51
158.676314
  0
ARC
  5
2F6
100
AcDbEntity
  8
LAY-3
  6
CONTINUOUS
 62
     3
100
AcDbCircle
 10
661.457806
 20
417.0
 30
0.0
 40
3.5
100
AcDbArc
 50
270.0
 51
338.676314
  0
ARC
  5
2F7
100
AcDbEntity
  8
LAY-3
  6
CONTINUOUS
 62
     3
100
AcDbCircle
 10
656.33433
 20
415.0
 30
0.0
 40
2.0
100
AcDbArc
 50
21.323686
 51
90.0
  0
ARC
  5
2F8
100
AcDbEntity
  8
LAY-3
  6
CONTINUOUS
 62
     3
100
AcDbCircle
 10
661.457806
 20
417.0
 30
0.0
 40
3.5
100
AcDbArc
 50
201.323686
 51
270.0
  0
LINE
  5
2F9
100
AcDbEntity
  8
LAY-3
  6
CONTINUOUS
 62
     3
100
AcDbLine
 10
649.581281
 20
417.0
 30
0.0
 11
656.6
 21
417.0
 31
0.0
  0
ARC
  5
2FA
100
AcDbEntity
  8
LAY-3
  6
CONTINUOUS
 62
     3
100
AcDbCircle
 10
683.581281
 20
415.0
 30
0.0
 40
2.0
100
AcDbArc
 50
90.0
 51
158.676314
  0
ARC
  5
2FB
100
AcDbEntity
  8
LAY-3
  6
CONTINUOUS
 62
     3
100
AcDbCircle
 10
678.457806
 20
417.0
 30
0.0
 40
3.5
100
AcDbArc
 50
270.0
 51
338.676314
  0
ARC
  5
2FC
100
AcDbEntity
  8
LAY-3
  6
CONTINUOUS
 62
     3
100
AcDbCircle
 10
673.33433
 20
415.0
 30
0.0
 40
2.0
100
AcDbArc
 50
21.323686
 51
90.0
  0
ARC
  5
2FD
100
AcDbEntity
  8
LAY-3
  6
CONTINUOUS
 62
     3
100
AcDbCircle
 10
678.457806
 20
417.0
 30
0.0
 40
3.5
100
AcDbArc
 50
201.323686
 51
270.0
  0
LINE
  5
2FE
100
AcDbEntity
  8
LAY-3
  6
CONTINUOUS
 62
     3
100
AcDbLine
 10
666.581281
 20
417.0
 30
0.0
 11
673.33433
 21
417.0
 31
0.0
  0
ARC
  5
2FF
100
AcDbEntity
  8
LAY-3
  6
CONTINUOUS
 62
     3
100
AcDbCircle
 10
683.581281
 20
415.0
 30
0.0
 40
2.0
100
AcDbArc
 50
90.0
 51
158.676314
  0
ARC
  5
300
100
AcDbEntity
  8
LAY-3
  6
CONTINUOUS
 62
     3
100
AcDbCircle
 10
693.257806
 20
419.2
 30
0.0
 40
2.2
100
AcDbArc
 50
270.0
 51
0.0
  0
LINE
  5
301
100
AcDbEntity
  8
LAY-3
  6
CONTINUOUS
 62
     3
100
AcDbLine
 10
683.581281
 20
417.0
 30
0.0
 11
693.257806
 21
417.0
 31
0.0
  0
ARC
  5
302
100
AcDbEntity
  8
LAY-3
  6
CONTINUOUS
 62
     3
100
AcDbCircle
 10
693.257806
 20
460.8
 30
0.0
 40
2.2
100
AcDbArc
 50
0.0
 51
90.0
  0
ARC
  5
303
100
AcDbEntity
  8
LAY-3
  6
CONTINUOUS
 62
     3
100
AcDbCircle
 10
693.257806
 20
419.2
 30
0.0
 40
2.2
100
AcDbArc
 50
270.0
 51
0.0
  0
LINE
  5
304
100
AcDbEntity
  8
LAY-3
  6
CONTINUOUS
 62
     3
100
AcDbLine
 10
695.457806
 20
460.8
 30
0.0
 11
695.457806
 21
419.2
 31
0.0
  0
LINE
  5
305
100
AcDbEntity
  8
LAY-3
  6
CONTINUOUS
 62
     3
100
AcDbLine
 10
693.257806
 20
463.0
 30
0.0
 11
693.257806
 21
417.0
 31
0.0
  0
ARC
  5
306
100
AcDbEntity
  8
LAY-3
  6
CONTINUOUS
 62
     3
100
AcDbCircle
 10
693.257806
 20
419.2
 30
0.0
 40
2.2
100
AcDbArc
 50
270.0
 51
0.0
  0
LINE
  5
307
100
AcDbEntity
  8
LAY-3
  6
CONTINUOUS
 62
     3
100
AcDbLine
 10
711.457806
 20
419.2
 30
0.0
 11
695.457806
 21
419.2
 31
0.0
  0
LINE
  5
308
100
AcDbEntity
  8
LAY-3
  6
CONTINUOUS
 62
     3
100
AcDbLine
 10
711.457806
 20
460.8
 30
0.0
 11
711.457806
 21
419.2
 31
0.0
  0
ARC
  5
309
100
AcDbEntity
  8
LAY-3
  6
CONTINUOUS
 62
     3
100
AcDbCircle
 10
778.024138
 20
469.0
 30
0.0
 40
2.0
100
AcDbArc
 50
201.323686
 51
270.0
  0
ARC
  5
30A
100
AcDbEntity
  8
LAY-3
  6
CONTINUOUS
 62
     3
100
AcDbCircle
 10
772.900663
 20
467.0
 30
0.0
 40
3.5
100
AcDbArc
 50
21.323686
 51
90.0
  0
ARC
  5
30B
100
AcDbEntity
  8
LAY-3
  6
CONTINUOUS
 62
     3
100
AcDbCircle
 10
767.777188
 20
469.0
 30
0.0
 40
2.0
100
AcDbArc
 50
270.0
 51
338.676314
  0
ARC
  5
30C
100
AcDbEntity
  8
LAY-3
  6
CONTINUOUS
 62
     3
100
AcDbCircle
 10
772.900663
 20
467.0
 30
0.0
 40
3.5
100
AcDbArc
 50
90.0
 51
158.676314
  0
ARC
  5
30D
100
AcDbEntity
  8
LAY-3
  6
CONTINUOUS
 62
     3
100
AcDbCircle
 10
750.777188
 20
469.0
 30
0.0
 40
2.0
100
AcDbArc
 50
270.0
 51
338.676314
  0
ARC
  5
30E
100
AcDbEntity
  8
LAY-3
  6
CONTINUOUS
 62
     3
100
AcDbCircle
 10
755.900663
 20
467.0
 30
0.0
 40
3.5
100
AcDbArc
 50
90.0
 51
158.676314
  0
ARC
  5
30F
100
AcDbEntity
  8
LAY-3
  6
CONTINUOUS
 62
     3
100
AcDbCircle
 10
761.024138
 20
469.0
 30
0.0
 40
2.0
100
AcDbArc
 50
201.323686
 51
270.0
  0
ARC
  5
310
100
AcDbEntity
  8
LAY-3
  6
CONTINUOUS
 62
     3
100
AcDbCircle
 10
755.900663
 20
467.0
 30
0.0
 40
3.5
100
AcDbArc
 50
21.323686
 51
90.0
  0
LINE
  5
311
100
AcDbEntity
  8
LAY-3
  6
CONTINUOUS
 62
     3
100
AcDbLine
 10
761.024138
 20
467.0
 30
0.0
 11
768.042857
 21
467.0
 31
0.0
  0
LINE
  5
312
100
AcDbEntity
  8
LAY-3
  6
CONTINUOUS
 62
     3
100
AcDbLine
 10
750.777188
 20
467.0
 30
0.0
 11
742.540663
 21
467.0
 31
0.0
  0
LINE
  5
313
100
AcDbEntity
  8
LAY-3
  6
CONTINUOUS
 62
     3
100
AcDbLine
 10
738.900663
 20
463.36
 30
0.0
 11
738.900663
 21
416.64
 31
0.0
  0
LINE
  5
314
100
AcDbEntity
  8
LAY-3
  6
CONTINUOUS
 62
     3
100
AcDbLine
 10
742.151173
 20
466.979102
 30
0.0
 11
742.151173
 21
413.0
 31
0.0
  0
LINE
  5
315
100
AcDbEntity
  8
LAY-3
  6
CONTINUOUS
 62
     3
100
AcDbLine
 10
722.900663
 20
463.36
 30
0.0
 11
722.900663
 21
416.64
 31
0.0
  0
ARC
  5
316
100
AcDbEntity
  8
LAY-3
  6
CONTINUOUS
 62
     3
100
AcDbCircle
 10
795.024138
 20
469.0
 30
0.0
 40
2.0
100
AcDbArc
 50
201.323686
 51
270.0
  0
ARC
  5
317
100
AcDbEntity
  8
LAY-3
  6
CONTINUOUS
 62
     3
100
AcDbCircle
 10
789.900663
 20
467.0
 30
0.0
 40
3.5
100
AcDbArc
 50
21.323686
 51
90.0
  0
ARC
  5
318
100
AcDbEntity
  8
LAY-3
  6
CONTINUOUS
 62
     3
100
AcDbCircle
 10
784.777188
 20
469.0
 30
0.0
 40
2.0
100
AcDbArc
 50
270.0
 51
338.676314
  0
ARC
  5
319
100
AcDbEntity
  8
LAY-3
  6
CONTINUOUS
 62
     3
100
AcDbCircle
 10
789.900663
 20
467.0
 30
0.0
 40
3.5
100
AcDbArc
 50
90.0
 51
158.676314
  0
LINE
  5
31A
100
AcDbEntity
  8
LAY-3
  6
CONTINUOUS
 62
     3
100
AcDbLine
 10
778.024138
 20
467.0
 30
0.0
 11
784.777188
 21
467.0
 31
0.0
  0
ARC
  5
31B
100
AcDbEntity
  8
LAY-3
  6
CONTINUOUS
 62
     3
100
AcDbCircle
 10
795.024138
 20
469.0
 30
0.0
 40
2.0
100
AcDbArc
 50
201.323686
 51
270.0
  0
LINE
  5
31C
100
AcDbEntity
  8
LAY-3
  6
CONTINUOUS
 62
     3
100
AcDbLine
 10
795.024138
 20
467.0
 30
0.0
 11
803.260663
 21
467.0
 31
0.0
  0
LINE
  5
31D
100
AcDbEntity
  8
LAY-3
  6
CONTINUOUS
 62
     3
100
AcDbLine
 10
722.900663
 20
463.36
 30
0.0
 11
738.900663
 21
463.36
 31
0.0
  0
LINE
  5
31E
100
AcDbEntity
  8
LAY-3
  6
CONTINUOUS
 62
     3
100
AcDbLine
 10
722.900663
 20
416.64
 30
0.0
 11
738.900663
 21
416.64
 31
0.0
  0
ARC
  5
31F
100
AcDbEntity
  8
LAY-3
  6
CONTINUOUS
 62
     3
100
AcDbCircle
 10
742.540663
 20
463.36
 30
0.0
 40
3.64
100
AcDbArc
 50
90.0
 51
180.0
  0
ARC
  5
320
100
AcDbEntity
  8
LAY-3
  6
CONTINUOUS
 62
     3
100
AcDbCircle
 10
742.540663
 20
416.64
 30
0.0
 40
3.64
100
AcDbArc
 50
180.0
 51
270.0
  0
ARC
  5
321
100
AcDbEntity
  8
LAY-3
  6
CONTINUOUS
 62
     3
100
AcDbCircle
 10
778.024138
 20
411.0
 30
0.0
 40
2.0
100
AcDbArc
 50
90.0
 51
158.676314
  0
ARC
  5
322
100
AcDbEntity
  8
LAY-3
  6
CONTINUOUS
 62
     3
100
AcDbCircle
 10
772.900663
 20
413.0
 30
0.0
 40
3.5
100
AcDbArc
 50
270.0
 51
338.676314
  0
ARC
  5
323
100
AcDbEntity
  8
LAY-3
  6
CONTINUOUS
 62
     3
100
AcDbCircle
 10
767.777188
 20
411.0
 30
0.0
 40
2.0
100
AcDbArc
 50
21.323686
 51
90.0
  0
ARC
  5
324
100
AcDbEntity
  8
LAY-3
  6
CONTINUOUS
 62
     3
100
AcDbCircle
 10
772.900663
 20
413.0
 30
0.0
 40
3.5
100
AcDbArc
 50
201.323686
 51
270.0
  0
ARC
  5
325
100
AcDbEntity
  8
LAY-3
  6
CONTINUOUS
 62
     3
100
AcDbCircle
 10
750.777188
 20
411.0
 30
0.0
 40
2.0
100
AcDbArc
 50
21.323686
 51
90.0
  0
ARC
  5
326
100
AcDbEntity
  8
LAY-3
  6
CONTINUOUS
 62
     3
100
AcDbCircle
 10
755.900663
 20
413.0
 30
0.0
 40
3.5
100
AcDbArc
 50
201.323686
 51
270.0
  0
ARC
  5
327
100
AcDbEntity
  8
LAY-3
  6
CONTINUOUS
 62
     3
100
AcDbCircle
 10
761.024138
 20
411.0
 30
0.0
 40
2.0
100
AcDbArc
 50
90.0
 51
158.676314
  0
ARC
  5
328
100
AcDbEntity
  8
LAY-3
  6
CONTINUOUS
 62
     3
100
AcDbCircle
 10
755.900663
 20
413.0
 30
0.0
 40
3.5
100
AcDbArc
 50
270.0
 51
338.676314
  0
LINE
  5
329
100
AcDbEntity
  8
LAY-3
  6
CONTINUOUS
 62
     3
100
AcDbLine
 10
761.024138
 20
413.0
 30
0.0
 11
768.042857
 21
413.0
 31
0.0
  0
ARC
  5
32A
100
AcDbEntity
  8
LAY-3
  6
CONTINUOUS
 62
     3
100
AcDbCircle
 10
795.024138
 20
411.0
 30
0.0
 40
2.0
100
AcDbArc
 50
90.0
 51
158.676314
  0
ARC
  5
32B
100
AcDbEntity
  8
LAY-3
  6
CONTINUOUS
 62
     3
100
AcDbCircle
 10
789.900663
 20
413.0
 30
0.0
 40
3.5
100
AcDbArc
 50
270.0
 51
338.676314
  0
ARC
  5
32C
100
AcDbEntity
  8
LAY-3
  6
CONTINUOUS
 62
     3
100
AcDbCircle
 10
784.777188
 20
411.0
 30
0.0
 40
2.0
100
AcDbArc
 50
21.323686
 51
90.0
  0
ARC
  5
32D
100
AcDbEntity
  8
LAY-3
  6
CONTINUOUS
 62
     3
100
AcDbCircle
 10
789.900663
 20
413.0
 30
0.0
 40
3.5
100
AcDbArc
 50
201.323686
 51
270.0
  0
LINE
  5
32E
100
AcDbEntity
  8
LAY-3
  6
CONTINUOUS
 62
     3
100
AcDbLine
 10
778.024138
 20
413.0
 30
0.0
 11
784.777188
 21
413.0
 31
0.0
  0
ARC
  5
32F
100
AcDbEntity
  8
LAY-3
  6
CONTINUOUS
 62
     3
100
AcDbCircle
 10
795.024138
 20
411.0
 30
0.0
 40
2.0
100
AcDbArc
 50
90.0
 51
158.676314
  0
LINE
  5
330
100
AcDbEntity
  8
LAY-3
  6
CONTINUOUS
 62
     3
100
AcDbLine
 10
795.024138
 20
413.0
 30
0.0
 11
803.260663
 21
413.0
 31
0.0
  0
LINE
  5
331
100
AcDbEntity
  8
LAY-3
  6
CONTINUOUS
 62
     3
100
AcDbLine
 10
750.777188
 20
413.0
 30
0.0
 11
742.540663
 21
413.0
 31
0.0
  0
LINE
  5
332
100
AcDbEntity
  8
LAY-3
  6
CONTINUOUS
 62
     3
100
AcDbLine
 10
822.900663
 20
463.36
 30
0.0
 11
806.900663
 21
463.36
 31
0.0
  0
LINE
  5
333
100
AcDbEntity
  8
LAY-3
  6
CONTINUOUS
 62
     3
100
AcDbLine
 10
822.900663
 20
416.64
 30
0.0
 11
806.900663
 21
416.64
 31
0.0
  0
LINE
  5
334
100
AcDbEntity
  8
LAY-3
  6
CONTINUOUS
 62
     3
100
AcDbLine
 10
822.900663
 20
463.36
 30
0.0
 11
822.900663
 21
416.64
 31
0.0
  0
ARC
  5
335
100
AcDbEntity
  8
LAY-3
  6
CONTINUOUS
 62
     3
100
AcDbCircle
 10
803.260663
 20
463.36
 30
0.0
 40
3.64
100
AcDbArc
 50
0.0
 51
90.0
  0
ARC
  5
336
100
AcDbEntity
  8
LAY-3
  6
CONTINUOUS
 62
     3
100
AcDbCircle
 10
803.260663
 20
416.64
 30
0.0
 40
3.64
100
AcDbArc
 50
270.0
 51
0.0
  0
LINE
  5
337
100
AcDbEntity
  8
LAY-3
  6
CONTINUOUS
 62
     3
100
AcDbLine
 10
806.900663
 20
463.36
 30
0.0
 11
806.900663
 21
416.64
 31
0.0
  0
LINE
  5
338
100
AcDbEntity
  8
LAY-3
  6
CONTINUOUS
 62
     3
100
AcDbLine
 10
803.260663
 20
467.0
 30
0.0
 11
803.260663
 21
413.0
 31
0.0
  0
LINE
  5
339
100
AcDbEntity
  8
LAY-3
  6
CONTINUOUS
 62
     3
100
AcDbLine
 10
69.84352
 20
331.1
 30
0.0
 11
69.84352
 21
279.3
 31
0.0
  0
LINE
  5
33A
100
AcDbEntity
  8
LAY-3
  6
CONTINUOUS
 62
     3
100
AcDbLine
 10
85.84352
 20
331.1
 30
0.0
 11
85.84352
 21
279.3
 31
0.0
  0
LINE
  5
33B
100
AcDbEntity
  8
LAY-3
  6
CONTINUOUS
 62
     3
100
AcDbLine
 10
89.09403
 20
334.7
 30
0.0
 11
89.09403
 21
275.7
 31
0.0
  0
LINE
  5
33C
100
AcDbEntity
  8
LAY-3
  6
CONTINUOUS
 62
     3
100
AcDbLine
 10
69.84352
 20
331.1
 30
0.0
 11
85.84352
 21
331.1
 31
0.0
  0
LINE
  5
33D
100
AcDbEntity
  8
LAY-3
  6
CONTINUOUS
 62
     3
100
AcDbLine
 10
89.09403
 20
334.7
 30
0.0
 11
97.219657
 21
334.7
 31
0.0
  0
ARC
  5
33E
100
AcDbEntity
  8
LAY-3
  6
CONTINUOUS
 62
     3
100
AcDbCircle
 10
104.09352
 20
334.7
 30
0.0
 40
4.5
100
AcDbArc
 50
90.0
 51
156.421822
  0
ARC
  5
33F
100
AcDbEntity
  8
LAY-3
  6
CONTINUOUS
 62
     3
100
AcDbCircle
 10
97.219657
 20
337.7
 30
0.0
 40
3.0
100
AcDbArc
 50
270.0
 51
336.421822
  0
ARC
  5
340
100
AcDbEntity
  8
LAY-3
  6
CONTINUOUS
 62
     3
100
AcDbCircle
 10
89.44352
 20
331.1
 30
0.0
 40
3.6
100
AcDbArc
 50
90.0
 51
180.0
  0
ARC
  5
341
100
AcDbEntity
  8
LAY-3
  6
CONTINUOUS
 62
     3
100
AcDbCircle
 10
104.09352
 20
334.7
 30
0.0
 40
4.5
100
AcDbArc
 50
23.578178
 51
90.0
  0
ARC
  5
342
100
AcDbEntity
  8
LAY-3
  6
CONTINUOUS
 62
     3
100
AcDbCircle
 10
110.967384
 20
337.7
 30
0.0
 40
3.0
100
AcDbArc
 50
203.578178
 51
270.0
  0
LINE
  5
343
100
AcDbEntity
  8
LAY-3
  6
CONTINUOUS
 62
     3
100
AcDbLine
 10
114.03704
 20
334.7
 30
0.0
 11
110.967384
 21
334.7
 31
0.0
  0
ARC
  5
344
100
AcDbEntity
  8
LAY-3
  6
CONTINUOUS
 62
     3
100
AcDbCircle
 10
129.217384
 20
337.7
 30
0.0
 40
3.0
100
AcDbArc
 50
203.578178
 51
270.0
  0
ARC
  5
345
100
AcDbEntity
  8
LAY-3
  6
CONTINUOUS
 62
     3
100
AcDbCircle
 10
122.34352
 20
334.7
 30
0.0
 40
4.5
100
AcDbArc
 50
23.578178
 51
90.0
  0
ARC
  5
346
100
AcDbEntity
  8
LAY-3
  6
CONTINUOUS
 62
     3
100
AcDbCircle
 10
122.34352
 20
334.7
 30
0.0
 40
4.5
100
AcDbArc
 50
90.0
 51
156.421822
  0
ARC
  5
347
100
AcDbEntity
  8
LAY-3
  6
CONTINUOUS
 62
     3
100
AcDbCircle
 10
115.469657
 20
337.7
 30
0.0
 40
3.0
100
AcDbArc
 50
270.0
 51
336.421822
  0
LINE
  5
348
100
AcDbEntity
  8
LAY-3
  6
CONTINUOUS
 62
     3
100
AcDbLine
 10
114.03704
 20
334.7
 30
0.0
 11
115.469657
 21
334.7
 31
0.0
  0
LINE
  5
349
100
AcDbEntity
  8
LAY-3
  6
CONTINUOUS
 62
     3
100
AcDbLine
 10
69.84352
 20
279.3
 30
0.0
 11
85.84352
 21
279.3
 31
0.0
  0
ARC
  5
34A
100
AcDbEntity
  8
LAY-3
  6
CONTINUOUS
 62
     3
100
AcDbCircle
 10
147.467384
 20
337.7
 30
0.0
 40
3.0
100
AcDbArc
 50
203.578178
 51
270.0
  0
ARC
  5
34B
100
AcDbEntity
  8
LAY-3
  6
CONTINUOUS
 62
     3
100
AcDbCircle
 10
140.59352
 20
334.7
 30
0.0
 40
4.5
100
AcDbArc
 50
23.578178
 51
90.0
  0
ARC
  5
34C
100
AcDbEntity
  8
LAY-3
  6
CONTINUOUS
 62
     3
100
AcDbCircle
 10
140.59352
 20
334.7
 30
0.0
 40
4.5
100
AcDbArc
 50
90.0
 51
156.421822
  0
ARC
  5
34D
100
AcDbEntity
  8
LAY-3
  6
CONTINUOUS
 62
     3
100
AcDbCircle
 10
133.719657
 20
337.7
 30
0.0
 40
3.0
100
AcDbArc
 50
270.0
 51
336.421822
  0
LINE
  5
34E
100
AcDbEntity
  8
LAY-3
  6
CONTINUOUS
 62
     3
100
AcDbLine
 10
130.65
 20
334.7
 30
0.0
 11
129.217384
 21
334.7
 31
0.0
  0
LINE
  5
34F
100
AcDbEntity
  8
LAY-3
  6
CONTINUOUS
 62
     3
100
AcDbLine
 10
130.65
 20
334.7
 30
0.0
 11
133.719657
 21
334.7
 31
0.0
  0
LINE
  5
350
100
AcDbEntity
  8
LAY-3
  6
CONTINUOUS
 62
     3
100
AcDbLine
 10
174.84352
 20
331.1
 30
0.0
 11
158.84352
 21
331.1
 31
0.0
  0
ARC
  5
351
100
AcDbEntity
  8
LAY-3
  6
CONTINUOUS
 62
     3
100
AcDbCircle
 10
155.24352
 20
331.1
 30
0.0
 40
3.6
100
AcDbArc
 50
0.0
 51
90.0
  0
LINE
  5
352
100
AcDbEntity
  8
LAY-3
  6
CONTINUOUS
 62
     3
100
AcDbLine
 10
155.59301
 20
334.7
 30
0.0
 11
147.467384
 21
334.7
 31
0.0
  0
LINE
  5
353
100
AcDbEntity
  8
LAY-3
  6
CONTINUOUS
 62
     3
100
AcDbLine
 10
174.84352
 20
331.1
 30
0.0
 11
174.84352
 21
279.3
 31
0.0
  0
LINE
  5
354
100
AcDbEntity
  8
LAY-3
  6
CONTINUOUS
 62
     3
100
AcDbLine
 10
158.84352
 20
331.1
 30
0.0
 11
158.84352
 21
279.3
 31
0.0
  0
LINE
  5
355
100
AcDbEntity
  8
LAY-3
  6
CONTINUOUS
 62
     3
100
AcDbLine
 10
155.59301
 20
334.7
 30
0.0
 11
155.59301
 21
275.7
 31
0.0
  0
ARC
  5
356
100
AcDbEntity
  8
LAY-3
  6
CONTINUOUS
 62
     3
100
AcDbCircle
 10
97.219657
 20
272.7
 30
0.0
 40
3.0
100
AcDbArc
 50
23.578178
 51
90.0
  0
ARC
  5
357
100
AcDbEntity
  8
LAY-3
  6
CONTINUOUS
 62
     3
100
AcDbCircle
 10
89.44352
 20
279.3
 30
0.0
 40
3.6
100
AcDbArc
 50
180.0
 51
270.0
  0
LINE
  5
358
100
AcDbEntity
  8
LAY-3
  6
CONTINUOUS
 62
     3
100
AcDbLine
 10
89.09403
 20
275.7
 30
0.0
 11
97.219657
 21
275.7
 31
0.0
  0
ARC
  5
359
100
AcDbEntity
  8
LAY-3
  6
CONTINUOUS
 62
     3
100
AcDbCircle
 10
104.09352
 20
275.7
 30
0.0
 40
4.5
100
AcDbArc
 50
203.578178
 51
270.0
  0
ARC
  5
35A
100
AcDbEntity
  8
LAY-3
  6
CONTINUOUS
 62
     3
100
AcDbCircle
 10
104.09352
 20
275.7
 30
0.0
 40
4.5
100
AcDbArc
 50
270.0
 51
336.421822
  0
ARC
  5
35B
100
AcDbEntity
  8
LAY-3
  6
CONTINUOUS
 62
     3
100
AcDbCircle
 10
110.967384
 20
272.7
 30
0.0
 40
3.0
100
AcDbArc
 50
90.0
 51
156.421822
  0
ARC
  5
35C
100
AcDbEntity
  8
LAY-3
  6
CONTINUOUS
 62
     3
100
AcDbCircle
 10
129.217384
 20
272.7
 30
0.0
 40
3.0
100
AcDbArc
 50
90.0
 51
156.421822
  0
ARC
  5
35D
100
AcDbEntity
  8
LAY-3
  6
CONTINUOUS
 62
     3
100
AcDbCircle
 10
122.34352
 20
275.7
 30
0.0
 40
4.5
100
AcDbArc
 50
270.0
 51
336.421822
  0
ARC
  5
35E
100
AcDbEntity
  8
LAY-3
  6
CONTINUOUS
 62
     3
100
AcDbCircle
 10
122.34352
 20
275.7
 30
0.0
 40
4.5
100
AcDbArc
 50
203.578178
 51
270.0
  0
ARC
  5
35F
100
AcDbEntity
  8
LAY-3
  6
CONTINUOUS
 62
     3
100
AcDbCircle
 10
115.469657
 20
272.7
 30
0.0
 40
3.0
100
AcDbArc
 50
23.578178
 51
90.0
  0
LINE
  5
360
100
AcDbEntity
  8
LAY-3
  6
CONTINUOUS
 62
     3
100
AcDbLine
 10
114.03704
 20
275.7
 30
0.0
 11
115.469657
 21
275.7
 31
0.0
  0
LINE
  5
361
100
AcDbEntity
  8
LAY-3
  6
CONTINUOUS
 62
     3
100
AcDbLine
 10
114.03704
 20
275.7
 30
0.0
 11
110.967384
 21
275.7
 31
0.0
  0
ARC
  5
362
100
AcDbEntity
  8
LAY-3
  6
CONTINUOUS
 62
     3
100
AcDbCircle
 10
147.467384
 20
272.7
 30
0.0
 40
3.0
100
AcDbArc
 50
90.0
 51
156.421822
  0
ARC
  5
363
100
AcDbEntity
  8
LAY-3
  6
CONTINUOUS
 62
     3
100
AcDbCircle
 10
140.59352
 20
275.7
 30
0.0
 40
4.5
100
AcDbArc
 50
270.0
 51
336.421822
  0
ARC
  5
364
100
AcDbEntity
  8
LAY-3
  6
CONTINUOUS
 62
     3
100
AcDbCircle
 10
140.59352
 20
275.7
 30
0.0
 40
4.5
100
AcDbArc
 50
203.578178
 51
270.0
  0
ARC
  5
365
100
AcDbEntity
  8
LAY-3
  6
CONTINUOUS
 62
     3
100
AcDbCircle
 10
133.719657
 20
272.7
 30
0.0
 40
3.0
100
AcDbArc
 50
23.578178
 51
90.0
  0
LINE
  5
366
100
AcDbEntity
  8
LAY-3
  6
CONTINUOUS
 62
     3
100
AcDbLine
 10
130.65
 20
275.7
 30
0.0
 11
129.217384
 21
275.7
 31
0.0
  0
LINE
  5
367
100
AcDbEntity
  8
LAY-3
  6
CONTINUOUS
 62
     3
100
AcDbLine
 10
130.65
 20
275.7
 30
0.0
 11
133.719657
 21
275.7
 31
0.0
  0
ARC
  5
368
100
AcDbEntity
  8
LAY-3
  6
CONTINUOUS
 62
     3
100
AcDbCircle
 10
155.24352
 20
279.3
 30
0.0
 40
3.6
100
AcDbArc
 50
270.0
 51
0.0
  0
LINE
  5
369
100
AcDbEntity
  8
LAY-3
  6
CONTINUOUS
 62
     3
100
AcDbLine
 10
155.59301
 20
275.7
 30
0.0
 11
147.467384
 21
275.7
 31
0.0
  0
LINE
  5
36A
100
AcDbEntity
  8
LAY-3
  6
CONTINUOUS
 62
     3
100
AcDbLine
 10
174.84352
 20
279.3
 30
0.0
 11
158.84352
 21
279.3
 31
0.0
  0
ARC
  5
36B
100
AcDbEntity
  8
LAY-3
  6
CONTINUOUS
 62
     3
100
AcDbCircle
 10
257.262514
 20
342.8
 30
0.0
 40
3.0
100
AcDbArc
 50
270.0
 51
336.421822
  0
LINE
  5
36C
100
AcDbEntity
  8
LAY-3
  6
CONTINUOUS
 62
     3
100
AcDbLine
 10
249.936377
 20
339.8
 30
0.0
 11
257.262514
 21
339.8
 31
0.0
  0
ARC
  5
36D
100
AcDbEntity
  8
LAY-3
  6
CONTINUOUS
 62
     3
100
AcDbCircle
 10
264.136377
 20
339.8
 30
0.0
 40
4.5
100
AcDbArc
 50
90.0
 51
156.421822
  0
ARC
  5
36E
100
AcDbEntity
  8
LAY-3
  6
CONTINUOUS
 62
     3
100
AcDbCircle
 10
264.136377
 20
339.8
 30
0.0
 40
4.5
100
AcDbArc
 50
23.578178
 51
90.0
  0
ARC
  5
36F
100
AcDbEntity
  8
LAY-3
  6
CONTINUOUS
 62
     3
100
AcDbCircle
 10
271.010241
 20
342.8
 30
0.0
 40
3.0
100
AcDbArc
 50
203.578178
 51
270.0
  0
ARC
  5
370
100
AcDbEntity
  8
LAY-3
  6
CONTINUOUS
 62
     3
100
AcDbCircle
 10
289.260241
 20
342.8
 30
0.0
 40
3.0
100
AcDbArc
 50
203.578178
 51
270.0
  0
ARC
  5
371
100
AcDbEntity
  8
LAY-3
  6
CONTINUOUS
 62
     3
100
AcDbCircle
 10
282.386377
 20
339.8
 30
0.0
 40
4.5
100
AcDbArc
 50
23.578178
 51
90.0
  0
ARC
  5
372
100
AcDbEntity
  8
LAY-3
  6
CONTINUOUS
 62
     3
100
AcDbCircle
 10
282.386377
 20
339.8
 30
0.0
 40
4.5
100
AcDbArc
 50
90.0
 51
156.421822
  0
ARC
  5
373
100
AcDbEntity
  8
LAY-3
  6
CONTINUOUS
 62
     3
100
AcDbCircle
 10
275.512514
 20
342.8
 30
0.0
 40
3.0
100
AcDbArc
 50
270.0
 51
336.421822
  0
LINE
  5
374
100
AcDbEntity
  8
LAY-3
  6
CONTINUOUS
 62
     3
100
AcDbLine
 10
274.079897
 20
339.8
 30
0.0
 11
275.512514
 21
339.8
 31
0.0
  0
LINE
  5
375
100
AcDbEntity
  8
LAY-3
  6
CONTINUOUS
 62
     3
100
AcDbLine
 10
274.079897
 20
339.8
 30
0.0
 11
271.010241
 21
339.8
 31
0.0
  0
LINE
  5
376
100
AcDbEntity
  8
LAY-3
  6
CONTINUOUS
 62
     3
100
AcDbLine
 10
245.886377
 20
335.75
 30
0.0
 11
245.886377
 21
304.8
 31
0.0
  0
LINE
  5
377
100
AcDbEntity
  8
LAY-3
  6
CONTINUOUS
 62
     3
100
AcDbLine
 10
229.886377
 20
335.75
 30
0.0
 11
229.886377
 21
273.85
 31
0.0
  0
ARC
  5
378
100
AcDbEntity
  8
LAY-3
  6
CONTINUOUS
 62
     3
100
AcDbCircle
 10
307.510241
 20
342.8
 30
0.0
 40
3.0
100
AcDbArc
 50
203.578178
 51
270.0
  0
ARC
  5
379
100
AcDbEntity
  8
LAY-3
  6
CONTINUOUS
 62
     3
100
AcDbCircle
 10
300.636377
 20
339.8
 30
0.0
 40
4.5
100
AcDbArc
 50
23.578178
 51
90.0
  0
ARC
  5
37A
100
AcDbEntity
  8
LAY-3
  6
CONTINUOUS
 62
     3
100
AcDbCircle
 10
300.636377
 20
339.8
 30
0.0
 40
4.5
100
AcDbArc
 50
90.0
 51
156.421822
  0
ARC
  5
37B
100
AcDbEntity
  8
LAY-3
  6
CONTINUOUS
 62
     3
100
AcDbCircle
 10
293.762514
 20
342.8
 30
0.0
 40
3.0
100
AcDbArc
 50
270.0
 51
336.421822
  0
LINE
  5
37C
100
AcDbEntity
  8
LAY-3
  6
CONTINUOUS
 62
     3
100
AcDbLine
 10
290.692857
 20
339.8
 30
0.0
 11
289.260241
 21
339.8
 31
0.0
  0
LINE
  5
37D
100
AcDbEntity
  8
LAY-3
  6
CONTINUOUS
 62
     3
100
AcDbLine
 10
290.692857
 20
339.8
 30
0.0
 11
293.762514
 21
339.8
 31
0.0
  0
LINE
  5
37E
100
AcDbEntity
  8
LAY-3
  6
CONTINUOUS
 62
     3
100
AcDbLine
 10
315.635867
 20
339.8
 30
0.0
 11
307.510241
 21
339.8
 31
0.0
  0
LINE
  5
37F
100
AcDbEntity
  8
LAY-3
  6
CONTINUOUS
 62
     3
100
AcDbLine
 10
249.778952
 20
339.796939
 30
0.0
 11
249.778952
 21
304.8
 31
0.0
  0
ARC
  5
380
100
AcDbEntity
  8
LAY-3
  6
CONTINUOUS
 62
     3
100
AcDbCircle
 10
249.936377
 20
335.75
 30
0.0
 40
4.05
100
AcDbArc
 50
90.0
 51
180.0
  0
LINE
  5
381
100
AcDbEntity
  8
LAY-3
  6
CONTINUOUS
 62
     3
100
AcDbLine
 10
229.886377
 20
335.78
 30
0.0
 11
245.886377
 21
335.78
 31
0.0
  0
LINE
  5
382
100
AcDbEntity
  8
LAY-3
  6
CONTINUOUS
 62
     3
100
AcDbLine
 10
229.886377
 20
273.82
 30
0.0
 11
245.886377
 21
273.82
 31
0.0
  0
ARC
  5
383
100
AcDbEntity
  8
LAY-3
  6
CONTINUOUS
 62
     3
100
AcDbCircle
 10
257.262514
 20
266.8
 30
0.0
 40
3.0
100
AcDbArc
 50
23.578178
 51
90.0
  0
ARC
  5
384
100
AcDbEntity
  8
LAY-3
  6
CONTINUOUS
 62
     3
100
AcDbCircle
 10
264.136377
 20
269.8
 30
0.0
 40
4.5
100
AcDbArc
 50
203.578178
 51
270.0
  0
ARC
  5
385
100
AcDbEntity
  8
LAY-3
  6
CONTINUOUS
 62
     3
100
AcDbCircle
 10
264.136377
 20
269.8
 30
0.0
 40
4.5
100
AcDbArc
 50
270.0
 51
336.421822
  0
ARC
  5
386
100
AcDbEntity
  8
LAY-3
  6
CONTINUOUS
 62
     3
100
AcDbCircle
 10
271.010241
 20
266.8
 30
0.0
 40
3.0
100
AcDbArc
 50
90.0
 51
156.421822
  0
ARC
  5
387
100
AcDbEntity
  8
LAY-3
  6
CONTINUOUS
 62
     3
100
AcDbCircle
 10
289.260241
 20
266.8
 30
0.0
 40
3.0
100
AcDbArc
 50
90.0
 51
156.421822
  0
ARC
  5
388
100
AcDbEntity
  8
LAY-3
  6
CONTINUOUS
 62
     3
100
AcDbCircle
 10
282.386377
 20
269.8
 30
0.0
 40
4.5
100
AcDbArc
 50
270.0
 51
336.421822
  0
ARC
  5
389
100
AcDbEntity
  8
LAY-3
  6
CONTINUOUS
 62
     3
100
AcDbCircle
 10
282.386377
 20
269.8
 30
0.0
 40
4.5
100
AcDbArc
 50
203.578178
 51
270.0
  0
ARC
  5
38A
100
AcDbEntity
  8
LAY-3
  6
CONTINUOUS
 62
     3
100
AcDbCircle
 10
275.512514
 20
266.8
 30
0.0
 40
3.0
100
AcDbArc
 50
23.578178
 51
90.0
  0
LINE
  5
38B
100
AcDbEntity
  8
LAY-3
  6
CONTINUOUS
 62
     3
100
AcDbLine
 10
274.079897
 20
269.8
 30
0.0
 11
275.512514
 21
269.8
 31
0.0
  0
LINE
  5
38C
100
AcDbEntity
  8
LAY-3
  6
CONTINUOUS
 62
     3
100
AcDbLine
 10
274.079897
 20
269.8
 30
0.0
 11
271.010241
 21
269.8
 31
0.0
  0
ARC
  5
38D
100
AcDbEntity
  8
LAY-3
  6
CONTINUOUS
 62
     3
100
AcDbCircle
 10
307.510241
 20
266.8
 30
0.0
 40
3.0
100
AcDbArc
 50
90.0
 51
156.421822
  0
ARC
  5
38E
100
AcDbEntity
  8
LAY-3
  6
CONTINUOUS
 62
     3
100
AcDbCircle
 10
300.636377
 20
269.8
 30
0.0
 40
4.5
100
AcDbArc
 50
270.0
 51
336.421822
  0
ARC
  5
38F
100
AcDbEntity
  8
LAY-3
  6
CONTINUOUS
 62
     3
100
AcDbCircle
 10
300.636377
 20
269.8
 30
0.0
 40
4.5
100
AcDbArc
 50
203.578178
 51
270.0
  0
ARC
  5
390
100
AcDbEntity
  8
LAY-3
  6
CONTINUOUS
 62
     3
100
AcDbCircle
 10
293.762514
 20
266.8
 30
0.0
 40
3.0
100
AcDbArc
 50
23.578178
 51
90.0
  0
LINE
  5
391
100
AcDbEntity
  8
LAY-3
  6
CONTINUOUS
 62
     3
100
AcDbLine
 10
290.692857
 20
269.8
 30
0.0
 11
289.260241
 21
269.8
 31
0.0
  0
LINE
  5
392
100
AcDbEntity
  8
LAY-3
  6
CONTINUOUS
 62
     3
100
AcDbLine
 10
290.692857
 20
269.8
 30
0.0
 11
293.762514
 21
269.8
 31
0.0
  0
LINE
  5
393
100
AcDbEntity
  8
LAY-3
  6
CONTINUOUS
 62
     3
100
AcDbLine
 10
315.635867
 20
269.8
 30
0.0
 11
307.510241
 21
269.8
 31
0.0
  0
ARC
  5
394
100
AcDbEntity
  8
LAY-3
  6
CONTINUOUS
 62
     3
100
AcDbCircle
 10
249.936377
 20
273.85
 30
0.0
 40
4.05
100
AcDbArc
 50
180.0
 51
270.0
  0
LINE
  5
395
100
AcDbEntity
  8
LAY-3
  6
CONTINUOUS
 62
     3
100
AcDbLine
 10
249.936377
 20
269.8
 30
0.0
 11
257.262514
 21
269.8
 31
0.0
  0
LINE
  5
396
100
AcDbEntity
  8
LAY-3
  6
CONTINUOUS
 62
     3
100
AcDbLine
 10
245.886377
 20
273.85
 30
0.0
 11
245.886377
 21
304.8
 31
0.0
  0
LINE
  5
397
100
AcDbEntity
  8
LAY-3
  6
CONTINUOUS
 62
     3
100
AcDbLine
 10
249.778952
 20
269.803061
 30
0.0
 11
249.778952
 21
304.8
 31
0.0
  0
LINE
  5
398
100
AcDbEntity
  8
LAY-3
  6
CONTINUOUS
 62
     3
100
AcDbLine
 10
334.886377
 20
335.75
 30
0.0
 11
334.886377
 21
273.85
 31
0.0
  0
ARC
  5
399
100
AcDbEntity
  8
LAY-3
  6
CONTINUOUS
 62
     3
100
AcDbCircle
 10
314.836377
 20
335.75
 30
0.0
 40
4.05
100
AcDbArc
 50
0.0
 51
90.0
  0
LINE
  5
39A
100
AcDbEntity
  8
LAY-3
  6
CONTINUOUS
 62
     3
100
AcDbLine
 10
334.886377
 20
335.78
 30
0.0
 11
318.886377
 21
335.78
 31
0.0
  0
LINE
  5
39B
100
AcDbEntity
  8
LAY-3
  6
CONTINUOUS
 62
     3
100
AcDbLine
 10
334.886377
 20
273.82
 30
0.0
 11
318.886377
 21
273.82
 31
0.0
  0
LINE
  5
39C
100
AcDbEntity
  8
LAY-3
  6
CONTINUOUS
 62
     3
100
AcDbLine
 10
318.886377
 20
335.75
 30
0.0
 11
318.886377
 21
304.8
 31
0.0
  0
LINE
  5
39D
100
AcDbEntity
  8
LAY-3
  6
CONTINUOUS
 62
     3
100
AcDbLine
 10
314.993802
 20
339.796939
 30
0.0
 11
314.993802
 21
304.8
 31
0.0
  0
ARC
  5
39E
100
AcDbEntity
  8
LAY-3
  6
CONTINUOUS
 62
     3
100
AcDbCircle
 10
314.836377
 20
273.85
 30
0.0
 40
4.05
100
AcDbArc
 50
270.0
 51
0.0
  0
LINE
  5
39F
100
AcDbEntity
  8
LAY-3
  6
CONTINUOUS
 62
     3
100
AcDbLine
 10
318.886377
 20
273.85
 30
0.0
 11
318.886377
 21
304.8
 31
0.0
  0
LINE
  5
3A0
100
AcDbEntity
  8
LAY-3
  6
CONTINUOUS
 62
     3
100
AcDbLine
 10
314.993802
 20
269.803061
 30
0.0
 11
314.993802
 21
304.8
 31
0.0
  0
LINE
  5
3A1
100
AcDbEntity
  8
LAY-3
  6
CONTINUOUS
 62
     3
100
AcDbLine
 10
386.6
 20
340.96
 30
0.0
 11
386.6
 21
268.84
 31
0.0
  0
ARC
  5
3A2
100
AcDbEntity
  8
LAY-3
  6
CONTINUOUS
 62
     3
100
AcDbCircle
 10
413.976136
 20
348.9
 30
0.0
 40
3.0
100
AcDbArc
 50
270.0
 51
336.421822
  0
ARC
  5
3A3
100
AcDbEntity
  8
LAY-3
  6
CONTINUOUS
 62
     3
100
AcDbCircle
 10
420.85
 20
345.9
 30
0.0
 40
4.5
100
AcDbArc
 50
90.0
 51
156.421822
  0
ARC
  5
3A4
100
AcDbEntity
  8
LAY-3
  6
CONTINUOUS
 62
     3
100
AcDbCircle
 10
420.85
 20
345.9
 30
0.0
 40
4.5
100
AcDbArc
 50
23.578178
 51
90.0
  0
ARC
  5
3A5
100
AcDbEntity
  8
LAY-3
  6
CONTINUOUS
 62
     3
100
AcDbCircle
 10
427.723864
 20
348.9
 30
0.0
 40
3.0
100
AcDbArc
 50
203.578178
 51
270.0
  0
ARC
  5
3A6
100
AcDbEntity
  8
LAY-3
  6
CONTINUOUS
 62
     3
100
AcDbCircle
 10
445.973864
 20
348.9
 30
0.0
 40
3.0
100
AcDbArc
 50
203.578178
 51
270.0
  0
ARC
  5
3A7
100
AcDbEntity
  8
LAY-3
  6
CONTINUOUS
 62
     3
100
AcDbCircle
 10
439.1
 20
345.9
 30
0.0
 40
4.5
100
AcDbArc
 50
23.578178
 51
90.0
  0
ARC
  5
3A8
100
AcDbEntity
  8
LAY-3
  6
CONTINUOUS
 62
     3
100
AcDbCircle
 10
439.1
 20
345.9
 30
0.0
 40
4.5
100
AcDbArc
 50
90.0
 51
156.421822
  0
ARC
  5
3A9
100
AcDbEntity
  8
LAY-3
  6
CONTINUOUS
 62
     3
100
AcDbCircle
 10
432.226136
 20
348.9
 30
0.0
 40
3.0
100
AcDbArc
 50
270.0
 51
336.421822
  0
LINE
  5
3AA
100
AcDbEntity
  8
LAY-3
  6
CONTINUOUS
 62
     3
100
AcDbLine
 10
430.79352
 20
345.9
 30
0.0
 11
432.226136
 21
345.9
 31
0.0
  0
LINE
  5
3AB
100
AcDbEntity
  8
LAY-3
  6
CONTINUOUS
 62
     3
100
AcDbLine
 10
430.79352
 20
345.9
 30
0.0
 11
427.723864
 21
345.9
 31
0.0
  0
ARC
  5
3AC
100
AcDbEntity
  8
LAY-3
  6
CONTINUOUS
 62
     3
100
AcDbCircle
 10
464.223864
 20
348.9
 30
0.0
 40
3.0
100
AcDbArc
 50
203.578178
 51
270.0
  0
ARC
  5
3AD
100
AcDbEntity
  8
LAY-3
  6
CONTINUOUS
 62
     3
100
AcDbCircle
 10
457.35
 20
345.9
 30
0.0
 40
4.5
100
AcDbArc
 50
23.578178
 51
90.0
  0
ARC
  5
3AE
100
AcDbEntity
  8
LAY-3
  6
CONTINUOUS
 62
     3
100
AcDbCircle
 10
457.35
 20
345.9
 30
0.0
 40
4.5
100
AcDbArc
 50
90.0
 51
156.421822
  0
ARC
  5
3AF
100
AcDbEntity
  8
LAY-3
  6
CONTINUOUS
 62
     3
100
AcDbCircle
 10
450.476136
 20
348.9
 30
0.0
 40
3.0
100
AcDbArc
 50
270.0
 51
336.421822
  0
LINE
  5
3B0
100
AcDbEntity
  8
LAY-3
  6
CONTINUOUS
 62
     3
100
AcDbLine
 10
447.40648
 20
345.9
 30
0.0
 11
445.973864
 21
345.9
 31
0.0
  0
LINE
  5
3B1
100
AcDbEntity
  8
LAY-3
  6
CONTINUOUS
 62
     3
100
AcDbLine
 10
447.40648
 20
345.9
 30
0.0
 11
450.476136
 21
345.9
 31
0.0
  0
LINE
  5
3B2
100
AcDbEntity
  8
LAY-3
  6
CONTINUOUS
 62
     3
100
AcDbLine
 10
471.405341
 20
345.9
 30
0.0
 11
464.223864
 21
345.9
 31
0.0
  0
LINE
  5
3B3
100
AcDbEntity
  8
LAY-3
  6
CONTINUOUS
 62
     3
100
AcDbLine
 10
407.54
 20
345.9
 30
0.0
 11
413.976136
 21
345.9
 31
0.0
  0
LINE
  5
3B4
100
AcDbEntity
  8
LAY-3
  6
CONTINUOUS
 62
     3
100
AcDbLine
 10
402.6
 20
340.96
 30
0.0
 11
402.6
 21
304.9
 31
0.0
  0
LINE
  5
3B5
100
AcDbEntity
  8
LAY-3
  6
CONTINUOUS
 62
     3
100
AcDbLine
 10
407.54
 20
345.731129
 30
0.0
 11
407.54
 21
304.73419
 31
0.0
  0
LINE
  5
3B6
100
AcDbEntity
  8
LAY-3
  6
CONTINUOUS
 62
     3
100
AcDbLine
 10
402.6
 20
268.84
 30
0.0
 11
402.6
 21
304.9
 31
0.0
  0
LINE
  5
3B7
100
AcDbEntity
  8
LAY-3
  6
CONTINUOUS
 62
     3
100
AcDbLine
 10
407.54
 20
263.787681
 30
0.0
 11
407.54
 21
304.787681
 31
0.0
  0
LINE
  5
3B8
100
AcDbEntity
  8
LAY-3
  6
CONTINUOUS
 62
     3
100
AcDbLine
 10
386.6
 20
340.96
 30
0.0
 11
402.6
 21
340.96
 31
0.0
  0
LINE
  5
3B9
100
AcDbEntity
  8
LAY-3
  6
CONTINUOUS
 62
     3
100
AcDbLine
 10
386.6
 20
268.84
 30
0.0
 11
402.6
 21
268.84
 31
0.0
  0
ARC
  5
3BA
100
AcDbEntity
  8
LAY-3
  6
CONTINUOUS
 62
     3
100
AcDbCircle
 10
407.54
 20
340.96
 30
0.0
 40
4.94
100
AcDbArc
 50
90.0
 51
180.0
  0
ARC
  5
3BB
100
AcDbEntity
  8
LAY-3
  6
CONTINUOUS
 62
     3
100
AcDbCircle
 10
413.976136
 20
260.9
 30
0.0
 40
3.0
100
AcDbArc
 50
23.578178
 51
90.0
  0
ARC
  5
3BC
100
AcDbEntity
  8
LAY-3
  6
CONTINUOUS
 62
     3
100
AcDbCircle
 10
420.85
 20
263.9
 30
0.0
 40
4.5
100
AcDbArc
 50
203.578178
 51
270.0
  0
ARC
  5
3BD
100
AcDbEntity
  8
LAY-3
  6
CONTINUOUS
 62
     3
100
AcDbCircle
 10
420.85
 20
263.9
 30
0.0
 40
4.5
100
AcDbArc
 50
270.0
 51
336.421822
  0
ARC
  5
3BE
100
AcDbEntity
  8
LAY-3
  6
CONTINUOUS
 62
     3
100
AcDbCircle
 10
427.723864
 20
260.9
 30
0.0
 40
3.0
100
AcDbArc
 50
90.0
 51
156.421822
  0
ARC
  5
3BF
100
AcDbEntity
  8
LAY-3
  6
CONTINUOUS
 62
     3
100
AcDbCircle
 10
445.973864
 20
260.9
 30
0.0
 40
3.0
100
AcDbArc
 50
90.0
 51
156.421822
  0
ARC
  5
3C0
100
AcDbEntity
  8
LAY-3
  6
CONTINUOUS
 62
     3
100
AcDbCircle
 10
439.1
 20
263.9
 30
0.0
 40
4.5
100
AcDbArc
 50
270.0
 51
336.421822
  0
ARC
  5
3C1
100
AcDbEntity
  8
LAY-3
  6
CONTINUOUS
 62
     3
100
AcDbCircle
 10
439.1
 20
263.9
 30
0.0
 40
4.5
100
AcDbArc
 50
203.578178
 51
270.0
  0
ARC
  5
3C2
100
AcDbEntity
  8
LAY-3
  6
CONTINUOUS
 62
     3
100
AcDbCircle
 10
432.226136
 20
260.9
 30
0.0
 40
3.0
100
AcDbArc
 50
23.578178
 51
90.0
  0
LINE
  5
3C3
100
AcDbEntity
  8
LAY-3
  6
CONTINUOUS
 62
     3
100
AcDbLine
 10
430.79352
 20
263.9
 30
0.0
 11
432.226136
 21
263.9
 31
0.0
  0
LINE
  5
3C4
100
AcDbEntity
  8
LAY-3
  6
CONTINUOUS
 62
     3
100
AcDbLine
 10
430.79352
 20
263.9
 30
0.0
 11
427.723864
 21
263.9
 31
0.0
  0
ARC
  5
3C5
100
AcDbEntity
  8
LAY-3
  6
CONTINUOUS
 62
     3
100
AcDbCircle
 10
464.223864
 20
260.9
 30
0.0
 40
3.0
100
AcDbArc
 50
90.0
 51
156.421822
  0
ARC
  5
3C6
100
AcDbEntity
  8
LAY-3
  6
CONTINUOUS
 62
     3
100
AcDbCircle
 10
457.35
 20
263.9
 30
0.0
 40
4.5
100
AcDbArc
 50
270.0
 51
336.421822
  0
ARC
  5
3C7
100
AcDbEntity
  8
LAY-3
  6
CONTINUOUS
 62
     3
100
AcDbCircle
 10
457.35
 20
263.9
 30
0.0
 40
4.5
100
AcDbArc
 50
203.578178
 51
270.0
  0
ARC
  5
3C8
100
AcDbEntity
  8
LAY-3
  6
CONTINUOUS
 62
     3
100
AcDbCircle
 10
450.476136
 20
260.9
 30
0.0
 40
3.0
100
AcDbArc
 50
23.578178
 51
90.0
  0
LINE
  5
3C9
100
AcDbEntity
  8
LAY-3
  6
CONTINUOUS
 62
     3
100
AcDbLine
 10
447.40648
 20
263.9
 30
0.0
 11
445.973864
 21
263.9
 31
0.0
  0
LINE
  5
3CA
100
AcDbEntity
  8
LAY-3
  6
CONTINUOUS
 62
     3
100
AcDbLine
 10
447.40648
 20
263.9
 30
0.0
 11
450.476136
 21
263.9
 31
0.0
  0
LINE
  5
3CB
100
AcDbEntity
  8
LAY-3
  6
CONTINUOUS
 62
     3
100
AcDbLine
 10
470.66
 20
263.9
 30
0.0
 11
464.223864
 21
263.9
 31
0.0
  0
ARC
  5
3CC
100
AcDbEntity
  8
LAY-3
  6
CONTINUOUS
 62
     3
100
AcDbCircle
 10
407.54
 20
268.84
 30
0.0
 40
4.94
100
AcDbArc
 50
180.0
 51
270.0
  0
LINE
  5
3CD
100
AcDbEntity
  8
LAY-3
  6
CONTINUOUS
 62
     3
100
AcDbLine
 10
407.54
 20
263.9
 30
0.0
 11
413.976136
 21
263.9
 31
0.0
  0
LINE
  5
3CE
100
AcDbEntity
  8
LAY-3
  6
CONTINUOUS
 62
     3
100
AcDbLine
 10
475.6
 20
268.84
 30
0.0
 11
475.6
 21
304.9
 31
0.0
  0
LINE
  5
3CF
100
AcDbEntity
  8
LAY-3
  6
CONTINUOUS
 62
     3
100
AcDbLine
 10
470.66
 20
263.9
 30
0.0
 11
470.66
 21
304.787681
 31
0.0
  0
LINE
  5
3D0
100
AcDbEntity
  8
LAY-3
  6
CONTINUOUS
 62
     3
100
AcDbLine
 10
491.6
 20
340.96
 30
0.0
 11
475.6
 21
340.96
 31
0.0
  0
LINE
  5
3D1
100
AcDbEntity
  8
LAY-3
  6
CONTINUOUS
 62
     3
100
AcDbLine
 10
491.6
 20
268.84
 30
0.0
 11
475.6
 21
268.84
 31
0.0
  0
LINE
  5
3D2
100
AcDbEntity
  8
LAY-3
  6
CONTINUOUS
 62
     3
100
AcDbLine
 10
491.6
 20
340.96
 30
0.0
 11
491.6
 21
268.84
 31
0.0
  0
ARC
  5
3D3
100
AcDbEntity
  8
LAY-3
  6
CONTINUOUS
 62
     3
100
AcDbCircle
 10
470.66
 20
340.96
 30
0.0
 40
4.94
100
AcDbArc
 50
0.0
 51
90.0
  0
LINE
  5
3D4
100
AcDbEntity
  8
LAY-3
  6
CONTINUOUS
 62
     3
100
AcDbLine
 10
475.6
 20
340.96
 30
0.0
 11
475.6
 21
304.9
 31
0.0
  0
LINE
  5
3D5
100
AcDbEntity
  8
LAY-3
  6
CONTINUOUS
 62
     3
100
AcDbLine
 10
470.66
 20
345.9
 30
0.0
 11
470.66
 21
304.63419
 31
0.0
  0
ARC
  5
3D6
100
AcDbEntity
  8
LAY-3
  6
CONTINUOUS
 62
     3
100
AcDbCircle
 10
470.66
 20
268.84
 30
0.0
 40
4.94
100
AcDbArc
 50
270.0
 51
0.0
  0
LINE
  5
3D7
100
AcDbEntity
  8
LAY-3
  6
CONTINUOUS
 62
     3
100
AcDbLine
 10
540.7
 20
346.14
 30
0.0
 11
540.7
 21
263.86
 31
0.0
  0
LINE
  5
3D8
100
AcDbEntity
  8
LAY-3
  6
CONTINUOUS
 62
     3
100
AcDbLine
 10
556.7
 20
346.14
 30
0.0
 11
556.7
 21
305.0
 31
0.0
  0
LINE
  5
3D9
100
AcDbEntity
  8
LAY-3
  6
CONTINUOUS
 62
     3
100
AcDbLine
 10
561.56
 20
351.0
 30
0.0
 11
561.56
 21
304.003061
 31
0.0
  0
LINE
  5
3DA
100
AcDbEntity
  8
LAY-3
  6
CONTINUOUS
 62
     3
100
AcDbLine
 10
556.7
 20
263.86
 30
0.0
 11
556.7
 21
305.0
 31
0.0
  0
LINE
  5
3DB
100
AcDbEntity
  8
LAY-3
  6
CONTINUOUS
 62
     3
100
AcDbLine
 10
561.64
 20
259.0
 30
0.0
 11
561.64
 21
304.887681
 31
0.0
  0
LINE
  5
3DC
100
AcDbEntity
  8
LAY-3
  6
CONTINUOUS
 62
     3
100
AcDbLine
 10
540.7
 20
346.14
 30
0.0
 11
556.7
 21
346.14
 31
0.0
  0
LINE
  5
3DD
100
AcDbEntity
  8
LAY-3
  6
CONTINUOUS
 62
     3
100
AcDbLine
 10
540.7
 20
263.86
 30
0.0
 11
556.7
 21
263.86
 31
0.0
  0
LINE
  5
3DE
100
AcDbEntity
  8
LAY-3
  6
CONTINUOUS
 62
     3
100
AcDbLine
 10
584.89352
 20
351.0
 30
0.0
 11
582.902987
 21
351.0
 31
0.0
  0
ARC
  5
3DF
100
AcDbEntity
  8
LAY-3
  6
CONTINUOUS
 62
     3
100
AcDbCircle
 10
574.95
 20
351.0
 30
0.0
 40
5.5
100
AcDbArc
 50
90.0
 51
159.332684
  0
ARC
  5
3E0
100
AcDbEntity
  8
LAY-3
  6
CONTINUOUS
 62
     3
100
AcDbCircle
 10
566.997013
 20
354.0
 30
0.0
 40
3.0
100
AcDbArc
 50
270.0
 51
339.332684
  0
ARC
  5
3E1
100
AcDbEntity
  8
LAY-3
  6
CONTINUOUS
 62
     3
100
AcDbCircle
 10
574.95
 20
351.0
 30
0.0
 40
5.5
100
AcDbArc
 50
20.667316
 51
90.0
  0
ARC
  5
3E2
100
AcDbEntity
  8
LAY-3
  6
CONTINUOUS
 62
     3
100
AcDbCircle
 10
582.902987
 20
354.0
 30
0.0
 40
3.0
100
AcDbArc
 50
200.667316
 51
270.0
  0
ARC
  5
3E3
100
AcDbEntity
  8
LAY-3
  6
CONTINUOUS
 62
     3
100
AcDbCircle
 10
561.56
 20
346.14
 30
0.0
 40
4.86
100
AcDbArc
 50
90.0
 51
180.0
  0
LINE
  5
3E4
100
AcDbEntity
  8
LAY-3
  6
CONTINUOUS
 62
     3
100
AcDbLine
 10
566.997013
 20
351.0
 30
0.0
 11
561.56
 21
351.0
 31
0.0
  0
ARC
  5
3E5
100
AcDbEntity
  8
LAY-3
  6
CONTINUOUS
 62
     3
100
AcDbCircle
 10
601.152987
 20
354.0
 30
0.0
 40
3.0
100
AcDbArc
 50
200.667316
 51
270.0
  0
ARC
  5
3E6
100
AcDbEntity
  8
LAY-3
  6
CONTINUOUS
 62
     3
100
AcDbCircle
 10
593.2
 20
351.0
 30
0.0
 40
5.5
100
AcDbArc
 50
20.667316
 51
90.0
  0
ARC
  5
3E7
100
AcDbEntity
  8
LAY-3
  6
CONTINUOUS
 62
     3
100
AcDbCircle
 10
593.2
 20
351.0
 30
0.0
 40
5.5
100
AcDbArc
 50
90.0
 51
159.332684
  0
ARC
  5
3E8
100
AcDbEntity
  8
LAY-3
  6
CONTINUOUS
 62
     3
100
AcDbCircle
 10
585.247013
 20
354.0
 30
0.0
 40
3.0
100
AcDbArc
 50
270.0
 51
339.332684
  0
LINE
  5
3E9
100
AcDbEntity
  8
LAY-3
  6
CONTINUOUS
 62
     3
100
AcDbLine
 10
583.25648
 20
351.0
 30
0.0
 11
585.247013
 21
351.0
 31
0.0
  0
ARC
  5
3EA
100
AcDbEntity
  8
LAY-3
  6
CONTINUOUS
 62
     3
100
AcDbCircle
 10
619.402987
 20
354.0
 30
0.0
 40
3.0
100
AcDbArc
 50
200.667316
 51
270.0
  0
ARC
  5
3EB
100
AcDbEntity
  8
LAY-3
  6
CONTINUOUS
 62
     3
100
AcDbCircle
 10
611.45
 20
351.0
 30
0.0
 40
5.5
100
AcDbArc
 50
20.667316
 51
90.0
  0
ARC
  5
3EC
100
AcDbEntity
  8
LAY-3
  6
CONTINUOUS
 62
     3
100
AcDbCircle
 10
611.45
 20
351.0
 30
0.0
 40
5.5
100
AcDbArc
 50
90.0
 51
159.332684
  0
ARC
  5
3ED
100
AcDbEntity
  8
LAY-3
  6
CONTINUOUS
 62
     3
100
AcDbCircle
 10
603.497013
 20
354.0
 30
0.0
 40
3.0
100
AcDbArc
 50
270.0
 51
339.332684
  0
LINE
  5
3EE
100
AcDbEntity
  8
LAY-3
  6
CONTINUOUS
 62
     3
100
AcDbLine
 10
601.50648
 20
351.0
 30
0.0
 11
603.497013
 21
351.0
 31
0.0
  0
LINE
  5
3EF
100
AcDbEntity
  8
LAY-3
  6
CONTINUOUS
 62
     3
100
AcDbLine
 10
603.14352
 20
351.0
 30
0.0
 11
601.152987
 21
351.0
 31
0.0
  0
ARC
  5
3F0
100
AcDbEntity
  8
LAY-3
  6
CONTINUOUS
 62
     3
100
AcDbCircle
 10
566.997013
 20
256.0
 30
0.0
 40
3.0
100
AcDbArc
 50
20.667316
 51
90.0
  0
ARC
  5
3F1
100
AcDbEntity
  8
LAY-3
  6
CONTINUOUS
 62
     3
100
AcDbCircle
 10
574.95
 20
259.0
 30
0.0
 40
5.5
100
AcDbArc
 50
200.667316
 51
270.0
  0
ARC
  5
3F2
100
AcDbEntity
  8
LAY-3
  6
CONTINUOUS
 62
     3
100
AcDbCircle
 10
574.95
 20
259.0
 30
0.0
 40
5.5
100
AcDbArc
 50
270.0
 51
339.332684
  0
ARC
  5
3F3
100
AcDbEntity
  8
LAY-3
  6
CONTINUOUS
 62
     3
100
AcDbCircle
 10
582.902987
 20
256.0
 30
0.0
 40
3.0
100
AcDbArc
 50
90.0
 51
159.332684
  0
ARC
  5
3F4
100
AcDbEntity
  8
LAY-3
  6
CONTINUOUS
 62
     3
100
AcDbCircle
 10
561.56
 20
263.86
 30
0.0
 40
4.86
100
AcDbArc
 50
180.0
 51
270.0
  0
LINE
  5
3F5
100
AcDbEntity
  8
LAY-3
  6
CONTINUOUS
 62
     3
100
AcDbLine
 10
584.89352
 20
259.0
 30
0.0
 11
582.902987
 21
259.0
 31
0.0
  0
LINE
  5
3F6
100
AcDbEntity
  8
LAY-3
  6
CONTINUOUS
 62
     3
100
AcDbLine
 10
566.997013
 20
259.0
 30
0.0
 11
561.56
 21
259.0
 31
0.0
  0
ARC
  5
3F7
100
AcDbEntity
  8
LAY-3
  6
CONTINUOUS
 62
     3
100
AcDbCircle
 10
601.152987
 20
256.0
 30
0.0
 40
3.0
100
AcDbArc
 50
90.0
 51
159.332684
  0
ARC
  5
3F8
100
AcDbEntity
  8
LAY-3
  6
CONTINUOUS
 62
     3
100
AcDbCircle
 10
593.2
 20
259.0
 30
0.0
 40
5.5
100
AcDbArc
 50
270.0
 51
339.332684
  0
ARC
  5
3F9
100
AcDbEntity
  8
LAY-3
  6
CONTINUOUS
 62
     3
100
AcDbCircle
 10
593.2
 20
259.0
 30
0.0
 40
5.5
100
AcDbArc
 50
200.667316
 51
270.0
  0
ARC
  5
3FA
100
AcDbEntity
  8
LAY-3
  6
CONTINUOUS
 62
     3
100
AcDbCircle
 10
585.247013
 20
256.0
 30
0.0
 40
3.0
100
AcDbArc
 50
20.667316
 51
90.0
  0
LINE
  5
3FB
100
AcDbEntity
  8
LAY-3
  6
CONTINUOUS
 62
     3
100
AcDbLine
 10
583.25648
 20
259.0
 30
0.0
 11
585.247013
 21
259.0
 31
0.0
  0
ARC
  5
3FC
100
AcDbEntity
  8
LAY-3
  6
CONTINUOUS
 62
     3
100
AcDbCircle
 10
619.402987
 20
256.0
 30
0.0
 40
3.0
100
AcDbArc
 50
90.0
 51
159.332684
  0
ARC
  5
3FD
100
AcDbEntity
  8
LAY-3
  6
CONTINUOUS
 62
     3
100
AcDbCircle
 10
611.45
 20
259.0
 30
0.0
 40
5.5
100
AcDbArc
 50
270.0
 51
339.332684
  0
ARC
  5
3FE
100
AcDbEntity
  8
LAY-3
  6
CONTINUOUS
 62
     3
100
AcDbCircle
 10
611.45
 20
259.0
 30
0.0
 40
5.5
100
AcDbArc
 50
200.667316
 51
270.0
  0
ARC
  5
3FF
100
AcDbEntity
  8
LAY-3
  6
CONTINUOUS
 62
     3
100
AcDbCircle
 10
603.497013
 20
256.0
 30
0.0
 40
3.0
100
AcDbArc
 50
20.667316
 51
90.0
  0
LINE
  5
400
100
AcDbEntity
  8
LAY-3
  6
CONTINUOUS
 62
     3
100
AcDbLine
 10
601.50648
 20
259.0
 30
0.0
 11
603.497013
 21
259.0
 31
0.0
  0
LINE
  5
401
100
AcDbEntity
  8
LAY-3
  6
CONTINUOUS
 62
     3
100
AcDbLine
 10
603.14352
 20
259.0
 30
0.0
 11
601.152987
 21
259.0
 31
0.0
  0
LINE
  5
402
100
AcDbEntity
  8
LAY-3
  6
CONTINUOUS
 62
     3
100
AcDbLine
 10
645.7
 20
346.14
 30
0.0
 11
629.7
 21
346.14
 31
0.0
  0
LINE
  5
403
100
AcDbEntity
  8
LAY-3
  6
CONTINUOUS
 62
     3
100
AcDbLine
 10
645.7
 20
263.86
 30
0.0
 11
629.7
 21
263.86
 31
0.0
  0
LINE
  5
404
100
AcDbEntity
  8
LAY-3
  6
CONTINUOUS
 62
     3
100
AcDbLine
 10
645.7
 20
346.14
 30
0.0
 11
645.7
 21
263.86
 31
0.0
  0
ARC
  5
405
100
AcDbEntity
  8
LAY-3
  6
CONTINUOUS
 62
     3
100
AcDbCircle
 10
624.84
 20
346.14
 30
0.0
 40
4.86
100
AcDbArc
 50
0.0
 51
90.0
  0
LINE
  5
406
100
AcDbEntity
  8
LAY-3
  6
CONTINUOUS
 62
     3
100
AcDbLine
 10
629.7
 20
346.14
 30
0.0
 11
629.7
 21
305.0
 31
0.0
  0
LINE
  5
407
100
AcDbEntity
  8
LAY-3
  6
CONTINUOUS
 62
     3
100
AcDbLine
 10
624.84
 20
351.0
 30
0.0
 11
624.84
 21
304.003061
 31
0.0
  0
LINE
  5
408
100
AcDbEntity
  8
LAY-3
  6
CONTINUOUS
 62
     3
100
AcDbLine
 10
619.402987
 20
351.0
 30
0.0
 11
624.84
 21
351.0
 31
0.0
  0
ARC
  5
409
100
AcDbEntity
  8
LAY-3
  6
CONTINUOUS
 62
     3
100
AcDbCircle
 10
624.84
 20
263.86
 30
0.0
 40
4.86
100
AcDbArc
 50
270.0
 51
0.0
  0
LINE
  5
40A
100
AcDbEntity
  8
LAY-3
  6
CONTINUOUS
 62
     3
100
AcDbLine
 10
619.402987
 20
259.0
 30
0.0
 11
624.84
 21
259.0
 31
0.0
  0
LINE
  5
40B
100
AcDbEntity
  8
LAY-3
  6
CONTINUOUS
 62
     3
100
AcDbLine
 10
629.7
 20
263.86
 30
0.0
 11
629.7
 21
305.0
 31
0.0
  0
LINE
  5
40C
100
AcDbEntity
  8
LAY-3
  6
CONTINUOUS
 62
     3
100
AcDbLine
 10
624.76
 20
259.0
 30
0.0
 11
624.76
 21
304.887681
 31
0.0
  0
LINE
  5
40D
100
AcDbEntity
  8
LAY-3
  6
CONTINUOUS
 62
     3
100
AcDbLine
 10
698.0
 20
350.08
 30
0.0
 11
698.0
 21
259.72
 31
0.0
  0
ARC
  5
40E
100
AcDbEntity
  8
LAY-3
  6
CONTINUOUS
 62
     3
100
AcDbCircle
 10
725.547013
 20
359.9
 30
0.0
 40
3.0
100
AcDbArc
 50
270.0
 51
339.332684
  0
ARC
  5
40F
100
AcDbEntity
  8
LAY-3
  6
CONTINUOUS
 62
     3
100
AcDbCircle
 10
733.5
 20
356.9
 30
0.0
 40
5.5
100
AcDbArc
 50
90.0
 51
159.332684
  0
ARC
  5
410
100
AcDbEntity
  8
LAY-3
  6
CONTINUOUS
 62
     3
100
AcDbCircle
 10
733.5
 20
356.9
 30
0.0
 40
5.5
100
AcDbArc
 50
20.667316
 51
90.0
  0
ARC
  5
411
100
AcDbEntity
  8
LAY-3
  6
CONTINUOUS
 62
     3
100
AcDbCircle
 10
741.452987
 20
359.9
 30
0.0
 40
3.0
100
AcDbArc
 50
200.667316
 51
270.0
  0
LINE
  5
412
100
AcDbEntity
  8
LAY-3
  6
CONTINUOUS
 62
     3
100
AcDbLine
 10
714.0
 20
350.08
 30
0.0
 11
714.0
 21
304.9
 31
0.0
  0
LINE
  5
413
100
AcDbEntity
  8
LAY-3
  6
CONTINUOUS
 62
     3
100
AcDbLine
 10
744.69352
 20
356.9
 30
0.0
 11
741.452987
 21
356.9
 31
0.0
  0
LINE
  5
414
100
AcDbEntity
  8
LAY-3
  6
CONTINUOUS
 62
     3
100
AcDbLine
 10
720.82
 20
356.9
 30
0.0
 11
720.82
 21
304.9
 31
0.0
  0
LINE
  5
415
100
AcDbEntity
  8
LAY-3
  6
CONTINUOUS
 62
     3
100
AcDbLine
 10
725.547013
 20
356.9
 30
0.0
 11
720.82
 21
356.9
 31
0.0
  0
ARC
  5
416
100
AcDbEntity
  8
LAY-3
  6
CONTINUOUS
 62
     3
100
AcDbCircle
 10
760.952987
 20
359.9
 30
0.0
 40
3.0
100
AcDbArc
 50
200.667316
 51
270.0
  0
ARC
  5
417
100
AcDbEntity
  8
LAY-3
  6
CONTINUOUS
 62
     3
100
AcDbCircle
 10
753.0
 20
356.9
 30
0.0
 40
5.5
100
AcDbArc
 50
20.667316
 51
90.0
  0
ARC
  5
418
100
AcDbEntity
  8
LAY-3
  6
CONTINUOUS
 62
     3
100
AcDbCircle
 10
753.0
 20
356.9
 30
0.0
 40
5.5
100
AcDbArc
 50
90.0
 51
159.332684
  0
ARC
  5
419
100
AcDbEntity
  8
LAY-3
  6
CONTINUOUS
 62
     3
100
AcDbCircle
 10
745.047013
 20
359.9
 30
0.0
 40
3.0
100
AcDbArc
 50
270.0
 51
339.332684
  0
LINE
  5
41A
100
AcDbEntity
  8
LAY-3
  6
CONTINUOUS
 62
     3
100
AcDbLine
 10
741.80648
 20
356.9
 30
0.0
 11
745.047013
 21
356.9
 31
0.0
  0
ARC
  5
41B
100
AcDbEntity
  8
LAY-3
  6
CONTINUOUS
 62
     3
100
AcDbCircle
 10
780.452987
 20
359.9
 30
0.0
 40
3.0
100
AcDbArc
 50
200.667316
 51
270.0
  0
ARC
  5
41C
100
AcDbEntity
  8
LAY-3
  6
CONTINUOUS
 62
     3
100
AcDbCircle
 10
772.5
 20
356.9
 30
0.0
 40
5.5
100
AcDbArc
 50
20.667316
 51
90.0
  0
ARC
  5
41D
100
AcDbEntity
  8
LAY-3
  6
CONTINUOUS
 62
     3
100
AcDbCircle
 10
772.5
 20
356.9
 30
0.0
 40
5.5
100
AcDbArc
 50
90.0
 51
159.332684
  0
ARC
  5
41E
100
AcDbEntity
  8
LAY-3
  6
CONTINUOUS
 62
     3
100
AcDbCircle
 10
764.547013
 20
359.9
 30
0.0
 40
3.0
100
AcDbArc
 50
270.0
 51
339.332684
  0
LINE
  5
41F
100
AcDbEntity
  8
LAY-3
  6
CONTINUOUS
 62
     3
100
AcDbLine
 10
761.30648
 20
356.9
 30
0.0
 11
764.547013
 21
356.9
 31
0.0
  0
LINE
  5
420
100
AcDbEntity
  8
LAY-3
  6
CONTINUOUS
 62
     3
100
AcDbLine
 10
764.19352
 20
356.9
 30
0.0
 11
760.952987
 21
356.9
 31
0.0
  0
ARC
  5
421
100
AcDbEntity
  8
LAY-3
  6
CONTINUOUS
 62
     3
100
AcDbCircle
 10
725.547013
 20
249.9
 30
0.0
 40
3.0
100
AcDbArc
 50
20.667316
 51
90.0
  0
ARC
  5
422
100
AcDbEntity
  8
LAY-3
  6
CONTINUOUS
 62
     3
100
AcDbCircle
 10
733.5
 20
252.9
 30
0.0
 40
5.5
100
AcDbArc
 50
200.667316
 51
270.0
  0
ARC
  5
423
100
AcDbEntity
  8
LAY-3
  6
CONTINUOUS
 62
     3
100
AcDbCircle
 10
733.5
 20
252.9
 30
0.0
 40
5.5
100
AcDbArc
 50
270.0
 51
339.332684
  0
ARC
  5
424
100
AcDbEntity
  8
LAY-3
  6
CONTINUOUS
 62
     3
100
AcDbCircle
 10
741.452987
 20
249.9
 30
0.0
 40
3.0
100
AcDbArc
 50
90.0
 51
159.332684
  0
LINE
  5
425
100
AcDbEntity
  8
LAY-3
  6
CONTINUOUS
 62
     3
100
AcDbLine
 10
744.69352
 20
252.9
 30
0.0
 11
741.452987
 21
252.9
 31
0.0
  0
LINE
  5
426
100
AcDbEntity
  8
LAY-3
  6
CONTINUOUS
 62
     3
100
AcDbLine
 10
725.547013
 20
252.9
 30
0.0
 11
720.82
 21
252.9
 31
0.0
  0
ARC
  5
427
100
AcDbEntity
  8
LAY-3
  6
CONTINUOUS
 62
     3
100
AcDbCircle
 10
760.952987
 20
249.9
 30
0.0
 40
3.0
100
AcDbArc
 50
90.0
 51
159.332684
  0
ARC
  5
428
100
AcDbEntity
  8
LAY-3
  6
CONTINUOUS
 62
     3
100
AcDbCircle
 10
753.0
 20
252.9
 30
0.0
 40
5.5
100
AcDbArc
 50
270.0
 51
339.332684
  0
ARC
  5
429
100
AcDbEntity
  8
LAY-3
  6
CONTINUOUS
 62
     3
100
AcDbCircle
 10
753.0
 20
252.9
 30
0.0
 40
5.5
100
AcDbArc
 50
200.667316
 51
270.0
  0
ARC
  5
42A
100
AcDbEntity
  8
LAY-3
  6
CONTINUOUS
 62
     3
100
AcDbCircle
 10
745.047013
 20
249.9
 30
0.0
 40
3.0
100
AcDbArc
 50
20.667316
 51
90.0
  0
LINE
  5
42B
100
AcDbEntity
  8
LAY-3
  6
CONTINUOUS
 62
     3
100
AcDbLine
 10
741.80648
 20
252.9
 30
0.0
 11
745.047013
 21
252.9
 31
0.0
  0
ARC
  5
42C
100
AcDbEntity
  8
LAY-3
  6
CONTINUOUS
 62
     3
100
AcDbCircle
 10
780.452987
 20
249.9
 30
0.0
 40
3.0
100
AcDbArc
 50
90.0
 51
159.332684
  0
ARC
  5
42D
100
AcDbEntity
  8
LAY-3
  6
CONTINUOUS
 62
     3
100
AcDbCircle
 10
772.5
 20
252.9
 30
0.0
 40
5.5
100
AcDbArc
 50
270.0
 51
339.332684
  0
ARC
  5
42E
100
AcDbEntity
  8
LAY-3
  6
CONTINUOUS
 62
     3
100
AcDbCircle
 10
772.5
 20
252.9
 30
0.0
 40
5.5
100
AcDbArc
 50
200.667316
 51
270.0
  0
ARC
  5
42F
100
AcDbEntity
  8
LAY-3
  6
CONTINUOUS
 62
     3
100
AcDbCircle
 10
764.547013
 20
249.9
 30
0.0
 40
3.0
100
AcDbArc
 50
20.667316
 51
90.0
  0
LINE
  5
430
100
AcDbEntity
  8
LAY-3
  6
CONTINUOUS
 62
     3
100
AcDbLine
 10
761.30648
 20
252.9
 30
0.0
 11
764.547013
 21
252.9
 31
0.0
  0
LINE
  5
431
100
AcDbEntity
  8
LAY-3
  6
CONTINUOUS
 62
     3
100
AcDbLine
 10
764.19352
 20
252.9
 30
0.0
 11
760.952987
 21
252.9
 31
0.0
  0
LINE
  5
432
100
AcDbEntity
  8
LAY-3
  6
CONTINUOUS
 62
     3
100
AcDbLine
 10
714.0
 20
259.72
 30
0.0
 11
714.0
 21
304.9
 31
0.0
  0
LINE
  5
433
100
AcDbEntity
  8
LAY-3
  6
CONTINUOUS
 62
     3
100
AcDbLine
 10
780.452987
 20
356.9
 30
0.0
 11
787.14
 21
356.9
 31
0.0
  0
LINE
  5
434
100
AcDbEntity
  8
LAY-3
  6
CONTINUOUS
 62
     3
100
AcDbLine
 10
780.452987
 20
252.9
 30
0.0
 11
787.14
 21
252.9
 31
0.0
  0
LINE
  5
435
100
AcDbEntity
  8
LAY-3
  6
CONTINUOUS
 62
     3
100
AcDbLine
 10
698.0
 20
350.08
 30
0.0
 11
714.0
 21
350.08
 31
0.0
  0
LINE
  5
436
100
AcDbEntity
  8
LAY-3
  6
CONTINUOUS
 62
     3
100
AcDbLine
 10
698.0
 20
259.72
 30
0.0
 11
714.0
 21
259.72
 31
0.0
  0
ARC
  5
437
100
AcDbEntity
  8
LAY-3
  6
CONTINUOUS
 62
     3
100
AcDbCircle
 10
720.82
 20
350.08
 30
0.0
 40
6.82
100
AcDbArc
 50
90.0
 51
180.0
  0
ARC
  5
438
100
AcDbEntity
  8
LAY-3
  6
CONTINUOUS
 62
     3
100
AcDbCircle
 10
720.82
 20
259.72
 30
0.0
 40
6.82
100
AcDbArc
 50
180.0
 51
270.0
  0
LINE
  5
439
100
AcDbEntity
  8
LAY-3
  6
CONTINUOUS
 62
     3
100
AcDbLine
 10
720.82
 20
252.9
 30
0.0
 11
720.82
 21
304.9
 31
0.0
  0
LINE
  5
43A
100
AcDbEntity
  8
LAY-3
  6
CONTINUOUS
 62
     3
100
AcDbLine
 10
808.0
 20
350.08
 30
0.0
 11
792.0
 21
350.08
 31
0.0
  0
LINE
  5
43B
100
AcDbEntity
  8
LAY-3
  6
CONTINUOUS
 62
     3
100
AcDbLine
 10
808.0
 20
259.72
 30
0.0
 11
792.0
 21
259.72
 31
0.0
  0
LINE
  5
43C
100
AcDbEntity
  8
LAY-3
  6
CONTINUOUS
 62
     3
100
AcDbLine
 10
808.0
 20
350.08
 30
0.0
 11
808.0
 21
259.72
 31
0.0
  0
LINE
  5
43D
100
AcDbEntity
  8
LAY-3
  6
CONTINUOUS
 62
     3
100
AcDbLine
 10
792.0
 20
259.72
 30
0.0
 11
792.0
 21
304.9
 31
0.0
  0
ARC
  5
43E
100
AcDbEntity
  8
LAY-3
  6
CONTINUOUS
 62
     3
100
AcDbCircle
 10
785.18
 20
350.08
 30
0.0
 40
6.82
100
AcDbArc
 50
0.0
 51
90.0
  0
LINE
  5
43F
100
AcDbEntity
  8
LAY-3
  6
CONTINUOUS
 62
     3
100
AcDbLine
 10
792.0
 20
350.08
 30
0.0
 11
792.0
 21
304.9
 31
0.0
  0
ARC
  5
440
100
AcDbEntity
  8
LAY-3
  6
CONTINUOUS
 62
     3
100
AcDbCircle
 10
785.18
 20
259.72
 30
0.0
 40
6.82
100
AcDbArc
 50
270.0
 51
0.0
  0
LINE
  5
441
100
AcDbEntity
  8
LAY-3
  6
CONTINUOUS
 62
     3
100
AcDbLine
 10
785.18
 20
356.9
 30
0.0
 11
785.18
 21
304.9
 31
0.0
  0
LINE
  5
442
100
AcDbEntity
  8
LAY-3
  6
CONTINUOUS
 62
     3
100
AcDbLine
 10
785.18
 20
252.9
 30
0.0
 11
785.18
 21
304.9
 31
0.0
  0
LINE
  5
443
100
AcDbEntity
  8
LAY-3
  6
CONTINUOUS
 62
     3
100
AcDbLine
 10
70.8
 20
159.7
 30
0.0
 11
70.8
 21
55.1
 31
0.0
  0
LINE
  5
444
100
AcDbEntity
  8
LAY-3
  6
CONTINUOUS
 62
     3
100
AcDbLine
 10
86.8
 20
55.1
 30
0.0
 11
86.8
 21
107.4
 31
0.0
  0
ARC
  5
445
100
AcDbEntity
  8
LAY-3
  6
CONTINUOUS
 62
     3
100
AcDbCircle
 10
133.752987
 20
168.4
 30
0.0
 40
3.0
100
AcDbArc
 50
200.667316
 51
270.0
  0
ARC
  5
446
100
AcDbEntity
  8
LAY-3
  6
CONTINUOUS
 62
     3
100
AcDbCircle
 10
125.8
 20
165.4
 30
0.0
 40
5.5
100
AcDbArc
 50
20.667316
 51
90.0
  0
ARC
  5
447
100
AcDbEntity
  8
LAY-3
  6
CONTINUOUS
 62
     3
100
AcDbCircle
 10
125.8
 20
165.4
 30
0.0
 40
5.5
100
AcDbArc
 50
90.0
 51
159.332684
  0
ARC
  5
448
100
AcDbEntity
  8
LAY-3
  6
CONTINUOUS
 62
     3
100
AcDbCircle
 10
117.847013
 20
168.4
 30
0.0
 40
3.0
100
AcDbArc
 50
270.0
 51
339.332684
  0
ARC
  5
449
100
AcDbEntity
  8
LAY-3
  6
CONTINUOUS
 62
     3
100
AcDbCircle
 10
98.347013
 20
168.4
 30
0.0
 40
3.0
100
AcDbArc
 50
270.0
 51
339.332684
  0
ARC
  5
44A
100
AcDbEntity
  8
LAY-3
  6
CONTINUOUS
 62
     3
100
AcDbCircle
 10
106.3
 20
165.4
 30
0.0
 40
5.5
100
AcDbArc
 50
90.0
 51
159.332684
  0
ARC
  5
44B
100
AcDbEntity
  8
LAY-3
  6
CONTINUOUS
 62
     3
100
AcDbCircle
 10
106.3
 20
165.4
 30
0.0
 40
5.5
100
AcDbArc
 50
20.667316
 51
90.0
  0
ARC
  5
44C
100
AcDbEntity
  8
LAY-3
  6
CONTINUOUS
 62
     3
100
AcDbCircle
 10
114.252987
 20
168.4
 30
0.0
 40
3.0
100
AcDbArc
 50
200.667316
 51
270.0
  0
LINE
  5
44D
100
AcDbEntity
  8
LAY-3
  6
CONTINUOUS
 62
     3
100
AcDbLine
 10
117.49352
 20
165.4
 30
0.0
 11
114.252987
 21
165.4
 31
0.0
  0
LINE
  5
44E
100
AcDbEntity
  8
LAY-3
  6
CONTINUOUS
 62
     3
100
AcDbLine
 10
114.60648
 20
165.4
 30
0.0
 11
117.847013
 21
165.4
 31
0.0
  0
ARC
  5
44F
100
AcDbEntity
  8
LAY-3
  6
CONTINUOUS
 62
     3
100
AcDbCircle
 10
153.252987
 20
168.4
 30
0.0
 40
3.0
100
AcDbArc
 50
200.667316
 51
270.0
  0
ARC
  5
450
100
AcDbEntity
  8
LAY-3
  6
CONTINUOUS
 62
     3
100
AcDbCircle
 10
145.3
 20
165.4
 30
0.0
 40
5.5
100
AcDbArc
 50
20.667316
 51
90.0
  0
ARC
  5
451
100
AcDbEntity
  8
LAY-3
  6
CONTINUOUS
 62
     3
100
AcDbCircle
 10
145.3
 20
165.4
 30
0.0
 40
5.5
100
AcDbArc
 50
90.0
 51
159.332684
  0
ARC
  5
452
100
AcDbEntity
  8
LAY-3
  6
CONTINUOUS
 62
     3
100
AcDbCircle
 10
137.347013
 20
168.4
 30
0.0
 40
3.0
100
AcDbArc
 50
270.0
 51
339.332684
  0
LINE
  5
453
100
AcDbEntity
  8
LAY-3
  6
CONTINUOUS
 62
     3
100
AcDbLine
 10
134.10648
 20
165.4
 30
0.0
 11
137.347013
 21
165.4
 31
0.0
  0
LINE
  5
454
100
AcDbEntity
  8
LAY-3
  6
CONTINUOUS
 62
     3
100
AcDbLine
 10
136.99352
 20
165.4
 30
0.0
 11
133.752987
 21
165.4
 31
0.0
  0
LINE
  5
455
100
AcDbEntity
  8
LAY-3
  6
CONTINUOUS
 62
     3
100
AcDbLine
 10
153.252987
 20
165.4
 30
0.0
 11
159.94
 21
165.4
 31
0.0
  0
ARC
  5
456
100
AcDbEntity
  8
LAY-3
  6
CONTINUOUS
 62
     3
100
AcDbCircle
 10
133.752987
 20
46.4
 30
0.0
 40
3.0
100
AcDbArc
 50
90.0
 51
159.332684
  0
ARC
  5
457
100
AcDbEntity
  8
LAY-3
  6
CONTINUOUS
 62
     3
100
AcDbCircle
 10
125.8
 20
49.4
 30
0.0
 40
5.5
100
AcDbArc
 50
270.0
 51
339.332684
  0
ARC
  5
458
100
AcDbEntity
  8
LAY-3
  6
CONTINUOUS
 62
     3
100
AcDbCircle
 10
125.8
 20
49.4
 30
0.0
 40
5.5
100
AcDbArc
 50
200.667316
 51
270.0
  0
ARC
  5
459
100
AcDbEntity
  8
LAY-3
  6
CONTINUOUS
 62
     3
100
AcDbCircle
 10
117.847013
 20
46.4
 30
0.0
 40
3.0
100
AcDbArc
 50
20.667316
 51
90.0
  0
ARC
  5
45A
100
AcDbEntity
  8
LAY-3
  6
CONTINUOUS
 62
     3
100
AcDbCircle
 10
98.347013
 20
46.4
 30
0.0
 40
3.0
100
AcDbArc
 50
20.667316
 51
90.0
  0
ARC
  5
45B
100
AcDbEntity
  8
LAY-3
  6
CONTINUOUS
 62
     3
100
AcDbCircle
 10
106.3
 20
49.4
 30
0.0
 40
5.5
100
AcDbArc
 50
200.667316
 51
270.0
  0
ARC
  5
45C
100
AcDbEntity
  8
LAY-3
  6
CONTINUOUS
 62
     3
100
AcDbCircle
 10
106.3
 20
49.4
 30
0.0
 40
5.5
100
AcDbArc
 50
270.0
 51
339.332684
  0
ARC
  5
45D
100
AcDbEntity
  8
LAY-3
  6
CONTINUOUS
 62
     3
100
AcDbCircle
 10
114.252987
 20
46.4
 30
0.0
 40
3.0
100
AcDbArc
 50
90.0
 51
159.332684
  0
LINE
  5
45E
100
AcDbEntity
  8
LAY-3
  6
CONTINUOUS
 62
     3
100
AcDbLine
 10
117.49352
 20
49.4
 30
0.0
 11
114.252987
 21
49.4
 31
0.0
  0
LINE
  5
45F
100
AcDbEntity
  8
LAY-3
  6
CONTINUOUS
 62
     3
100
AcDbLine
 10
114.60648
 20
49.4
 30
0.0
 11
117.847013
 21
49.4
 31
0.0
  0
ARC
  5
460
100
AcDbEntity
  8
LAY-3
  6
CONTINUOUS
 62
     3
100
AcDbCircle
 10
153.252987
 20
46.4
 30
0.0
 40
3.0
100
AcDbArc
 50
90.0
 51
159.332684
  0
ARC
  5
461
100
AcDbEntity
  8
LAY-3
  6
CONTINUOUS
 62
     3
100
AcDbCircle
 10
145.3
 20
49.4
 30
0.0
 40
5.5
100
AcDbArc
 50
270.0
 51
339.332684
  0
ARC
  5
462
100
AcDbEntity
  8
LAY-3
  6
CONTINUOUS
 62
     3
100
AcDbCircle
 10
145.3
 20
49.4
 30
0.0
 40
5.5
100
AcDbArc
 50
200.667316
 51
270.0
  0
ARC
  5
463
100
AcDbEntity
  8
LAY-3
  6
CONTINUOUS
 62
     3
100
AcDbCircle
 10
137.347013
 20
46.4
 30
0.0
 40
3.0
100
AcDbArc
 50
20.667316
 51
90.0
  0
LINE
  5
464
100
AcDbEntity
  8
LAY-3
  6
CONTINUOUS
 62
     3
100
AcDbLine
 10
134.10648
 20
49.4
 30
0.0
 11
137.347013
 21
49.4
 31
0.0
  0
LINE
  5
465
100
AcDbEntity
  8
LAY-3
  6
CONTINUOUS
 62
     3
100
AcDbLine
 10
136.99352
 20
49.4
 30
0.0
 11
133.752987
 21
49.4
 31
0.0
  0
LINE
  5
466
100
AcDbEntity
  8
LAY-3
  6
CONTINUOUS
 62
     3
100
AcDbLine
 10
153.252987
 20
49.4
 30
0.0
 11
159.94
 21
49.4
 31
0.0
  0
LINE
  5
467
100
AcDbEntity
  8
LAY-3
  6
CONTINUOUS
 62
     3
100
AcDbLine
 10
86.8
 20
159.7
 30
0.0
 11
86.8
 21
107.4
 31
0.0
  0
LINE
  5
468
100
AcDbEntity
  8
LAY-3
  6
CONTINUOUS
 62
     3
100
AcDbLine
 10
98.347013
 20
165.4
 30
0.0
 11
92.5
 21
165.4
 31
0.0
  0
LINE
  5
469
100
AcDbEntity
  8
LAY-3
  6
CONTINUOUS
 62
     3
100
AcDbLine
 10
93.62
 20
165.4
 30
0.0
 11
93.62
 21
107.4
 31
0.0
  0
LINE
  5
46A
100
AcDbEntity
  8
LAY-3
  6
CONTINUOUS
 62
     3
100
AcDbLine
 10
93.62
 20
49.4
 30
0.0
 11
93.62
 21
107.4
 31
0.0
  0
LINE
  5
46B
100
AcDbEntity
  8
LAY-3
  6
CONTINUOUS
 62
     3
100
AcDbLine
 10
86.8
 20
159.7
 30
0.0
 11
70.8
 21
159.7
 31
0.0
  0
LINE
  5
46C
100
AcDbEntity
  8
LAY-3
  6
CONTINUOUS
 62
     3
100
AcDbLine
 10
86.8
 20
55.1
 30
0.0
 11
70.8
 21
55.1
 31
0.0
  0
ARC
  5
46D
100
AcDbEntity
  8
LAY-3
  6
CONTINUOUS
 62
     3
100
AcDbCircle
 10
92.5
 20
159.7
 30
0.0
 40
5.7
100
AcDbArc
 50
90.0
 51
180.0
  0
ARC
  5
46E
100
AcDbEntity
  8
LAY-3
  6
CONTINUOUS
 62
     3
100
AcDbCircle
 10
92.5
 20
55.1
 30
0.0
 40
5.7
100
AcDbArc
 50
180.0
 51
270.0
  0
LINE
  5
46F
100
AcDbEntity
  8
LAY-3
  6
CONTINUOUS
 62
     3
100
AcDbLine
 10
98.347013
 20
49.4
 30
0.0
 11
92.5
 21
49.4
 31
0.0
  0
LINE
  5
470
100
AcDbEntity
  8
LAY-3
  6
CONTINUOUS
 62
     3
100
AcDbLine
 10
164.8
 20
159.7
 30
0.0
 11
180.8
 21
159.7
 31
0.0
  0
LINE
  5
471
100
AcDbEntity
  8
LAY-3
  6
CONTINUOUS
 62
     3
100
AcDbLine
 10
164.8
 20
55.1
 30
0.0
 11
180.8
 21
55.1
 31
0.0
  0
LINE
  5
472
100
AcDbEntity
  8
LAY-3
  6
CONTINUOUS
 62
     3
100
AcDbLine
 10
180.8
 20
159.7
 30
0.0
 11
180.8
 21
55.1
 31
0.0
  0
LINE
  5
473
100
AcDbEntity
  8
LAY-3
  6
CONTINUOUS
 62
     3
100
AcDbLine
 10
157.98
 20
165.4
 30
0.0
 11
157.98
 21
107.4
 31
0.0
  0
ARC
  5
474
100
AcDbEntity
  8
LAY-3
  6
CONTINUOUS
 62
     3
100
AcDbCircle
 10
159.1
 20
159.7
 30
0.0
 40
5.7
100
AcDbArc
 50
0.0
 51
90.0
  0
LINE
  5
475
100
AcDbEntity
  8
LAY-3
  6
CONTINUOUS
 62
     3
100
AcDbLine
 10
164.8
 20
159.7
 30
0.0
 11
164.8
 21
107.4
 31
0.0
  0
ARC
  5
476
100
AcDbEntity
  8
LAY-3
  6
CONTINUOUS
 62
     3
100
AcDbCircle
 10
159.1
 20
55.1
 30
0.0
 40
5.7
100
AcDbArc
 50
270.0
 51
0.0
  0
LINE
  5
477
100
AcDbEntity
  8
LAY-3
  6
CONTINUOUS
 62
     3
100
AcDbLine
 10
157.98
 20
49.4
 30
0.0
 11
157.98
 21
107.4
 31
0.0
  0
LINE
  5
478
100
AcDbEntity
  8
LAY-3
  6
CONTINUOUS
 62
     3
100
AcDbLine
 10
164.8
 20
55.1
 30
0.0
 11
164.8
 21
107.4
 31
0.0
  0
LINE
  5
479
100
AcDbEntity
  8
LAY-3
  6
CONTINUOUS
 62
     3
100
AcDbLine
 10
232.4
 20
164.58
 30
0.0
 11
232.4
 21
49.82
 31
0.0
  0
LINE
  5
47A
100
AcDbEntity
  8
LAY-3
  6
CONTINUOUS
 62
     3
100
AcDbLine
 10
255.634829
 20
171.644763
 30
0.0
 11
255.634829
 21
107.2
 31
0.0
  0
LINE
  5
47B
100
AcDbEntity
  8
LAY-3
  6
CONTINUOUS
 62
     3
100
AcDbLine
 10
249.4
 20
164.58
 30
0.0
 11
249.4
 21
107.2
 31
0.0
  0
LINE
  5
47C
100
AcDbEntity
  8
LAY-3
  6
CONTINUOUS
 62
     3
100
AcDbLine
 10
255.634829
 20
42.755237
 30
0.0
 11
255.634829
 21
107.2
 31
0.0
  0
LINE
  5
47D
100
AcDbEntity
  8
LAY-3
  6
CONTINUOUS
 62
     3
100
AcDbLine
 10
249.4
 20
49.82
 30
0.0
 11
249.4
 21
107.2
 31
0.0
  0
LINE
  5
47E
100
AcDbEntity
  8
LAY-3
  6
CONTINUOUS
 62
     3
100
AcDbLine
 10
256.52
 20
171.7
 30
0.0
 11
260.026136
 21
171.7
 31
0.0
  0
ARC
  5
47F
100
AcDbEntity
  8
LAY-3
  6
CONTINUOUS
 62
     3
100
AcDbCircle
 10
266.9
 20
171.7
 30
0.0
 40
4.5
100
AcDbArc
 50
90.0
 51
156.421822
  0
LINE
  5
480
100
AcDbEntity
  8
LAY-3
  6
CONTINUOUS
 62
     3
100
AcDbLine
 10
249.4
 20
164.58
 30
0.0
 11
232.4
 21
164.58
 31
0.0
  0
ARC
  5
481
100
AcDbEntity
  8
LAY-3
  6
CONTINUOUS
 62
     3
100
AcDbCircle
 10
260.026136
 20
174.7
 30
0.0
 40
3.0
100
AcDbArc
 50
270.0
 51
336.421822
  0
ARC
  5
482
100
AcDbEntity
  8
LAY-3
  6
CONTINUOUS
 62
     3
100
AcDbCircle
 10
256.52
 20
164.58
 30
0.0
 40
7.12
100
AcDbArc
 50
90.0
 51
180.0
  0
ARC
  5
483
100
AcDbEntity
  8
LAY-3
  6
CONTINUOUS
 62
     3
100
AcDbCircle
 10
273.773864
 20
174.7
 30
0.0
 40
3.0
100
AcDbArc
 50
203.578178
 51
270.0
  0
ARC
  5
484
100
AcDbEntity
  8
LAY-3
  6
CONTINUOUS
 62
     3
100
AcDbCircle
 10
266.9
 20
171.7
 30
0.0
 40
4.5
100
AcDbArc
 50
23.578178
 51
90.0
  0
LINE
  5
485
100
AcDbEntity
  8
LAY-3
  6
CONTINUOUS
 62
     3
100
AcDbLine
 10
275.28
 20
171.7
 30
0.0
 11
274.727908
 21
171.7
 31
0.0
  0
ARC
  5
486
100
AcDbEntity
  8
LAY-3
  6
CONTINUOUS
 62
     3
100
AcDbCircle
 10
282.4
 20
171.7
 30
0.0
 40
4.5
100
AcDbArc
 50
23.578178
 51
90.0
  0
ARC
  5
487
100
AcDbEntity
  8
LAY-3
  6
CONTINUOUS
 62
     3
100
AcDbCircle
 10
282.4
 20
171.7
 30
0.0
 40
4.5
100
AcDbArc
 50
90.0
 51
156.421822
  0
LINE
  5
488
100
AcDbEntity
  8
LAY-3
  6
CONTINUOUS
 62
     3
100
AcDbLine
 10
291.026136
 20
171.7
 30
0.0
 11
289.273864
 21
171.7
 31
0.0
  0
ARC
  5
489
100
AcDbEntity
  8
LAY-3
  6
CONTINUOUS
 62
     3
100
AcDbCircle
 10
289.273864
 20
174.7
 30
0.0
 40
3.0
100
AcDbArc
 50
203.578178
 51
270.0
  0
ARC
  5
48A
100
AcDbEntity
  8
LAY-3
  6
CONTINUOUS
 62
     3
100
AcDbCircle
 10
282.4
 20
171.7
 30
0.0
 40
4.5
100
AcDbArc
 50
23.578178
 51
90.0
  0
ARC
  5
48B
100
AcDbEntity
  8
LAY-3
  6
CONTINUOUS
 62
     3
100
AcDbCircle
 10
275.526136
 20
174.7
 30
0.0
 40
3.0
100
AcDbArc
 50
270.0
 51
336.421822
  0
ARC
  5
48C
100
AcDbEntity
  8
LAY-3
  6
CONTINUOUS
 62
     3
100
AcDbCircle
 10
282.4
 20
171.7
 30
0.0
 40
4.5
100
AcDbArc
 50
90.0
 51
156.421822
  0
LINE
  5
48D
100
AcDbEntity
  8
LAY-3
  6
CONTINUOUS
 62
     3
100
AcDbLine
 10
273.773864
 20
171.7
 30
0.0
 11
275.526136
 21
171.7
 31
0.0
  0
ARC
  5
48E
100
AcDbEntity
  8
LAY-3
  6
CONTINUOUS
 62
     3
100
AcDbCircle
 10
304.773864
 20
174.7
 30
0.0
 40
3.0
100
AcDbArc
 50
203.578178
 51
270.0
  0
ARC
  5
48F
100
AcDbEntity
  8
LAY-3
  6
CONTINUOUS
 62
     3
100
AcDbCircle
 10
297.9
 20
171.7
 30
0.0
 40
4.5
100
AcDbArc
 50
23.578178
 51
90.0
  0
ARC
  5
490
100
AcDbEntity
  8
LAY-3
  6
CONTINUOUS
 62
     3
100
AcDbCircle
 10
291.026136
 20
174.7
 30
0.0
 40
3.0
100
AcDbArc
 50
270.0
 51
336.421822
  0
ARC
  5
491
100
AcDbEntity
  8
LAY-3
  6
CONTINUOUS
 62
     3
100
AcDbCircle
 10
297.9
 20
171.7
 30
0.0
 40
4.5
100
AcDbArc
 50
90.0
 51
156.421822
  0
ARC
  5
492
100
AcDbEntity
  8
LAY-3
  6
CONTINUOUS
 62
     3
100
AcDbCircle
 10
256.52
 20
49.82
 30
0.0
 40
7.12
100
AcDbArc
 50
180.0
 51
270.0
  0
ARC
  5
493
100
AcDbEntity
  8
LAY-3
  6
CONTINUOUS
 62
     3
100
AcDbCircle
 10
282.4
 20
42.7
 30
0.0
 40
4.5
100
AcDbArc
 50
270.0
 51
336.421822
  0
ARC
  5
494
100
AcDbEntity
  8
LAY-3
  6
CONTINUOUS
 62
     3
100
AcDbCircle
 10
282.4
 20
42.7
 30
0.0
 40
4.5
100
AcDbArc
 50
203.578178
 51
270.0
  0
ARC
  5
495
100
AcDbEntity
  8
LAY-3
  6
CONTINUOUS
 62
     3
100
AcDbCircle
 10
289.273864
 20
39.7
 30
0.0
 40
3.0
100
AcDbArc
 50
90.0
 51
156.421822
  0
ARC
  5
496
100
AcDbEntity
  8
LAY-3
  6
CONTINUOUS
 62
     3
100
AcDbCircle
 10
282.4
 20
42.7
 30
0.0
 40
4.5
100
AcDbArc
 50
270.0
 51
336.421822
  0
ARC
  5
497
100
AcDbEntity
  8
LAY-3
  6
CONTINUOUS
 62
     3
100
AcDbCircle
 10
275.526136
 20
39.7
 30
0.0
 40
3.0
100
AcDbArc
 50
23.578178
 51
90.0
  0
ARC
  5
498
100
AcDbEntity
  8
LAY-3
  6
CONTINUOUS
 62
     3
100
AcDbCircle
 10
282.4
 20
42.7
 30
0.0
 40
4.5
100
AcDbArc
 50
203.578178
 51
270.0
  0
ARC
  5
499
100
AcDbEntity
  8
LAY-3
  6
CONTINUOUS
 62
     3
100
AcDbCircle
 10
260.026136
 20
39.7
 30
0.0
 40
3.0
100
AcDbArc
 50
23.578178
 51
90.0
  0
ARC
  5
49A
100
AcDbEntity
  8
LAY-3
  6
CONTINUOUS
 62
     3
100
AcDbCircle
 10
266.9
 20
42.7
 30
0.0
 40
4.5
100
AcDbArc
 50
203.578178
 51
270.0
  0
ARC
  5
49B
100
AcDbEntity
  8
LAY-3
  6
CONTINUOUS
 62
     3
100
AcDbCircle
 10
273.773864
 20
39.7
 30
0.0
 40
3.0
100
AcDbArc
 50
90.0
 51
156.421822
  0
ARC
  5
49C
100
AcDbEntity
  8
LAY-3
  6
CONTINUOUS
 62
     3
100
AcDbCircle
 10
266.9
 20
42.7
 30
0.0
 40
4.5
100
AcDbArc
 50
270.0
 51
336.421822
  0
LINE
  5
49D
100
AcDbEntity
  8
LAY-3
  6
CONTINUOUS
 62
     3
100
AcDbLine
 10
275.28
 20
42.7
 30
0.0
 11
274.727908
 21
42.7
 31
0.0
  0
LINE
  5
49E
100
AcDbEntity
  8
LAY-3
  6
CONTINUOUS
 62
     3
100
AcDbLine
 10
273.773864
 20
42.7
 30
0.0
 11
275.526136
 21
42.7
 31
0.0
  0
LINE
  5
49F
100
AcDbEntity
  8
LAY-3
  6
CONTINUOUS
 62
     3
100
AcDbLine
 10
256.52
 20
42.7
 30
0.0
 11
260.026136
 21
42.7
 31
0.0
  0
ARC
  5
4A0
100
AcDbEntity
  8
LAY-3
  6
CONTINUOUS
 62
     3
100
AcDbCircle
 10
304.773864
 20
39.7
 30
0.0
 40
3.0
100
AcDbArc
 50
90.0
 51
156.421822
  0
ARC
  5
4A1
100
AcDbEntity
  8
LAY-3
  6
CONTINUOUS
 62
     3
100
AcDbCircle
 10
297.9
 20
42.7
 30
0.0
 40
4.5
100
AcDbArc
 50
270.0
 51
336.421822
  0
ARC
  5
4A2
100
AcDbEntity
  8
LAY-3
  6
CONTINUOUS
 62
     3
100
AcDbCircle
 10
291.026136
 20
39.7
 30
0.0
 40
3.0
100
AcDbArc
 50
23.578178
 51
90.0
  0
ARC
  5
4A3
100
AcDbEntity
  8
LAY-3
  6
CONTINUOUS
 62
     3
100
AcDbCircle
 10
297.9
 20
42.7
 30
0.0
 40
4.5
100
AcDbArc
 50
203.578178
 51
270.0
  0
LINE
  5
4A4
100
AcDbEntity
  8
LAY-3
  6
CONTINUOUS
 62
     3
100
AcDbLine
 10
291.026136
 20
42.7
 30
0.0
 11
289.273864
 21
42.7
 31
0.0
  0
LINE
  5
4A5
100
AcDbEntity
  8
LAY-3
  6
CONTINUOUS
 62
     3
100
AcDbLine
 10
249.4
 20
49.82
 30
0.0
 11
232.4
 21
49.82
 31
0.0
  0
LINE
  5
4A6
100
AcDbEntity
  8
LAY-3
  6
CONTINUOUS
 62
     3
100
AcDbLine
 10
315.4
 20
164.58
 30
0.0
 11
332.4
 21
164.58
 31
0.0
  0
ARC
  5
4A7
100
AcDbEntity
  8
LAY-3
  6
CONTINUOUS
 62
     3
100
AcDbCircle
 10
308.28
 20
164.58
 30
0.0
 40
7.12
100
AcDbArc
 50
0.0
 51
90.0
  0
LINE
  5
4A8
100
AcDbEntity
  8
LAY-3
  6
CONTINUOUS
 62
     3
100
AcDbLine
 10
315.4
 20
164.58
 30
0.0
 11
315.4
 21
107.2
 31
0.0
  0
ARC
  5
4A9
100
AcDbEntity
  8
LAY-3
  6
CONTINUOUS
 62
     3
100
AcDbCircle
 10
308.28
 20
49.82
 30
0.0
 40
7.12
100
AcDbArc
 50
270.0
 51
0.0
  0
LINE
  5
4AA
100
AcDbEntity
  8
LAY-3
  6
CONTINUOUS
 62
     3
100
AcDbLine
 10
315.4
 20
49.82
 30
0.0
 11
332.4
 21
49.82
 31
0.0
  0
LINE
  5
4AB
100
AcDbEntity
  8
LAY-3
  6
CONTINUOUS
 62
     3
100
AcDbLine
 10
315.4
 20
49.82
 30
0.0
 11
315.4
 21
107.2
 31
0.0
  0
LINE
  5
4AC
100
AcDbEntity
  8
LAY-3
  6
CONTINUOUS
 62
     3
100
AcDbLine
 10
332.4
 20
164.58
 30
0.0
 11
332.4
 21
49.82
 31
0.0
  0
ARC
  5
4AD
100
AcDbEntity
  8
LAY-3
  6
CONTINUOUS
 62
     3
100
AcDbCircle
 10
304.773864
 20
174.7
 30
0.0
 40
3.0
100
AcDbArc
 50
203.578178
 51
270.0
  0
LINE
  5
4AE
100
AcDbEntity
  8
LAY-3
  6
CONTINUOUS
 62
     3
100
AcDbLine
 10
308.28
 20
171.7
 30
0.0
 11
304.773864
 21
171.7
 31
0.0
  0
ARC
  5
4AF
100
AcDbEntity
  8
LAY-3
  6
CONTINUOUS
 62
     3
100
AcDbCircle
 10
304.773864
 20
39.7
 30
0.0
 40
3.0
100
AcDbArc
 50
90.0
 51
156.421822
  0
LINE
  5
4B0
100
AcDbEntity
  8
LAY-3
  6
CONTINUOUS
 62
     3
100
AcDbLine
 10
308.28
 20
42.7
 30
0.0
 11
304.773864
 21
42.7
 31
0.0
  0
ARC
  5
4B1
100
AcDbEntity
  8
LAY-3
  6
CONTINUOUS
 62
     3
100
AcDbCircle
 10
433.972092
 20
177.9
 30
0.0
 40
4.5
100
AcDbArc
 50
23.578178
 51
90.0
  0
ARC
  5
4B2
100
AcDbEntity
  8
LAY-3
  6
CONTINUOUS
 62
     3
100
AcDbCircle
 10
433.972092
 20
177.9
 30
0.0
 40
4.5
100
AcDbArc
 50
90.0
 51
156.421822
  0
ARC
  5
4B3
100
AcDbEntity
  8
LAY-3
  6
CONTINUOUS
 62
     3
100
AcDbCircle
 10
440.845955
 20
180.9
 30
0.0
 40
3.0
100
AcDbArc
 50
203.578178
 51
270.0
  0
ARC
  5
4B4
100
AcDbEntity
  8
LAY-3
  6
CONTINUOUS
 62
     3
100
AcDbCircle
 10
433.972092
 20
177.9
 30
0.0
 40
4.5
100
AcDbArc
 50
23.578178
 51
90.0
  0
ARC
  5
4B5
100
AcDbEntity
  8
LAY-3
  6
CONTINUOUS
 62
     3
100
AcDbCircle
 10
427.098228
 20
180.9
 30
0.0
 40
3.0
100
AcDbArc
 50
270.0
 51
336.421822
  0
ARC
  5
4B6
100
AcDbEntity
  8
LAY-3
  6
CONTINUOUS
 62
     3
100
AcDbCircle
 10
433.972092
 20
177.9
 30
0.0
 40
4.5
100
AcDbArc
 50
90.0
 51
156.421822
  0
ARC
  5
4B7
100
AcDbEntity
  8
LAY-3
  6
CONTINUOUS
 62
     3
100
AcDbCircle
 10
411.598228
 20
180.9
 30
0.0
 40
3.0
100
AcDbArc
 50
270.0
 51
336.421822
  0
ARC
  5
4B8
100
AcDbEntity
  8
LAY-3
  6
CONTINUOUS
 62
     3
100
AcDbCircle
 10
418.472092
 20
177.9
 30
0.0
 40
4.5
100
AcDbArc
 50
90.0
 51
156.421822
  0
ARC
  5
4B9
100
AcDbEntity
  8
LAY-3
  6
CONTINUOUS
 62
     3
100
AcDbCircle
 10
425.345955
 20
180.9
 30
0.0
 40
3.0
100
AcDbArc
 50
203.578178
 51
270.0
  0
ARC
  5
4BA
100
AcDbEntity
  8
LAY-3
  6
CONTINUOUS
 62
     3
100
AcDbCircle
 10
418.472092
 20
177.9
 30
0.0
 40
4.5
100
AcDbArc
 50
23.578178
 51
90.0
  0
LINE
  5
4BB
100
AcDbEntity
  8
LAY-3
  6
CONTINUOUS
 62
     3
100
AcDbLine
 10
426.852092
 20
177.9
 30
0.0
 11
426.3
 21
177.9
 31
0.0
  0
LINE
  5
4BC
100
AcDbEntity
  8
LAY-3
  6
CONTINUOUS
 62
     3
100
AcDbLine
 10
425.345955
 20
177.9
 30
0.0
 11
427.098228
 21
177.9
 31
0.0
  0
ARC
  5
4BD
100
AcDbEntity
  8
LAY-3
  6
CONTINUOUS
 62
     3
100
AcDbCircle
 10
456.345955
 20
180.9
 30
0.0
 40
3.0
100
AcDbArc
 50
203.578178
 51
270.0
  0
ARC
  5
4BE
100
AcDbEntity
  8
LAY-3
  6
CONTINUOUS
 62
     3
100
AcDbCircle
 10
449.472092
 20
177.9
 30
0.0
 40
4.5
100
AcDbArc
 50
23.578178
 51
90.0
  0
ARC
  5
4BF
100
AcDbEntity
  8
LAY-3
  6
CONTINUOUS
 62
     3
100
AcDbCircle
 10
442.598228
 20
180.9
 30
0.0
 40
3.0
100
AcDbArc
 50
270.0
 51
336.421822
  0
ARC
  5
4C0
100
AcDbEntity
  8
LAY-3
  6
CONTINUOUS
 62
     3
100
AcDbCircle
 10
449.472092
 20
177.9
 30
0.0
 40
4.5
100
AcDbArc
 50
90.0
 51
156.421822
  0
LINE
  5
4C1
100
AcDbEntity
  8
LAY-3
  6
CONTINUOUS
 62
     3
100
AcDbLine
 10
442.598228
 20
177.9
 30
0.0
 11
440.845955
 21
177.9
 31
0.0
  0
ARC
  5
4C2
100
AcDbEntity
  8
LAY-3
  6
CONTINUOUS
 62
     3
100
AcDbCircle
 10
456.345955
 20
180.9
 30
0.0
 40
3.0
100
AcDbArc
 50
203.578178
 51
270.0
  0
LINE
  5
4C3
100
AcDbEntity
  8
LAY-3
  6
CONTINUOUS
 62
     3
100
AcDbLine
 10
400.972092
 20
170.86
 30
0.0
 11
400.972092
 21
108.4
 31
0.0
  0
LINE
  5
4C4
100
AcDbEntity
  8
LAY-3
  6
CONTINUOUS
 62
     3
100
AcDbLine
 10
411.598228
 20
177.9
 30
0.0
 11
408.012092
 21
177.9
 31
0.0
  0
LINE
  5
4C5
100
AcDbEntity
  8
LAY-3
  6
CONTINUOUS
 62
     3
100
AcDbLine
 10
400.972092
 20
45.94
 30
0.0
 11
400.972092
 21
108.4
 31
0.0
  0
LINE
  5
4C6
100
AcDbEntity
  8
LAY-3
  6
CONTINUOUS
 62
     3
100
AcDbLine
 10
383.972092
 20
170.86
 30
0.0
 11
383.972092
 21
45.94
 31
0.0
  0
LINE
  5
4C7
100
AcDbEntity
  8
LAY-3
  6
CONTINUOUS
 62
     3
100
AcDbLine
 10
407.792092
 20
38.9
 30
0.0
 11
407.792092
 21
177.9
 31
0.0
  0
LINE
  5
4C8
100
AcDbEntity
  8
LAY-3
  6
CONTINUOUS
 62
     3
100
AcDbLine
 10
459.852092
 20
177.9
 30
0.0
 11
456.345955
 21
177.9
 31
0.0
  0
LINE
  5
4C9
100
AcDbEntity
  8
LAY-3
  6
CONTINUOUS
 62
     3
100
AcDbLine
 10
400.972092
 20
170.86
 30
0.0
 11
383.972092
 21
170.86
 31
0.0
  0
ARC
  5
4CA
100
AcDbEntity
  8
LAY-3
  6
CONTINUOUS
 62
     3
100
AcDbCircle
 10
408.012092
 20
170.86
 30
0.0
 40
7.04
100
AcDbArc
 50
90.0
 51
180.0
  0
LINE
  5
4CB
100
AcDbEntity
  8
LAY-3
  6
CONTINUOUS
 62
     3
100
AcDbLine
 10
400.972092
 20
45.94
 30
0.0
 11
383.972092
 21
45.94
 31
0.0
  0
LINE
  5
4CC
100
AcDbEntity
  8
LAY-3
  6
CONTINUOUS
 62
     3
100
AcDbLine
 10
400.972092
 20
45.94
 30
0.0
 11
383.972092
 21
45.94
 31
0.0
  0
ARC
  5
4CD
100
AcDbEntity
  8
LAY-3
  6
CONTINUOUS
 62
     3
100
AcDbCircle
 10
433.972092
 20
38.9
 30
0.0
 40
4.5
100
AcDbArc
 50
270.0
 51
336.421822
  0
ARC
  5
4CE
100
AcDbEntity
  8
LAY-3
  6
CONTINUOUS
 62
     3
100
AcDbCircle
 10
433.972092
 20
38.9
 30
0.0
 40
4.5
100
AcDbArc
 50
203.578178
 51
270.0
  0
ARC
  5
4CF
100
AcDbEntity
  8
LAY-3
  6
CONTINUOUS
 62
     3
100
AcDbCircle
 10
440.845955
 20
35.9
 30
0.0
 40
3.0
100
AcDbArc
 50
90.0
 51
156.421822
  0
ARC
  5
4D0
100
AcDbEntity
  8
LAY-3
  6
CONTINUOUS
 62
     3
100
AcDbCircle
 10
433.972092
 20
38.9
 30
0.0
 40
4.5
100
AcDbArc
 50
270.0
 51
336.421822
  0
ARC
  5
4D1
100
AcDbEntity
  8
LAY-3
  6
CONTINUOUS
 62
     3
100
AcDbCircle
 10
427.098228
 20
35.9
 30
0.0
 40
3.0
100
AcDbArc
 50
23.578178
 51
90.0
  0
ARC
  5
4D2
100
AcDbEntity
  8
LAY-3
  6
CONTINUOUS
 62
     3
100
AcDbCircle
 10
433.972092
 20
38.9
 30
0.0
 40
4.5
100
AcDbArc
 50
203.578178
 51
270.0
  0
ARC
  5
4D3
100
AcDbEntity
  8
LAY-3
  6
CONTINUOUS
 62
     3
100
AcDbCircle
 10
411.598228
 20
35.9
 30
0.0
 40
3.0
100
AcDbArc
 50
23.578178
 51
90.0
  0
ARC
  5
4D4
100
AcDbEntity
  8
LAY-3
  6
CONTINUOUS
 62
     3
100
AcDbCircle
 10
418.472092
 20
38.9
 30
0.0
 40
4.5
100
AcDbArc
 50
203.578178
 51
270.0
  0
ARC
  5
4D5
100
AcDbEntity
  8
LAY-3
  6
CONTINUOUS
 62
     3
100
AcDbCircle
 10
425.345955
 20
35.9
 30
0.0
 40
3.0
100
AcDbArc
 50
90.0
 51
156.421822
  0
ARC
  5
4D6
100
AcDbEntity
  8
LAY-3
  6
CONTINUOUS
 62
     3
100
AcDbCircle
 10
418.472092
 20
38.9
 30
0.0
 40
4.5
100
AcDbArc
 50
270.0
 51
336.421822
  0
LINE
  5
4D7
100
AcDbEntity
  8
LAY-3
  6
CONTINUOUS
 62
     3
100
AcDbLine
 10
426.852092
 20
38.9
 30
0.0
 11
426.3
 21
38.9
 31
0.0
  0
LINE
  5
4D8
100
AcDbEntity
  8
LAY-3
  6
CONTINUOUS
 62
     3
100
AcDbLine
 10
425.345955
 20
38.9
 30
0.0
 11
427.098228
 21
38.9
 31
0.0
  0
ARC
  5
4D9
100
AcDbEntity
  8
LAY-3
  6
CONTINUOUS
 62
     3
100
AcDbCircle
 10
456.345955
 20
35.9
 30
0.0
 40
3.0
100
AcDbArc
 50
90.0
 51
156.421822
  0
ARC
  5
4DA
100
AcDbEntity
  8
LAY-3
  6
CONTINUOUS
 62
     3
100
AcDbCircle
 10
449.472092
 20
38.9
 30
0.0
 40
4.5
100
AcDbArc
 50
270.0
 51
336.421822
  0
ARC
  5
4DB
100
AcDbEntity
  8
LAY-3
  6
CONTINUOUS
 62
     3
100
AcDbCircle
 10
442.598228
 20
35.9
 30
0.0
 40
3.0
100
AcDbArc
 50
23.578178
 51
90.0
  0
ARC
  5
4DC
100
AcDbEntity
  8
LAY-3
  6
CONTINUOUS
 62
     3
100
AcDbCircle
 10
449.472092
 20
38.9
 30
0.0
 40
4.5
100
AcDbArc
 50
203.578178
 51
270.0
  0
LINE
  5
4DD
100
AcDbEntity
  8
LAY-3
  6
CONTINUOUS
 62
     3
100
AcDbLine
 10
442.598228
 20
38.9
 30
0.0
 11
440.845955
 21
38.9
 31
0.0
  0
ARC
  5
4DE
100
AcDbEntity
  8
LAY-3
  6
CONTINUOUS
 62
     3
100
AcDbCircle
 10
456.345955
 20
35.9
 30
0.0
 40
3.0
100
AcDbArc
 50
90.0
 51
156.421822
  0
LINE
  5
4DF
100
AcDbEntity
  8
LAY-3
  6
CONTINUOUS
 62
     3
100
AcDbLine
 10
459.852092
 20
38.9
 30
0.0
 11
456.345955
 21
38.9
 31
0.0
  0
ARC
  5
4E0
100
AcDbEntity
  8
LAY-3
  6
CONTINUOUS
 62
     3
100
AcDbCircle
 10
408.012092
 20
45.94
 30
0.0
 40
7.04
100
AcDbArc
 50
180.0
 51
270.0
  0
LINE
  5
4E1
100
AcDbEntity
  8
LAY-3
  6
CONTINUOUS
 62
     3
100
AcDbLine
 10
411.598228
 20
38.9
 30
0.0
 11
408.012092
 21
38.9
 31
0.0
  0
LINE
  5
4E2
100
AcDbEntity
  8
LAY-3
  6
CONTINUOUS
 62
     3
100
AcDbLine
 10
466.972092
 20
170.86
 30
0.0
 11
483.972092
 21
170.86
 31
0.0
  0
ARC
  5
4E3
100
AcDbEntity
  8
LAY-3
  6
CONTINUOUS
 62
     3
100
AcDbCircle
 10
459.932092
 20
170.86
 30
0.0
 40
7.04
100
AcDbArc
 50
0.0
 51
90.0
  0
LINE
  5
4E4
100
AcDbEntity
  8
LAY-3
  6
CONTINUOUS
 62
     3
100
AcDbLine
 10
466.972092
 20
170.86
 30
0.0
 11
466.972092
 21
108.4
 31
0.0
  0
LINE
  5
4E5
100
AcDbEntity
  8
LAY-3
  6
CONTINUOUS
 62
     3
100
AcDbLine
 10
466.972092
 20
45.94
 30
0.0
 11
483.972092
 21
45.94
 31
0.0
  0
LINE
  5
4E6
100
AcDbEntity
  8
LAY-3
  6
CONTINUOUS
 62
     3
100
AcDbLine
 10
483.972092
 20
170.86
 30
0.0
 11
483.972092
 21
45.94
 31
0.0
  0
LINE
  5
4E7
100
AcDbEntity
  8
LAY-3
  6
CONTINUOUS
 62
     3
100
AcDbLine
 10
466.972092
 20
45.94
 30
0.0
 11
483.972092
 21
45.94
 31
0.0
  0
ARC
  5
4E8
100
AcDbEntity
  8
LAY-3
  6
CONTINUOUS
 62
     3
100
AcDbCircle
 10
459.932092
 20
45.94
 30
0.0
 40
7.04
100
AcDbArc
 50
270.0
 51
0.0
  0
LINE
  5
4E9
100
AcDbEntity
  8
LAY-3
  6
CONTINUOUS
 62
     3
100
AcDbLine
 10
460.152092
 20
38.9
 30
0.0
 11
460.152092
 21
177.9
 31
0.0
  0
LINE
  5
4EA
100
AcDbEntity
  8
LAY-3
  6
CONTINUOUS
 62
     3
100
AcDbLine
 10
466.972092
 20
45.94
 30
0.0
 11
466.972092
 21
108.4
 31
0.0
  0
ARC
  5
4EB
100
AcDbEntity
  8
LAY-3
  6
CONTINUOUS
 62
     3
100
AcDbCircle
 10
597.472092
 20
182.4
 30
0.0
 40
4.5
100
AcDbArc
 50
23.578178
 51
90.0
  0
ARC
  5
4EC
100
AcDbEntity
  8
LAY-3
  6
CONTINUOUS
 62
     3
100
AcDbCircle
 10
597.472092
 20
182.4
 30
0.0
 40
4.5
100
AcDbArc
 50
90.0
 51
156.421822
  0
ARC
  5
4ED
100
AcDbEntity
  8
LAY-3
  6
CONTINUOUS
 62
     3
100
AcDbCircle
 10
604.345955
 20
185.4
 30
0.0
 40
3.0
100
AcDbArc
 50
203.578178
 51
270.0
  0
ARC
  5
4EE
100
AcDbEntity
  8
LAY-3
  6
CONTINUOUS
 62
     3
100
AcDbCircle
 10
597.472092
 20
182.4
 30
0.0
 40
4.5
100
AcDbArc
 50
23.578178
 51
90.0
  0
ARC
  5
4EF
100
AcDbEntity
  8
LAY-3
  6
CONTINUOUS
 62
     3
100
AcDbCircle
 10
590.598228
 20
185.4
 30
0.0
 40
3.0
100
AcDbArc
 50
270.0
 51
336.421822
  0
ARC
  5
4F0
100
AcDbEntity
  8
LAY-3
  6
CONTINUOUS
 62
     3
100
AcDbCircle
 10
597.472092
 20
182.4
 30
0.0
 40
4.5
100
AcDbArc
 50
90.0
 51
156.421822
  0
ARC
  5
4F1
100
AcDbEntity
  8
LAY-3
  6
CONTINUOUS
 62
     3
100
AcDbCircle
 10
575.098228
 20
185.4
 30
0.0
 40
3.0
100
AcDbArc
 50
270.0
 51
336.421822
  0
ARC
  5
4F2
100
AcDbEntity
  8
LAY-3
  6
CONTINUOUS
 62
     3
100
AcDbCircle
 10
581.972092
 20
182.4
 30
0.0
 40
4.5
100
AcDbArc
 50
90.0
 51
156.421822
  0
ARC
  5
4F3
100
AcDbEntity
  8
LAY-3
  6
CONTINUOUS
 62
     3
100
AcDbCircle
 10
588.845955
 20
185.4
 30
0.0
 40
3.0
100
AcDbArc
 50
203.578178
 51
270.0
  0
ARC
  5
4F4
100
AcDbEntity
  8
LAY-3
  6
CONTINUOUS
 62
     3
100
AcDbCircle
 10
581.972092
 20
182.4
 30
0.0
 40
4.5
100
AcDbArc
 50
23.578178
 51
90.0
  0
LINE
  5
4F5
100
AcDbEntity
  8
LAY-3
  6
CONTINUOUS
 62
     3
100
AcDbLine
 10
590.352092
 20
182.4
 30
0.0
 11
589.8
 21
182.4
 31
0.0
  0
LINE
  5
4F6
100
AcDbEntity
  8
LAY-3
  6
CONTINUOUS
 62
     3
100
AcDbLine
 10
588.845955
 20
182.4
 30
0.0
 11
590.598228
 21
182.4
 31
0.0
  0
ARC
  5
4F7
100
AcDbEntity
  8
LAY-3
  6
CONTINUOUS
 62
     3
100
AcDbCircle
 10
619.845955
 20
185.4
 30
0.0
 40
3.0
100
AcDbArc
 50
203.578178
 51
270.0
  0
ARC
  5
4F8
100
AcDbEntity
  8
LAY-3
  6
CONTINUOUS
 62
     3
100
AcDbCircle
 10
612.972092
 20
182.4
 30
0.0
 40
4.5
100
AcDbArc
 50
23.578178
 51
90.0
  0
ARC
  5
4F9
100
AcDbEntity
  8
LAY-3
  6
CONTINUOUS
 62
     3
100
AcDbCircle
 10
606.098228
 20
185.4
 30
0.0
 40
3.0
100
AcDbArc
 50
270.0
 51
336.421822
  0
ARC
  5
4FA
100
AcDbEntity
  8
LAY-3
  6
CONTINUOUS
 62
     3
100
AcDbCircle
 10
612.972092
 20
182.4
 30
0.0
 40
4.5
100
AcDbArc
 50
90.0
 51
156.421822
  0
LINE
  5
4FB
100
AcDbEntity
  8
LAY-3
  6
CONTINUOUS
 62
     3
100
AcDbLine
 10
606.098228
 20
182.4
 30
0.0
 11
604.345955
 21
182.4
 31
0.0
  0
ARC
  5
4FC
100
AcDbEntity
  8
LAY-3
  6
CONTINUOUS
 62
     3
100
AcDbCircle
 10
619.845955
 20
185.4
 30
0.0
 40
3.0
100
AcDbArc
 50
203.578178
 51
270.0
  0
LINE
  5
4FD
100
AcDbEntity
  8
LAY-3
  6
CONTINUOUS
 62
     3
100
AcDbLine
 10
623.352092
 20
182.4
 30
0.0
 11
619.845955
 21
182.4
 31
0.0
  0
LINE
  5
4FE
100
AcDbEntity
  8
LAY-3
  6
CONTINUOUS
 62
     3
100
AcDbLine
 10
564.472092
 20
177.98
 30
0.0
 11
564.472092
 21
107.9
 31
0.0
  0
LINE
  5
4FF
100
AcDbEntity
  8
LAY-3
  6
CONTINUOUS
 62
     3
100
AcDbLine
 10
547.472092
 20
177.98
 30
0.0
 11
547.472092
 21
37.82
 31
0.0
  0
LINE
  5
500
100
AcDbEntity
  8
LAY-3
  6
CONTINUOUS
 62
     3
100
AcDbLine
 10
571.292092
 20
33.4
 30
0.0
 11
571.292092
 21
182.4
 31
0.0
  0
LINE
  5
501
100
AcDbEntity
  8
LAY-3
  6
CONTINUOUS
 62
     3
100
AcDbLine
 10
564.472092
 20
37.82
 30
0.0
 11
564.472092
 21
107.9
 31
0.0
  0
LINE
  5
502
100
AcDbEntity
  8
LAY-3
  6
CONTINUOUS
 62
     3
100
AcDbLine
 10
547.472092
 20
177.98
 30
0.0
 11
564.472092
 21
177.98
 31
0.0
  0
LINE
  5
503
100
AcDbEntity
  8
LAY-3
  6
CONTINUOUS
 62
     3
100
AcDbLine
 10
547.472092
 20
37.82
 30
0.0
 11
564.472092
 21
37.82
 31
0.0
  0
LINE
  5
504
100
AcDbEntity
  8
LAY-3
  6
CONTINUOUS
 62
     3
100
AcDbLine
 10
575.098228
 20
182.4
 30
0.0
 11
568.892092
 21
182.4
 31
0.0
  0
ARC
  5
505
100
AcDbEntity
  8
LAY-3
  6
CONTINUOUS
 62
     3
100
AcDbCircle
 10
568.892092
 20
177.98
 30
0.0
 40
4.42
100
AcDbArc
 50
90.0
 51
180.0
  0
LINE
  5
506
100
AcDbEntity
  8
LAY-3
  6
CONTINUOUS
 62
     3
100
AcDbLine
 10
547.472092
 20
37.82
 30
0.0
 11
564.472092
 21
37.82
 31
0.0
  0
ARC
  5
507
100
AcDbEntity
  8
LAY-3
  6
CONTINUOUS
 62
     3
100
AcDbCircle
 10
597.472092
 20
33.4
 30
0.0
 40
4.5
100
AcDbArc
 50
270.0
 51
336.421822
  0
ARC
  5
508
100
AcDbEntity
  8
LAY-3
  6
CONTINUOUS
 62
     3
100
AcDbCircle
 10
597.472092
 20
33.4
 30
0.0
 40
4.5
100
AcDbArc
 50
203.578178
 51
270.0
  0
ARC
  5
509
100
AcDbEntity
  8
LAY-3
  6
CONTINUOUS
 62
     3
100
AcDbCircle
 10
604.345955
 20
30.4
 30
0.0
 40
3.0
100
AcDbArc
 50
90.0
 51
156.421822
  0
ARC
  5
50A
100
AcDbEntity
  8
LAY-3
  6
CONTINUOUS
 62
     3
100
AcDbCircle
 10
597.472092
 20
33.4
 30
0.0
 40
4.5
100
AcDbArc
 50
270.0
 51
336.421822
  0
ARC
  5
50B
100
AcDbEntity
  8
LAY-3
  6
CONTINUOUS
 62
     3
100
AcDbCircle
 10
590.598228
 20
30.4
 30
0.0
 40
3.0
100
AcDbArc
 50
23.578178
 51
90.0
  0
ARC
  5
50C
100
AcDbEntity
  8
LAY-3
  6
CONTINUOUS
 62
     3
100
AcDbCircle
 10
597.472092
 20
33.4
 30
0.0
 40
4.5
100
AcDbArc
 50
203.578178
 51
270.0
  0
ARC
  5
50D
100
AcDbEntity
  8
LAY-3
  6
CONTINUOUS
 62
     3
100
AcDbCircle
 10
575.098228
 20
30.4
 30
0.0
 40
3.0
100
AcDbArc
 50
23.578178
 51
90.0
  0
ARC
  5
50E
100
AcDbEntity
  8
LAY-3
  6
CONTINUOUS
 62
     3
100
AcDbCircle
 10
581.972092
 20
33.4
 30
0.0
 40
4.5
100
AcDbArc
 50
203.578178
 51
270.0
  0
ARC
  5
50F
100
AcDbEntity
  8
LAY-3
  6
CONTINUOUS
 62
     3
100
AcDbCircle
 10
588.845955
 20
30.4
 30
0.0
 40
3.0
100
AcDbArc
 50
90.0
 51
156.421822
  0
ARC
  5
510
100
AcDbEntity
  8
LAY-3
  6
CONTINUOUS
 62
     3
100
AcDbCircle
 10
581.972092
 20
33.4
 30
0.0
 40
4.5
100
AcDbArc
 50
270.0
 51
336.421822
  0
LINE
  5
511
100
AcDbEntity
  8
LAY-3
  6
CONTINUOUS
 62
     3
100
AcDbLine
 10
590.352092
 20
33.4
 30
0.0
 11
589.8
 21
33.4
 31
0.0
  0
LINE
  5
512
100
AcDbEntity
  8
LAY-3
  6
CONTINUOUS
 62
     3
100
AcDbLine
 10
588.845955
 20
33.4
 30
0.0
 11
590.598228
 21
33.4
 31
0.0
  0
ARC
  5
513
100
AcDbEntity
  8
LAY-3
  6
CONTINUOUS
 62
     3
100
AcDbCircle
 10
619.845955
 20
30.4
 30
0.0
 40
3.0
100
AcDbArc
 50
90.0
 51
156.421822
  0
ARC
  5
514
100
AcDbEntity
  8
LAY-3
  6
CONTINUOUS
 62
     3
100
AcDbCircle
 10
612.972092
 20
33.4
 30
0.0
 40
4.5
100
AcDbArc
 50
270.0
 51
336.421822
  0
ARC
  5
515
100
AcDbEntity
  8
LAY-3
  6
CONTINUOUS
 62
     3
100
AcDbCircle
 10
606.098228
 20
30.4
 30
0.0
 40
3.0
100
AcDbArc
 50
23.578178
 51
90.0
  0
ARC
  5
516
100
AcDbEntity
  8
LAY-3
  6
CONTINUOUS
 62
     3
100
AcDbCircle
 10
612.972092
 20
33.4
 30
0.0
 40
4.5
100
AcDbArc
 50
203.578178
 51
270.0
  0
LINE
  5
517
100
AcDbEntity
  8
LAY-3
  6
CONTINUOUS
 62
     3
100
AcDbLine
 10
606.098228
 20
33.4
 30
0.0
 11
604.345955
 21
33.4
 31
0.0
  0
ARC
  5
518
100
AcDbEntity
  8
LAY-3
  6
CONTINUOUS
 62
     3
100
AcDbCircle
 10
619.845955
 20
30.4
 30
0.0
 40
3.0
100
AcDbArc
 50
90.0
 51
156.421822
  0
LINE
  5
519
100
AcDbEntity
  8
LAY-3
  6
CONTINUOUS
 62
     3
100
AcDbLine
 10
623.352092
 20
33.4
 30
0.0
 11
619.845955
 21
33.4
 31
0.0
  0
ARC
  5
51A
100
AcDbEntity
  8
LAY-3
  6
CONTINUOUS
 62
     3
100
AcDbCircle
 10
568.892092
 20
37.82
 30
0.0
 40
4.42
100
AcDbArc
 50
180.0
 51
270.0
  0
LINE
  5
51B
100
AcDbEntity
  8
LAY-3
  6
CONTINUOUS
 62
     3
100
AcDbLine
 10
575.098228
 20
33.4
 30
0.0
 11
568.892092
 21
33.4
 31
0.0
  0
LINE
  5
51C
100
AcDbEntity
  8
LAY-3
  6
CONTINUOUS
 62
     3
100
AcDbLine
 10
647.472092
 20
177.98
 30
0.0
 11
630.472092
 21
177.98
 31
0.0
  0
LINE
  5
51D
100
AcDbEntity
  8
LAY-3
  6
CONTINUOUS
 62
     3
100
AcDbLine
 10
647.472092
 20
37.82
 30
0.0
 11
630.472092
 21
37.82
 31
0.0
  0
LINE
  5
51E
100
AcDbEntity
  8
LAY-3
  6
CONTINUOUS
 62
     3
100
AcDbLine
 10
647.472092
 20
177.98
 30
0.0
 11
647.472092
 21
37.82
 31
0.0
  0
ARC
  5
51F
100
AcDbEntity
  8
LAY-3
  6
CONTINUOUS
 62
     3
100
AcDbCircle
 10
626.052092
 20
177.98
 30
0.0
 40
4.42
100
AcDbArc
 50
0.0
 51
90.0
  0
LINE
  5
520
100
AcDbEntity
  8
LAY-3
  6
CONTINUOUS
 62
     3
100
AcDbLine
 10
630.472092
 20
177.98
 30
0.0
 11
630.472092
 21
107.9
 31
0.0
  0
LINE
  5
521
100
AcDbEntity
  8
LAY-3
  6
CONTINUOUS
 62
     3
100
AcDbLine
 10
647.472092
 20
37.82
 30
0.0
 11
630.472092
 21
37.82
 31
0.0
  0
ARC
  5
522
100
AcDbEntity
  8
LAY-3
  6
CONTINUOUS
 62
     3
100
AcDbCircle
 10
626.052092
 20
37.82
 30
0.0
 40
4.42
100
AcDbArc
 50
270.0
 51
0.0
  0
LINE
  5
523
100
AcDbEntity
  8
LAY-3
  6
CONTINUOUS
 62
     3
100
AcDbLine
 10
630.472092
 20
37.82
 30
0.0
 11
630.472092
 21
107.9
 31
0.0
  0
LINE
  5
524
100
AcDbEntity
  8
LAY-3
  6
CONTINUOUS
 62
     3
100
AcDbLine
 10
623.652092
 20
33.4
 30
0.0
 11
623.652092
 21
182.4
 31
0.0
  0
ARC
  5
525
100
AcDbEntity
  8
LAY-3
  6
CONTINUOUS
 62
     3
100
AcDbCircle
 10
619.845955
 20
185.4
 30
0.0
 40
3.0
100
AcDbArc
 50
203.578178
 51
270.0
  0
ARC
  5
526
100
AcDbEntity
  8
LAY-3
  6
CONTINUOUS
 62
     3
100
AcDbCircle
 10
626.052092
 20
177.98
 30
0.0
 40
4.42
100
AcDbArc
 50
0.0
 51
90.0
  0
LINE
  5
527
100
AcDbEntity
  8
LAY-3
  6
CONTINUOUS
 62
     3
100
AcDbLine
 10
619.845955
 20
182.4
 30
0.0
 11
626.052092
 21
182.4
 31
0.0
  0
ARC
  5
528
100
AcDbEntity
  8
LAY-3
  6
CONTINUOUS
 62
     3
100
AcDbCircle
 10
619.845955
 20
30.4
 30
0.0
 40
3.0
100
AcDbArc
 50
90.0
 51
156.421822
  0
ARC
  5
529
100
AcDbEntity
  8
LAY-3
  6
CONTINUOUS
 62
     3
100
AcDbCircle
 10
626.052092
 20
37.82
 30
0.0
 40
4.42
100
AcDbArc
 50
270.0
 51
0.0
  0
LINE
  5
52A
100
AcDbEntity
  8
LAY-3
  6
CONTINUOUS
 62
     3
100
AcDbLine
 10
619.845955
 20
33.4
 30
0.0
 11
626.052092
 21
33.4
 31
0.0
  0
ARC
  5
52B
100
AcDbEntity
  8
LAY-3
  6
CONTINUOUS
 62
     3
100
AcDbCircle
 10
619.845955
 20
30.4
 30
0.0
 40
3.0
100
AcDbArc
 50
90.0
 51
156.421822
  0
ARC
  5
52C
100
AcDbEntity
  8
LAY-3
  6
CONTINUOUS
 62
     3
100
AcDbCircle
 10
626.052092
 20
37.82
 30
0.0
 40
4.42
100
AcDbArc
 50
270.0
 51
0.0
  0
LINE
  5
52D
100
AcDbEntity
  8
LAY-3
  6
CONTINUOUS
 62
     3
100
AcDbLine
 10
619.845955
 20
33.4
 30
0.0
 11
626.052092
 21
33.4
 31
0.0
  0
ARC
  5
52E
100
AcDbEntity
  8
LAY-3
  6
CONTINUOUS
 62
     3
100
AcDbCircle
 10
619.845955
 20
30.4
 30
0.0
 40
3.0
100
AcDbArc
 50
90.0
 51
156.421822
  0
ARC
  5
52F
100
AcDbEntity
  8
LAY-3
  6
CONTINUOUS
 62
     3
100
AcDbCircle
 10
626.052092
 20
37.82
 30
0.0
 40
4.42
100
AcDbArc
 50
270.0
 51
0.0
  0
LINE
  5
530
100
AcDbEntity
  8
LAY-3
  6
CONTINUOUS
 62
     3
100
AcDbLine
 10
619.845955
 20
33.4
 30
0.0
 11
626.052092
 21
33.4
 31
0.0
  0
ARC
  5
531
100
AcDbEntity
  8
LAY-3
  6
CONTINUOUS
 62
     3
100
AcDbCircle
 10
619.845955
 20
30.4
 30
0.0
 40
3.0
100
AcDbArc
 50
90.0
 51
156.421822
  0
ARC
  5
532
100
AcDbEntity
  8
LAY-3
  6
CONTINUOUS
 62
     3
100
AcDbCircle
 10
626.052092
 20
37.82
 30
0.0
 40
4.42
100
AcDbArc
 50
270.0
 51
0.0
  0
LINE
  5
533
100
AcDbEntity
  8
LAY-3
  6
CONTINUOUS
 62
     3
100
AcDbLine
 10
619.845955
 20
33.4
 30
0.0
 11
626.052092
 21
33.4
 31
0.0
  0
LINE
  5
534
100
AcDbEntity
  8
LAY-3
  6
CONTINUOUS
 62
     3
100
AcDbLine
 10
702.4
 20
186.1
 30
0.0
 11
702.4
 21
30.7
 31
0.0
  0
ARC
  5
535
100
AcDbEntity
  8
LAY-3
  6
CONTINUOUS
 62
     3
100
AcDbCircle
 10
754.9
 20
188.9
 30
0.0
 40
4.5
100
AcDbArc
 50
23.578178
 51
90.0
  0
ARC
  5
536
100
AcDbEntity
  8
LAY-3
  6
CONTINUOUS
 62
     3
100
AcDbCircle
 10
754.9
 20
188.9
 30
0.0
 40
4.5
100
AcDbArc
 50
90.0
 51
156.421822
  0
ARC
  5
537
100
AcDbEntity
  8
LAY-3
  6
CONTINUOUS
 62
     3
100
AcDbCircle
 10
761.773864
 20
191.9
 30
0.0
 40
3.0
100
AcDbArc
 50
203.578178
 51
270.0
  0
ARC
  5
538
100
AcDbEntity
  8
LAY-3
  6
CONTINUOUS
 62
     3
100
AcDbCircle
 10
754.9
 20
188.9
 30
0.0
 40
4.5
100
AcDbArc
 50
23.578178
 51
90.0
  0
ARC
  5
539
100
AcDbEntity
  8
LAY-3
  6
CONTINUOUS
 62
     3
100
AcDbCircle
 10
748.026136
 20
191.9
 30
0.0
 40
3.0
100
AcDbArc
 50
270.0
 51
336.421822
  0
ARC
  5
53A
100
AcDbEntity
  8
LAY-3
  6
CONTINUOUS
 62
     3
100
AcDbCircle
 10
754.9
 20
188.9
 30
0.0
 40
4.5
100
AcDbArc
 50
90.0
 51
156.421822
  0
ARC
  5
53B
100
AcDbEntity
  8
LAY-3
  6
CONTINUOUS
 62
     3
100
AcDbCircle
 10
731.276136
 20
191.9
 30
0.0
 40
3.0
100
AcDbArc
 50
270.0
 51
336.421822
  0
ARC
  5
53C
100
AcDbEntity
  8
LAY-3
  6
CONTINUOUS
 62
     3
100
AcDbCircle
 10
738.15
 20
188.9
 30
0.0
 40
4.5
100
AcDbArc
 50
90.0
 51
156.421822
  0
ARC
  5
53D
100
AcDbEntity
  8
LAY-3
  6
CONTINUOUS
 62
     3
100
AcDbCircle
 10
745.023864
 20
191.9
 30
0.0
 40
3.0
100
AcDbArc
 50
203.578178
 51
270.0
  0
ARC
  5
53E
100
AcDbEntity
  8
LAY-3
  6
CONTINUOUS
 62
     3
100
AcDbCircle
 10
738.15
 20
188.9
 30
0.0
 40
4.5
100
AcDbArc
 50
23.578178
 51
90.0
  0
LINE
  5
53F
100
AcDbEntity
  8
LAY-3
  6
CONTINUOUS
 62
     3
100
AcDbLine
 10
747.78
 20
188.9
 30
0.0
 11
747.227908
 21
188.9
 31
0.0
  0
LINE
  5
540
100
AcDbEntity
  8
LAY-3
  6
CONTINUOUS
 62
     3
100
AcDbLine
 10
745.023864
 20
188.9
 30
0.0
 11
748.026136
 21
188.9
 31
0.0
  0
ARC
  5
541
100
AcDbEntity
  8
LAY-3
  6
CONTINUOUS
 62
     3
100
AcDbCircle
 10
778.523864
 20
191.9
 30
0.0
 40
3.0
100
AcDbArc
 50
203.578178
 51
270.0
  0
ARC
  5
542
100
AcDbEntity
  8
LAY-3
  6
CONTINUOUS
 62
     3
100
AcDbCircle
 10
771.65
 20
188.9
 30
0.0
 40
4.5
100
AcDbArc
 50
23.578178
 51
90.0
  0
ARC
  5
543
100
AcDbEntity
  8
LAY-3
  6
CONTINUOUS
 62
     3
100
AcDbCircle
 10
764.776136
 20
191.9
 30
0.0
 40
3.0
100
AcDbArc
 50
270.0
 51
336.421822
  0
ARC
  5
544
100
AcDbEntity
  8
LAY-3
  6
CONTINUOUS
 62
     3
100
AcDbCircle
 10
771.65
 20
188.9
 30
0.0
 40
4.5
100
AcDbArc
 50
90.0
 51
156.421822
  0
LINE
  5
545
100
AcDbEntity
  8
LAY-3
  6
CONTINUOUS
 62
     3
100
AcDbLine
 10
764.776136
 20
188.9
 30
0.0
 11
761.773864
 21
188.9
 31
0.0
  0
ARC
  5
546
100
AcDbEntity
  8
LAY-3
  6
CONTINUOUS
 62
     3
100
AcDbCircle
 10
778.523864
 20
191.9
 30
0.0
 40
3.0
100
AcDbArc
 50
203.578178
 51
270.0
  0
LINE
  5
547
100
AcDbEntity
  8
LAY-3
  6
CONTINUOUS
 62
     3
100
AcDbLine
 10
722.2
 20
188.9
 30
0.0
 11
731.276136
 21
188.9
 31
0.0
  0
LINE
  5
548
100
AcDbEntity
  8
LAY-3
  6
CONTINUOUS
 62
     3
100
AcDbLine
 10
719.4
 20
186.1
 30
0.0
 11
719.4
 21
108.4
 31
0.0
  0
LINE
  5
549
100
AcDbEntity
  8
LAY-3
  6
CONTINUOUS
 62
     3
100
AcDbLine
 10
719.4
 20
30.7
 30
0.0
 11
719.4
 21
108.4
 31
0.0
  0
LINE
  5
54A
100
AcDbEntity
  8
LAY-3
  6
CONTINUOUS
 62
     3
100
AcDbLine
 10
722.2
 20
27.9
 30
0.0
 11
722.2
 21
188.9
 31
0.0
  0
ARC
  5
54B
100
AcDbEntity
  8
LAY-3
  6
CONTINUOUS
 62
     3
100
AcDbCircle
 10
778.523864
 20
191.9
 30
0.0
 40
3.0
100
AcDbArc
 50
203.578178
 51
270.0
  0
LINE
  5
54C
100
AcDbEntity
  8
LAY-3
  6
CONTINUOUS
 62
     3
100
AcDbLine
 10
719.4
 20
186.1
 30
0.0
 11
702.4
 21
186.1
 31
0.0
  0
ARC
  5
54D
100
AcDbEntity
  8
LAY-3
  6
CONTINUOUS
 62
     3
100
AcDbCircle
 10
722.2
 20
186.1
 30
0.0
 40
2.8
100
AcDbArc
 50
90.0
 51
180.0
  0
LINE
  5
54E
100
AcDbEntity
  8
LAY-3
  6
CONTINUOUS
 62
     3
100
AcDbLine
 10
719.4
 20
30.7
 30
0.0
 11
702.4
 21
30.7
 31
0.0
  0
LINE
  5
54F
100
AcDbEntity
  8
LAY-3
  6
CONTINUOUS
 62
     3
100
AcDbLine
 10
719.4
 20
30.7
 30
0.0
 11
702.4
 21
30.7
 31
0.0
  0
ARC
  5
550
100
AcDbEntity
  8
LAY-3
  6
CONTINUOUS
 62
     3
100
AcDbCircle
 10
754.9
 20
27.9
 30
0.0
 40
4.5
100
AcDbArc
 50
270.0
 51
336.421822
  0
ARC
  5
551
100
AcDbEntity
  8
LAY-3
  6
CONTINUOUS
 62
     3
100
AcDbCircle
 10
754.9
 20
27.9
 30
0.0
 40
4.5
100
AcDbArc
 50
203.578178
 51
270.0
  0
ARC
  5
552
100
AcDbEntity
  8
LAY-3
  6
CONTINUOUS
 62
     3
100
AcDbCircle
 10
761.773864
 20
24.9
 30
0.0
 40
3.0
100
AcDbArc
 50
90.0
 51
156.421822
  0
ARC
  5
553
100
AcDbEntity
  8
LAY-3
  6
CONTINUOUS
 62
     3
100
AcDbCircle
 10
754.9
 20
27.9
 30
0.0
 40
4.5
100
AcDbArc
 50
270.0
 51
336.421822
  0
ARC
  5
554
100
AcDbEntity
  8
LAY-3
  6
CONTINUOUS
 62
     3
100
AcDbCircle
 10
748.026136
 20
24.9
 30
0.0
 40
3.0
100
AcDbArc
 50
23.578178
 51
90.0
  0
ARC
  5
555
100
AcDbEntity
  8
LAY-3
  6
CONTINUOUS
 62
     3
100
AcDbCircle
 10
754.9
 20
27.9
 30
0.0
 40
4.5
100
AcDbArc
 50
203.578178
 51
270.0
  0
ARC
  5
556
100
AcDbEntity
  8
LAY-3
  6
CONTINUOUS
 62
     3
100
AcDbCircle
 10
731.276136
 20
24.9
 30
0.0
 40
3.0
100
AcDbArc
 50
23.578178
 51
90.0
  0
ARC
  5
557
100
AcDbEntity
  8
LAY-3
  6
CONTINUOUS
 62
     3
100
AcDbCircle
 10
738.15
 20
27.9
 30
0.0
 40
4.5
100
AcDbArc
 50
203.578178
 51
270.0
  0
ARC
  5
558
100
AcDbEntity
  8
LAY-3
  6
CONTINUOUS
 62
     3
100
AcDbCircle
 10
745.023864
 20
24.9
 30
0.0
 40
3.0
100
AcDbArc
 50
90.0
 51
156.421822
  0
ARC
  5
559
100
AcDbEntity
  8
LAY-3
  6
CONTINUOUS
 62
     3
100
AcDbCircle
 10
738.15
 20
27.9
 30
0.0
 40
4.5
100
AcDbArc
 50
270.0
 51
336.421822
  0
LINE
  5
55A
100
AcDbEntity
  8
LAY-3
  6
CONTINUOUS
 62
     3
100
AcDbLine
 10
747.78
 20
27.9
 30
0.0
 11
747.227908
 21
27.9
 31
0.0
  0
LINE
  5
55B
100
AcDbEntity
  8
LAY-3
  6
CONTINUOUS
 62
     3
100
AcDbLine
 10
745.023864
 20
27.9
 30
0.0
 11
748.026136
 21
27.9
 31
0.0
  0
ARC
  5
55C
100
AcDbEntity
  8
LAY-3
  6
CONTINUOUS
 62
     3
100
AcDbCircle
 10
778.523864
 20
24.9
 30
0.0
 40
3.0
100
AcDbArc
 50
90.0
 51
156.421822
  0
ARC
  5
55D
100
AcDbEntity
  8
LAY-3
  6
CONTINUOUS
 62
     3
100
AcDbCircle
 10
771.65
 20
27.9
 30
0.0
 40
4.5
100
AcDbArc
 50
270.0
 51
336.421822
  0
ARC
  5
55E
100
AcDbEntity
  8
LAY-3
  6
CONTINUOUS
 62
     3
100
AcDbCircle
 10
764.776136
 20
24.9
 30
0.0
 40
3.0
100
AcDbArc
 50
23.578178
 51
90.0
  0
ARC
  5
55F
100
AcDbEntity
  8
LAY-3
  6
CONTINUOUS
 62
     3
100
AcDbCircle
 10
771.65
 20
27.9
 30
0.0
 40
4.5
100
AcDbArc
 50
203.578178
 51
270.0
  0
LINE
  5
560
100
AcDbEntity
  8
LAY-3
  6
CONTINUOUS
 62
     3
100
AcDbLine
 10
764.776136
 20
27.9
 30
0.0
 11
761.773864
 21
27.9
 31
0.0
  0
ARC
  5
561
100
AcDbEntity
  8
LAY-3
  6
CONTINUOUS
 62
     3
100
AcDbCircle
 10
778.523864
 20
24.9
 30
0.0
 40
3.0
100
AcDbArc
 50
90.0
 51
156.421822
  0
ARC
  5
562
100
AcDbEntity
  8
LAY-3
  6
CONTINUOUS
 62
     3
100
AcDbCircle
 10
778.523864
 20
24.9
 30
0.0
 40
3.0
100
AcDbArc
 50
90.0
 51
156.421822
  0
ARC
  5
563
100
AcDbEntity
  8
LAY-3
  6
CONTINUOUS
 62
     3
100
AcDbCircle
 10
722.2
 20
30.7
 30
0.0
 40
2.8
100
AcDbArc
 50
180.0
 51
270.0
  0
LINE
  5
564
100
AcDbEntity
  8
LAY-3
  6
CONTINUOUS
 62
     3
100
AcDbLine
 10
722.2
 20
27.9
 30
0.0
 11
731.276136
 21
27.9
 31
0.0
  0
LINE
  5
565
100
AcDbEntity
  8
LAY-3
  6
CONTINUOUS
 62
     3
100
AcDbLine
 10
790.4
 20
186.1
 30
0.0
 11
807.4
 21
186.1
 31
0.0
  0
ARC
  5
566
100
AcDbEntity
  8
LAY-3
  6
CONTINUOUS
 62
     3
100
AcDbCircle
 10
787.6
 20
186.1
 30
0.0
 40
2.8
100
AcDbArc
 50
0.0
 51
90.0
  0
LINE
  5
567
100
AcDbEntity
  8
LAY-3
  6
CONTINUOUS
 62
     3
100
AcDbLine
 10
790.4
 20
186.1
 30
0.0
 11
790.4
 21
108.4
 31
0.0
  0
LINE
  5
568
100
AcDbEntity
  8
LAY-3
  6
CONTINUOUS
 62
     3
100
AcDbLine
 10
790.4
 20
30.7
 30
0.0
 11
807.4
 21
30.7
 31
0.0
  0
LINE
  5
569
100
AcDbEntity
  8
LAY-3
  6
CONTINUOUS
 62
     3
100
AcDbLine
 10
807.4
 20
186.1
 30
0.0
 11
807.4
 21
30.7
 31
0.0
  0
LINE
  5
56A
100
AcDbEntity
  8
LAY-3
  6
CONTINUOUS
 62
     3
100
AcDbLine
 10
790.4
 20
30.7
 30
0.0
 11
790.4
 21
108.4
 31
0.0
  0
LINE
  5
56B
100
AcDbEntity
  8
LAY-3
  6
CONTINUOUS
 62
     3
100
AcDbLine
 10
790.4
 20
30.7
 30
0.0
 11
807.4
 21
30.7
 31
0.0
  0
ARC
  5
56C
100
AcDbEntity
  8
LAY-3
  6
CONTINUOUS
 62
     3
100
AcDbCircle
 10
787.6
 20
30.7
 30
0.0
 40
2.8
100
AcDbArc
 50
270.0
 51
0.0
  0
LINE
  5
56D
100
AcDbEntity
  8
LAY-3
  6
CONTINUOUS
 62
     3
100
AcDbLine
 10
787.6
 20
27.9
 30
0.0
 11
787.6
 21
188.9
 31
0.0
  0
ARC
  5
56E
100
AcDbEntity
  8
LAY-3
  6
CONTINUOUS
 62
     3
100
AcDbCircle
 10
778.523864
 20
191.9
 30
0.0
 40
3.0
100
AcDbArc
 50
203.578178
 51
270.0
  0
ARC
  5
56F
100
AcDbEntity
  8
LAY-3
  6
CONTINUOUS
 62
     3
100
AcDbCircle
 10
771.65
 20
188.9
 30
0.0
 40
4.5
100
AcDbArc
 50
23.578178
 51
90.0
  0
ARC
  5
570
100
AcDbEntity
  8
LAY-3
  6
CONTINUOUS
 62
     3
100
AcDbCircle
 10
787.6
 20
186.1
 30
0.0
 40
2.8
100
AcDbArc
 50
0.0
 51
90.0
  0
LINE
  5
571
100
AcDbEntity
  8
LAY-3
  6
CONTINUOUS
 62
     3
100
AcDbLine
 10
787.6
 20
188.9
 30
0.0
 11
778.523864
 21
188.9
 31
0.0
  0
ARC
  5
572
100
AcDbEntity
  8
LAY-3
  6
CONTINUOUS
 62
     3
100
AcDbCircle
 10
778.523864
 20
24.9
 30
0.0
 40
3.0
100
AcDbArc
 50
90.0
 51
156.421822
  0
ARC
  5
573
100
AcDbEntity
  8
LAY-3
  6
CONTINUOUS
 62
     3
100
AcDbCircle
 10
771.65
 20
27.9
 30
0.0
 40
4.5
100
AcDbArc
 50
270.0
 51
336.421822
  0
ARC
  5
574
100
AcDbEntity
  8
LAY-3
  6
CONTINUOUS
 62
     3
100
AcDbCircle
 10
771.65
 20
27.9
 30
0.0
 40
4.5
100
AcDbArc
 50
203.578178
 51
270.0
  0
ARC
  5
575
100
AcDbEntity
  8
LAY-3
  6
CONTINUOUS
 62
     3
100
AcDbCircle
 10
787.6
 20
30.7
 30
0.0
 40
2.8
100
AcDbArc
 50
270.0
 51
0.0
  0
LINE
  5
576
100
AcDbEntity
  8
LAY-3
  6
CONTINUOUS
 62
     3
100
AcDbLine
 10
787.6
 20
27.9
 30
0.0
 11
778.523864
 21
27.9
 31
0.0
  0
LINE
  5
577
100
AcDbEntity
  8
LAY-3
  6
CONTINUOUS
 62
     2
100
AcDbLine
 10
673.0
 20
400.2
 30
0.0
 11
673.0
 21
10.2
 31
0.0
  0
LINE
  5
578
100
AcDbEntity
  8
LAY-3
  6
CONTINUOUS
 62
     2
100
AcDbLine
 10
517.0
 20
400.2
 30
0.0
 11
517.0
 21
10.2
 31
0.0
  0
LINE
  5
579
100
AcDbEntity
  8
LAY-3
  6
CONTINUOUS
 62
     2
100
AcDbLine
 10
361.0
 20
400.2
 30
0.0
 11
361.0
 21
10.2
 31
0.0
  0
LINE
  5
57A
100
AcDbEntity
  8
LAY-3
  6
CONTINUOUS
 62
     2
100
AcDbLine
 10
205.0
 20
400.2
 30
0.0
 11
205.0
 21
10.2
 31
0.0
  0
LINE
  5
57B
100
AcDbEntity
  8
LAY-3
  6
CONTINUOUS
 62
     3
100
AcDbLine
 10
316.528657
 20
517.321665
 30
0.0
 11
316.528657
 21
509.486296
 31
0.0
  0
LINE
  5
57C
100
AcDbEntity
  8
LAY-3
  6
CONTINUOUS
 62
     3
100
AcDbLine
 10
93.51587
 20
516.334424
 30
0.0
 11
93.51587
 21
510.465576
 31
0.0
  0
LINE
  5
57D
100
AcDbEntity
  8
LAY-3
  6
CONTINUOUS
 62
     3
100
AcDbLine
 10
98.17117
 20
516.334424
 30
0.0
 11
98.17117
 21
510.465576
 31
0.0
  0
LINE
  5
57E
100
AcDbEntity
  8
LAY-3
  6
CONTINUOUS
 62
     3
100
AcDbLine
 10
106.17117
 20
516.334424
 30
0.0
 11
106.17117
 21
510.465576
 31
0.0
  0
LINE
  5
57F
100
AcDbEntity
  8
LAY-3
  6
CONTINUOUS
 62
     3
100
AcDbLine
 10
114.17117
 20
516.334424
 30
0.0
 11
114.17117
 21
510.465576
 31
0.0
  0
LINE
  5
580
100
AcDbEntity
  8
LAY-3
  6
CONTINUOUS
 62
     3
100
AcDbLine
 10
101.51587
 20
516.334424
 30
0.0
 11
101.51587
 21
510.465576
 31
0.0
  0
LINE
  5
581
100
AcDbEntity
  8
LAY-3
  6
CONTINUOUS
 62
     3
100
AcDbLine
 10
109.51587
 20
516.334424
 30
0.0
 11
109.51587
 21
510.465576
 31
0.0
  0
LINE
  5
582
100
AcDbEntity
  8
LAY-3
  6
CONTINUOUS
 62
     3
100
AcDbLine
 10
205.400759
 20
517.266667
 30
0.0
 11
205.400759
 21
509.745963
 31
0.0
  0
LINE
  5
583
100
AcDbEntity
  8
LAY-3
  6
CONTINUOUS
 62
     3
100
AcDbLine
 10
209.171995
 20
517.266667
 30
0.0
 11
209.171995
 21
509.289286
 31
0.0
  0
LINE
  5
584
100
AcDbEntity
  8
LAY-3
  6
CONTINUOUS
 62
     3
100
AcDbLine
 10
217.171995
 20
517.266667
 30
0.0
 11
217.171995
 21
509.289286
 31
0.0
  0
LINE
  5
585
100
AcDbEntity
  8
LAY-3
  6
CONTINUOUS
 62
     3
100
AcDbLine
 10
225.171995
 20
517.266667
 30
0.0
 11
225.171995
 21
509.289286
 31
0.0
  0
LINE
  5
586
100
AcDbEntity
  8
LAY-3
  6
CONTINUOUS
 62
     3
100
AcDbLine
 10
213.400759
 20
517.266667
 30
0.0
 11
213.400759
 21
509.745963
 31
0.0
  0
LINE
  5
587
100
AcDbEntity
  8
LAY-3
  6
CONTINUOUS
 62
     3
100
AcDbLine
 10
221.400759
 20
517.266667
 30
0.0
 11
221.400759
 21
509.745963
 31
0.0
  0
LINE
  5
588
100
AcDbEntity
  8
LAY-3
  6
CONTINUOUS
 62
     3
100
AcDbLine
 10
320.929812
 20
517.321665
 30
0.0
 11
320.929812
 21
509.486296
 31
0.0
  0
LINE
  5
589
100
AcDbEntity
  8
LAY-3
  6
CONTINUOUS
 62
     3
100
AcDbLine
 10
328.929812
 20
517.321665
 30
0.0
 11
328.929812
 21
509.486296
 31
0.0
  0
LINE
  5
58A
100
AcDbEntity
  8
LAY-3
  6
CONTINUOUS
 62
     3
100
AcDbLine
 10
336.929812
 20
517.321665
 30
0.0
 11
336.929812
 21
509.486296
 31
0.0
  0
LINE
  5
58B
100
AcDbEntity
  8
LAY-3
  6
CONTINUOUS
 62
     3
100
AcDbLine
 10
324.528657
 20
517.321665
 30
0.0
 11
324.528657
 21
509.486296
 31
0.0
  0
LINE
  5
58C
100
AcDbEntity
  8
LAY-3
  6
CONTINUOUS
 62
     3
100
AcDbLine
 10
332.528657
 20
517.321665
 30
0.0
 11
332.528657
 21
509.486296
 31
0.0
  0
LINE
  5
58D
100
AcDbEntity
  8
LAY-3
  6
CONTINUOUS
 62
     3
100
AcDbLine
 10
427.954831
 20
518.858498
 30
0.0
 11
427.954831
 21
507.941502
 31
0.0
  0
LINE
  5
58E
100
AcDbEntity
  8
LAY-3
  6
CONTINUOUS
 62
     3
100
AcDbLine
 10
432.389353
 20
518.858498
 30
0.0
 11
432.389353
 21
507.941502
 31
0.0
  0
LINE
  5
58F
100
AcDbEntity
  8
LAY-3
  6
CONTINUOUS
 62
     3
100
AcDbLine
 10
440.389353
 20
518.858498
 30
0.0
 11
440.389353
 21
507.941502
 31
0.0
  0
LINE
  5
590
100
AcDbEntity
  8
LAY-3
  6
CONTINUOUS
 62
     3
100
AcDbLine
 10
448.389353
 20
518.858498
 30
0.0
 11
448.389353
 21
507.941502
 31
0.0
  0
LINE
  5
591
100
AcDbEntity
  8
LAY-3
  6
CONTINUOUS
 62
     3
100
AcDbLine
 10
443.954831
 20
518.858498
 30
0.0
 11
443.954831
 21
507.941502
 31
0.0
  0
LINE
  5
592
100
AcDbEntity
  8
LAY-3
  6
CONTINUOUS
 62
     3
100
AcDbLine
 10
435.954831
 20
518.858498
 30
0.0
 11
435.954831
 21
507.941502
 31
0.0
  0
LINE
  5
593
100
AcDbEntity
  8
LAY-3
  6
CONTINUOUS
 62
     3
100
AcDbLine
 10
539.436941
 20
519.390425
 30
0.0
 11
539.436941
 21
507.409575
 31
0.0
  0
LINE
  5
594
100
AcDbEntity
  8
LAY-3
  6
CONTINUOUS
 62
     3
100
AcDbLine
 10
543.792957
 20
519.390425
 30
0.0
 11
543.792957
 21
507.409575
 31
0.0
  0
LINE
  5
595
100
AcDbEntity
  8
LAY-3
  6
CONTINUOUS
 62
     3
100
AcDbLine
 10
551.792957
 20
519.390425
 30
0.0
 11
551.792957
 21
507.409575
 31
0.0
  0
LINE
  5
596
100
AcDbEntity
  8
LAY-3
  6
CONTINUOUS
 62
     3
100
AcDbLine
 10
559.792957
 20
519.390425
 30
0.0
 11
559.792957
 21
507.409575
 31
0.0
  0
LINE
  5
597
100
AcDbEntity
  8
LAY-3
  6
CONTINUOUS
 62
     3
100
AcDbLine
 10
555.436941
 20
519.390425
 30
0.0
 11
555.436941
 21
507.409575
 31
0.0
  0
LINE
  5
598
100
AcDbEntity
  8
LAY-3
  6
CONTINUOUS
 62
     3
100
AcDbLine
 10
547.436941
 20
519.390425
 30
0.0
 11
547.436941
 21
507.409575
 31
0.0
  0
LINE
  5
599
100
AcDbEntity
  8
LAY-3
  6
CONTINUOUS
 62
     3
100
AcDbLine
 10
651.172188
 20
521.566667
 30
0.0
 11
651.172188
 21
505.233333
 31
0.0
  0
LINE
  5
59A
100
AcDbEntity
  8
LAY-3
  6
CONTINUOUS
 62
     3
100
AcDbLine
 10
654.943424
 20
521.566667
 30
0.0
 11
654.943424
 21
505.233333
 31
0.0
  0
LINE
  5
59B
100
AcDbEntity
  8
LAY-3
  6
CONTINUOUS
 62
     3
100
AcDbLine
 10
662.943424
 20
521.566667
 30
0.0
 11
662.943424
 21
505.233333
 31
0.0
  0
LINE
  5
59C
100
AcDbEntity
  8
LAY-3
  6
CONTINUOUS
 62
     3
100
AcDbLine
 10
670.943424
 20
521.566667
 30
0.0
 11
670.943424
 21
505.233333
 31
0.0
  0
LINE
  5
59D
100
AcDbEntity
  8
LAY-3
  6
CONTINUOUS
 62
     3
100
AcDbLine
 10
659.172188
 20
521.566667
 30
0.0
 11
659.172188
 21
505.233333
 31
0.0
  0
LINE
  5
59E
100
AcDbEntity
  8
LAY-3
  6
CONTINUOUS
 62
     3
100
AcDbLine
 10
667.172188
 20
521.566667
 30
0.0
 11
667.172188
 21
505.233333
 31
0.0
  0
LINE
  5
59F
100
AcDbEntity
  8
LAY-3
  6
CONTINUOUS
 62
     3
100
AcDbLine
 10
762.301013
 20
522.122414
 30
0.0
 11
762.301013
 21
504.677586
 31
0.0
  0
LINE
  5
5A0
100
AcDbEntity
  8
LAY-3
  6
CONTINUOUS
 62
     3
100
AcDbLine
 10
766.609471
 20
522.20563
 30
0.0
 11
766.609471
 21
504.59437
 31
0.0
  0
LINE
  5
5A1
100
AcDbEntity
  8
LAY-3
  6
CONTINUOUS
 62
     3
100
AcDbLine
 10
770.301013
 20
522.122414
 30
0.0
 11
770.301013
 21
504.677586
 31
0.0
  0
LINE
  5
5A2
100
AcDbEntity
  8
LAY-3
  6
CONTINUOUS
 62
     3
100
AcDbLine
 10
778.301013
 20
522.122414
 30
0.0
 11
778.301013
 21
504.677586
 31
0.0
  0
LINE
  5
5A3
100
AcDbEntity
  8
LAY-3
  6
CONTINUOUS
 62
     3
100
AcDbLine
 10
774.609471
 20
522.20563
 30
0.0
 11
774.609471
 21
504.59437
 31
0.0
  0
LINE
  5
5A4
100
AcDbEntity
  8
LAY-3
  6
CONTINUOUS
 62
     3
100
AcDbLine
 10
782.609471
 20
522.20563
 30
0.0
 11
782.609471
 21
504.59437
 31
0.0
  0
LINE
  5
5A5
100
AcDbEntity
  8
LAY-3
  6
CONTINUOUS
 62
     3
100
AcDbLine
 10
752.051565
 20
467.458584
 30
0.0
 11
752.051565
 21
412.541416
 31
0.0
  0
LINE
  5
5A6
100
AcDbEntity
  8
LAY-3
  6
CONTINUOUS
 62
     3
100
AcDbLine
 10
759.749761
 20
467.458584
 30
0.0
 11
759.749761
 21
412.541416
 31
0.0
  0
LINE
  5
5A7
100
AcDbEntity
  8
LAY-3
  6
CONTINUOUS
 62
     3
100
AcDbLine
 10
776.749761
 20
467.458584
 30
0.0
 11
776.749761
 21
412.541416
 31
0.0
  0
LINE
  5
5A8
100
AcDbEntity
  8
LAY-3
  6
CONTINUOUS
 62
     3
100
AcDbLine
 10
793.749761
 20
467.458584
 30
0.0
 11
793.749761
 21
412.541416
 31
0.0
  0
LINE
  5
5A9
100
AcDbEntity
  8
LAY-3
  6
CONTINUOUS
 62
     3
100
AcDbLine
 10
786.051565
 20
467.458584
 30
0.0
 11
786.051565
 21
412.541416
 31
0.0
  0
LINE
  5
5AA
100
AcDbEntity
  8
LAY-3
  6
CONTINUOUS
 62
     3
100
AcDbLine
 10
769.051565
 20
467.458584
 30
0.0
 11
769.051565
 21
412.541416
 31
0.0
  0
LINE
  5
5AB
100
AcDbEntity
  8
LAY-3
  6
CONTINUOUS
 62
     3
100
AcDbLine
 10
641.197412
 20
464.272727
 30
0.0
 11
641.197412
 21
415.727273
 31
0.0
  0
LINE
  5
5AC
100
AcDbEntity
  8
LAY-3
  6
CONTINUOUS
 62
     3
100
AcDbLine
 10
647.718199
 20
464.272727
 30
0.0
 11
647.718199
 21
415.727273
 31
0.0
  0
LINE
  5
5AD
100
AcDbEntity
  8
LAY-3
  6
CONTINUOUS
 62
     3
100
AcDbLine
 10
664.718199
 20
464.272727
 30
0.0
 11
664.718199
 21
415.727273
 31
0.0
  0
LINE
  5
5AE
100
AcDbEntity
  8
LAY-3
  6
CONTINUOUS
 62
     3
100
AcDbLine
 10
681.718199
 20
464.272727
 30
0.0
 11
681.718199
 21
415.727273
 31
0.0
  0
LINE
  5
5AF
100
AcDbEntity
  8
LAY-3
  6
CONTINUOUS
 62
     3
100
AcDbLine
 10
675.197412
 20
464.272727
 30
0.0
 11
675.197412
 21
415.727273
 31
0.0
  0
LINE
  5
5B0
100
AcDbEntity
  8
LAY-3
  6
CONTINUOUS
 62
     3
100
AcDbLine
 10
658.197412
 20
464.272727
 30
0.0
 11
658.197412
 21
415.727273
 31
0.0
  0
LINE
  5
5B1
100
AcDbEntity
  8
LAY-3
  6
CONTINUOUS
 62
     3
100
AcDbLine
 10
529.254555
 20
461.772727
 30
0.0
 11
529.254555
 21
418.227273
 31
0.0
  0
LINE
  5
5B2
100
AcDbEntity
  8
LAY-3
  6
CONTINUOUS
 62
     3
100
AcDbLine
 10
535.775342
 20
461.772727
 30
0.0
 11
535.775342
 21
418.227273
 31
0.0
  0
LINE
  5
5B3
100
AcDbEntity
  8
LAY-3
  6
CONTINUOUS
 62
     3
100
AcDbLine
 10
553.275342
 20
461.772727
 30
0.0
 11
553.275342
 21
418.227273
 31
0.0
  0
LINE
  5
5B4
100
AcDbEntity
  8
LAY-3
  6
CONTINUOUS
 62
     3
100
AcDbLine
 10
570.775342
 20
461.772727
 30
0.0
 11
570.775342
 21
418.227273
 31
0.0
  0
LINE
  5
5B5
100
AcDbEntity
  8
LAY-3
  6
CONTINUOUS
 62
     3
100
AcDbLine
 10
546.754555
 20
461.772727
 30
0.0
 11
546.754555
 21
418.227273
 31
0.0
  0
LINE
  5
5B6
100
AcDbEntity
  8
LAY-3
  6
CONTINUOUS
 62
     3
100
AcDbLine
 10
564.254555
 20
461.772727
 30
0.0
 11
564.254555
 21
418.227273
 31
0.0
  0
LINE
  5
5B7
100
AcDbEntity
  8
LAY-3
  6
CONTINUOUS
 62
     3
100
AcDbLine
 10
425.067354
 20
457.75
 30
0.0
 11
425.067354
 21
422.25
 31
0.0
  0
LINE
  5
5B8
100
AcDbEntity
  8
LAY-3
  6
CONTINUOUS
 62
     3
100
AcDbLine
 10
430.876829
 20
457.75
 30
0.0
 11
430.876829
 21
422.25
 31
0.0
  0
LINE
  5
5B9
100
AcDbEntity
  8
LAY-3
  6
CONTINUOUS
 62
     3
100
AcDbLine
 10
443.376829
 20
457.75
 30
0.0
 11
443.376829
 21
422.25
 31
0.0
  0
LINE
  5
5BA
100
AcDbEntity
  8
LAY-3
  6
CONTINUOUS
 62
     3
100
AcDbLine
 10
455.876829
 20
457.75
 30
0.0
 11
455.876829
 21
422.25
 31
0.0
  0
LINE
  5
5BB
100
AcDbEntity
  8
LAY-3
  6
CONTINUOUS
 62
     3
100
AcDbLine
 10
437.567354
 20
457.75
 30
0.0
 11
437.567354
 21
422.25
 31
0.0
  0
LINE
  5
5BC
100
AcDbEntity
  8
LAY-3
  6
CONTINUOUS
 62
     3
100
AcDbLine
 10
450.067354
 20
457.75
 30
0.0
 11
450.067354
 21
422.25
 31
0.0
  0
LINE
  5
5BD
100
AcDbEntity
  8
LAY-3
  6
CONTINUOUS
 62
     3
100
AcDbLine
 10
313.624497
 20
455.25
 30
0.0
 11
313.624497
 21
424.75
 31
0.0
  0
LINE
  5
5BE
100
AcDbEntity
  8
LAY-3
  6
CONTINUOUS
 62
     3
100
AcDbLine
 10
319.433972
 20
455.25
 30
0.0
 11
319.433972
 21
424.75
 31
0.0
  0
LINE
  5
5BF
100
AcDbEntity
  8
LAY-3
  6
CONTINUOUS
 62
     3
100
AcDbLine
 10
331.933972
 20
455.25
 30
0.0
 11
331.933972
 21
424.75
 31
0.0
  0
LINE
  5
5C0
100
AcDbEntity
  8
LAY-3
  6
CONTINUOUS
 62
     3
100
AcDbLine
 10
344.433972
 20
455.25
 30
0.0
 11
344.433972
 21
424.75
 31
0.0
  0
LINE
  5
5C1
100
AcDbEntity
  8
LAY-3
  6
CONTINUOUS
 62
     3
100
AcDbLine
 10
326.124497
 20
455.25
 30
0.0
 11
326.124497
 21
424.75
 31
0.0
  0
LINE
  5
5C2
100
AcDbEntity
  8
LAY-3
  6
CONTINUOUS
 62
     3
100
AcDbLine
 10
338.624497
 20
455.25
 30
0.0
 11
338.624497
 21
424.75
 31
0.0
  0
LINE
  5
5C3
100
AcDbEntity
  8
LAY-3
  6
CONTINUOUS
 62
     3
100
AcDbLine
 10
202.18164
 20
452.75
 30
0.0
 11
202.18164
 21
427.25
 31
0.0
  0
LINE
  5
5C4
100
AcDbEntity
  8
LAY-3
  6
CONTINUOUS
 62
     3
100
AcDbLine
 10
207.991115
 20
452.75
 30
0.0
 11
207.991115
 21
427.25
 31
0.0
  0
LINE
  5
5C5
100
AcDbEntity
  8
LAY-3
  6
CONTINUOUS
 62
     3
100
AcDbLine
 10
220.491115
 20
452.75
 30
0.0
 11
220.491115
 21
427.25
 31
0.0
  0
LINE
  5
5C6
100
AcDbEntity
  8
LAY-3
  6
CONTINUOUS
 62
     3
100
AcDbLine
 10
232.991115
 20
452.75
 30
0.0
 11
232.991115
 21
427.25
 31
0.0
  0
LINE
  5
5C7
100
AcDbEntity
  8
LAY-3
  6
CONTINUOUS
 62
     3
100
AcDbLine
 10
227.18164
 20
427.25
 30
0.0
 11
227.18164
 21
452.75
 31
0.0
  0
LINE
  5
5C8
100
AcDbEntity
  8
LAY-3
  6
CONTINUOUS
 62
     3
100
AcDbLine
 10
214.68164
 20
427.25
 30
0.0
 11
214.68164
 21
452.75
 31
0.0
  0
LINE
  5
5C9
100
AcDbEntity
  8
LAY-3
  6
CONTINUOUS
 62
     3
100
AcDbLine
 10
90.842942
 20
450.575528
 30
0.0
 11
90.842942
 21
429.424472
 31
0.0
  0
LINE
  5
5CA
100
AcDbEntity
  8
LAY-3
  6
CONTINUOUS
 62
     3
100
AcDbLine
 10
96.444099
 20
450.575528
 30
0.0
 11
96.444099
 21
429.424472
 31
0.0
  0
LINE
  5
5CB
100
AcDbEntity
  8
LAY-3
  6
CONTINUOUS
 62
     3
100
AcDbLine
 10
108.944099
 20
450.575528
 30
0.0
 11
108.944099
 21
429.424472
 31
0.0
  0
LINE
  5
5CC
100
AcDbEntity
  8
LAY-3
  6
CONTINUOUS
 62
     3
100
AcDbLine
 10
121.444099
 20
450.575528
 30
0.0
 11
121.444099
 21
429.424472
 31
0.0
  0
LINE
  5
5CD
100
AcDbEntity
  8
LAY-3
  6
CONTINUOUS
 62
     3
100
AcDbLine
 10
103.342942
 20
429.424472
 30
0.0
 11
103.342942
 21
450.575528
 31
0.0
  0
LINE
  5
5CE
100
AcDbEntity
  8
LAY-3
  6
CONTINUOUS
 62
     3
100
AcDbLine
 10
115.842942
 20
429.424472
 30
0.0
 11
115.842942
 21
450.575528
 31
0.0
  0
LINE
  5
5CF
100
AcDbEntity
  8
LAY-3
  6
CONTINUOUS
 62
     3
100
AcDbLine
 10
99.969202
 20
336.5
 30
0.0
 11
99.969202
 21
273.9
 31
0.0
  0
LINE
  5
5D0
100
AcDbEntity
  8
LAY-3
  6
CONTINUOUS
 62
     3
100
AcDbLine
 10
108.217838
 20
336.5
 30
0.0
 11
108.217838
 21
273.9
 31
0.0
  0
LINE
  5
5D1
100
AcDbEntity
  8
LAY-3
  6
CONTINUOUS
 62
     3
100
AcDbLine
 10
118.219202
 20
336.5
 30
0.0
 11
118.219202
 21
273.9
 31
0.0
  0
LINE
  5
5D2
100
AcDbEntity
  8
LAY-3
  6
CONTINUOUS
 62
     3
100
AcDbLine
 10
136.469202
 20
336.5
 30
0.0
 11
136.469202
 21
273.9
 31
0.0
  0
LINE
  5
5D3
100
AcDbEntity
  8
LAY-3
  6
CONTINUOUS
 62
     3
100
AcDbLine
 10
126.467838
 20
273.9
 30
0.0
 11
126.467838
 21
336.5
 31
0.0
  0
LINE
  5
5D4
100
AcDbEntity
  8
LAY-3
  6
CONTINUOUS
 62
     3
100
AcDbLine
 10
144.717838
 20
273.9
 30
0.0
 11
144.717838
 21
336.5
 31
0.0
  0
LINE
  5
5D5
100
AcDbEntity
  8
LAY-3
  6
CONTINUOUS
 62
     3
100
AcDbLine
 10
259.531727
 20
340.837687
 30
0.0
 11
259.531727
 21
268.762313
 31
0.0
  0
LINE
  5
5D6
100
AcDbEntity
  8
LAY-3
  6
CONTINUOUS
 62
     3
100
AcDbLine
 10
277.781727
 20
340.837687
 30
0.0
 11
277.781727
 21
268.762313
 31
0.0
  0
LINE
  5
5D7
100
AcDbEntity
  8
LAY-3
  6
CONTINUOUS
 62
     3
100
AcDbLine
 10
296.031727
 20
340.837687
 30
0.0
 11
296.031727
 21
268.762313
 31
0.0
  0
LINE
  5
5D8
100
AcDbEntity
  8
LAY-3
  6
CONTINUOUS
 62
     3
100
AcDbLine
 10
305.241028
 20
268.762313
 30
0.0
 11
305.241028
 21
340.837687
 31
0.0
  0
LINE
  5
5D9
100
AcDbEntity
  8
LAY-3
  6
CONTINUOUS
 62
     3
100
AcDbLine
 10
286.991028
 20
268.762313
 30
0.0
 11
286.991028
 21
340.837687
 31
0.0
  0
LINE
  5
5DA
100
AcDbEntity
  8
LAY-3
  6
CONTINUOUS
 62
     3
100
AcDbLine
 10
268.741028
 20
268.762313
 30
0.0
 11
268.741028
 21
340.837687
 31
0.0
  0
LINE
  5
5DB
100
AcDbEntity
  8
LAY-3
  6
CONTINUOUS
 62
     3
100
AcDbLine
 10
416.725682
 20
347.7
 30
0.0
 11
416.725682
 21
262.1
 31
0.0
  0
LINE
  5
5DC
100
AcDbEntity
  8
LAY-3
  6
CONTINUOUS
 62
     3
100
AcDbLine
 10
434.975682
 20
347.7
 30
0.0
 11
434.975682
 21
262.1
 31
0.0
  0
LINE
  5
5DD
100
AcDbEntity
  8
LAY-3
  6
CONTINUOUS
 62
     3
100
AcDbLine
 10
453.225682
 20
347.7
 30
0.0
 11
453.225682
 21
262.1
 31
0.0
  0
LINE
  5
5DE
100
AcDbEntity
  8
LAY-3
  6
CONTINUOUS
 62
     3
100
AcDbLine
 10
424.974318
 20
262.1
 30
0.0
 11
424.974318
 21
347.7
 31
0.0
  0
LINE
  5
5DF
100
AcDbEntity
  8
LAY-3
  6
CONTINUOUS
 62
     3
100
AcDbLine
 10
443.224318
 20
262.1
 30
0.0
 11
443.224318
 21
347.7
 31
0.0
  0
LINE
  5
5E0
100
AcDbEntity
  8
LAY-3
  6
CONTINUOUS
 62
     3
100
AcDbLine
 10
461.474318
 20
262.1
 30
0.0
 11
461.474318
 21
347.7
 31
0.0
  0
LINE
  5
5E1
100
AcDbEntity
  8
LAY-3
  6
CONTINUOUS
 62
     3
100
AcDbLine
 10
569.80395
 20
352.941176
 30
0.0
 11
569.80395
 21
257.058824
 31
0.0
  0
LINE
  5
5E2
100
AcDbEntity
  8
LAY-3
  6
CONTINUOUS
 62
     3
100
AcDbLine
 10
580.09605
 20
352.941176
 30
0.0
 11
580.09605
 21
257.058824
 31
0.0
  0
LINE
  5
5E3
100
AcDbEntity
  8
LAY-3
  6
CONTINUOUS
 62
     3
100
AcDbLine
 10
588.05395
 20
352.941176
 30
0.0
 11
588.05395
 21
257.058824
 31
0.0
  0
LINE
  5
5E4
100
AcDbEntity
  8
LAY-3
  6
CONTINUOUS
 62
     3
100
AcDbLine
 10
606.30395
 20
352.941176
 30
0.0
 11
606.30395
 21
257.058824
 31
0.0
  0
LINE
  5
5E5
100
AcDbEntity
  8
LAY-3
  6
CONTINUOUS
 62
     3
100
AcDbLine
 10
598.34605
 20
257.058824
 30
0.0
 11
598.34605
 21
352.941176
 31
0.0
  0
LINE
  5
5E6
100
AcDbEntity
  8
LAY-3
  6
CONTINUOUS
 62
     3
100
AcDbLine
 10
616.59605
 20
257.058824
 30
0.0
 11
616.59605
 21
352.941176
 31
0.0
  0
LINE
  5
5E7
100
AcDbEntity
  8
LAY-3
  6
CONTINUOUS
 62
     3
100
AcDbLine
 10
728.35395
 20
358.841176
 30
0.0
 11
728.35395
 21
250.958824
 31
0.0
  0
LINE
  5
5E8
100
AcDbEntity
  8
LAY-3
  6
CONTINUOUS
 62
     3
100
AcDbLine
 10
738.64605
 20
358.841176
 30
0.0
 11
738.64605
 21
250.958824
 31
0.0
  0
LINE
  5
5E9
100
AcDbEntity
  8
LAY-3
  6
CONTINUOUS
 62
     3
100
AcDbLine
 10
758.14605
 20
358.841176
 30
0.0
 11
758.14605
 21
250.958824
 31
0.0
  0
LINE
  5
5EA
100
AcDbEntity
  8
LAY-3
  6
CONTINUOUS
 62
     3
100
AcDbLine
 10
777.64605
 20
358.841176
 30
0.0
 11
777.64605
 21
250.958824
 31
0.0
  0
LINE
  5
5EB
100
AcDbEntity
  8
LAY-3
  6
CONTINUOUS
 62
     3
100
AcDbLine
 10
747.85395
 20
250.958824
 30
0.0
 11
747.85395
 21
358.841176
 31
0.0
  0
LINE
  5
5EC
100
AcDbEntity
  8
LAY-3
  6
CONTINUOUS
 62
     3
100
AcDbLine
 10
767.35395
 20
250.958824
 30
0.0
 11
767.35395
 21
358.841176
 31
0.0
  0
LINE
  5
5ED
100
AcDbEntity
  8
LAY-3
  6
CONTINUOUS
 62
     3
100
AcDbLine
 10
101.15395
 20
167.341176
 30
0.0
 11
101.15395
 21
47.458824
 31
0.0
  0
LINE
  5
5EE
100
AcDbEntity
  8
LAY-3
  6
CONTINUOUS
 62
     3
100
AcDbLine
 10
120.65395
 20
167.341176
 30
0.0
 11
120.65395
 21
47.458824
 31
0.0
  0
LINE
  5
5EF
100
AcDbEntity
  8
LAY-3
  6
CONTINUOUS
 62
     3
100
AcDbLine
 10
140.15395
 20
167.341176
 30
0.0
 11
140.15395
 21
47.458824
 31
0.0
  0
LINE
  5
5F0
100
AcDbEntity
  8
LAY-3
  6
CONTINUOUS
 62
     3
100
AcDbLine
 10
150.44605
 20
47.458824
 30
0.0
 11
150.44605
 21
167.341176
 31
0.0
  0
LINE
  5
5F1
100
AcDbEntity
  8
LAY-3
  6
CONTINUOUS
 62
     3
100
AcDbLine
 10
130.94605
 20
47.458824
 30
0.0
 11
130.94605
 21
167.341176
 31
0.0
  0
LINE
  5
5F2
100
AcDbEntity
  8
LAY-3
  6
CONTINUOUS
 62
     3
100
AcDbLine
 10
111.44605
 20
47.458824
 30
0.0
 11
111.44605
 21
167.341176
 31
0.0
  0
LINE
  5
5F3
100
AcDbEntity
  8
LAY-3
  6
CONTINUOUS
 62
     3
100
AcDbLine
 10
262.775682
 20
173.5
 30
0.0
 11
262.775682
 21
40.9
 31
0.0
  0
LINE
  5
5F4
100
AcDbEntity
  8
LAY-3
  6
CONTINUOUS
 62
     3
100
AcDbLine
 10
271.024318
 20
173.5
 30
0.0
 11
271.024318
 21
40.9
 31
0.0
  0
LINE
  5
5F5
100
AcDbEntity
  8
LAY-3
  6
CONTINUOUS
 62
     3
100
AcDbLine
 10
293.775682
 20
173.5
 30
0.0
 11
293.775682
 21
40.9
 31
0.0
  0
LINE
  5
5F6
100
AcDbEntity
  8
LAY-3
  6
CONTINUOUS
 62
     3
100
AcDbLine
 10
302.024318
 20
173.5
 30
0.0
 11
302.024318
 21
40.9
 31
0.0
  0
LINE
  5
5F7
100
AcDbEntity
  8
LAY-3
  6
CONTINUOUS
 62
     3
100
AcDbLine
 10
309.165171
 20
171.644763
 30
0.0
 11
309.165171
 21
107.2
 31
0.0
  0
LINE
  5
5F8
100
AcDbEntity
  8
LAY-3
  6
CONTINUOUS
 62
     3
100
AcDbLine
 10
309.165171
 20
42.755237
 30
0.0
 11
309.165171
 21
107.2
 31
0.0
  0
LINE
  5
5F9
100
AcDbEntity
  8
LAY-3
  6
CONTINUOUS
 62
     3
100
AcDbLine
 10
286.524318
 20
173.5
 30
0.0
 11
286.524318
 21
40.9
 31
0.0
  0
LINE
  5
5FA
100
AcDbEntity
  8
LAY-3
  6
CONTINUOUS
 62
     3
100
AcDbLine
 10
278.275682
 20
40.9
 30
0.0
 11
278.275682
 21
173.5
 31
0.0
  0
LINE
  5
5FB
100
AcDbEntity
  8
LAY-3
  6
CONTINUOUS
 62
     3
100
AcDbLine
 10
414.347773
 20
179.7
 30
0.0
 11
414.347773
 21
37.1
 31
0.0
  0
LINE
  5
5FC
100
AcDbEntity
  8
LAY-3
  6
CONTINUOUS
 62
     3
100
AcDbLine
 10
422.59641
 20
179.7
 30
0.0
 11
422.59641
 21
37.1
 31
0.0
  0
LINE
  5
5FD
100
AcDbEntity
  8
LAY-3
  6
CONTINUOUS
 62
     3
100
AcDbLine
 10
438.09641
 20
179.7
 30
0.0
 11
438.09641
 21
37.1
 31
0.0
  0
LINE
  5
5FE
100
AcDbEntity
  8
LAY-3
  6
CONTINUOUS
 62
     3
100
AcDbLine
 10
429.847773
 20
37.1
 30
0.0
 11
429.847773
 21
179.7
 31
0.0
  0
LINE
  5
5FF
100
AcDbEntity
  8
LAY-3
  6
CONTINUOUS
 62
     3
100
AcDbLine
 10
453.59641
 20
179.7
 30
0.0
 11
453.59641
 21
37.1
 31
0.0
  0
LINE
  5
600
100
AcDbEntity
  8
LAY-3
  6
CONTINUOUS
 62
     3
100
AcDbLine
 10
445.347773
 20
179.7
 30
0.0
 11
445.347773
 21
37.1
 31
0.0
  0
LINE
  5
601
100
AcDbEntity
  8
LAY-3
  6
CONTINUOUS
 62
     3
100
AcDbLine
 10
577.847773
 20
184.2
 30
0.0
 11
577.847773
 21
31.6
 31
0.0
  0
LINE
  5
602
100
AcDbEntity
  8
LAY-3
  6
CONTINUOUS
 62
     3
100
AcDbLine
 10
593.347773
 20
184.2
 30
0.0
 11
593.347773
 21
31.6
 31
0.0
  0
LINE
  5
603
100
AcDbEntity
  8
LAY-3
  6
CONTINUOUS
 62
     3
100
AcDbLine
 10
586.09641
 20
31.6
 30
0.0
 11
586.09641
 21
184.2
 31
0.0
  0
LINE
  5
604
100
AcDbEntity
  8
LAY-3
  6
CONTINUOUS
 62
     3
100
AcDbLine
 10
601.59641
 20
31.6
 30
0.0
 11
601.59641
 21
184.2
 31
0.0
  0
LINE
  5
605
100
AcDbEntity
  8
LAY-3
  6
CONTINUOUS
 62
     3
100
AcDbLine
 10
608.847773
 20
31.6
 30
0.0
 11
608.847773
 21
184.2
 31
0.0
  0
LINE
  5
606
100
AcDbEntity
  8
LAY-3
  6
CONTINUOUS
 62
     3
100
AcDbLine
 10
617.09641
 20
184.2
 30
0.0
 11
617.09641
 21
31.6
 31
0.0
  0
LINE
  5
607
100
AcDbEntity
  8
LAY-3
  6
CONTINUOUS
 62
     3
100
AcDbLine
 10
734.025682
 20
190.7
 30
0.0
 11
734.025682
 21
26.1
 31
0.0
  0
LINE
  5
608
100
AcDbEntity
  8
LAY-3
  6
CONTINUOUS
 62
     3
100
AcDbLine
 10
750.775682
 20
190.7
 30
0.0
 11
750.775682
 21
26.1
 31
0.0
  0
LINE
  5
609
100
AcDbEntity
  8
LAY-3
  6
CONTINUOUS
 62
     3
100
AcDbLine
 10
767.525682
 20
190.7
 30
0.0
 11
767.525682
 21
26.1
 31
0.0
  0
LINE
  5
60A
100
AcDbEntity
  8
LAY-3
  6
CONTINUOUS
 62
     3
100
AcDbLine
 10
775.774318
 20
26.1
 30
0.0
 11
775.774318
 21
190.7
 31
0.0
  0
LINE
  5
60B
100
AcDbEntity
  8
LAY-3
  6
CONTINUOUS
 62
     3
100
AcDbLine
 10
759.024318
 20
26.1
 30
0.0
 11
759.024318
 21
190.7
 31
0.0
  0
LINE
  5
60C
100
AcDbEntity
  8
LAY-3
  6
CONTINUOUS
 62
     3
100
AcDbLine
 10
742.274318
 20
26.1
 30
0.0
 11
742.274318
 21
190.7
 31
0.0
  0
TEXT
  5
60E
100
AcDbEntity
  8
LAY-3
  6
CONTINUOUS
 62
     1
100
AcDbText
 10
168.350002
 20
-33.4
 30
0.0
 40
11.25
  1
スケールは１／１０となっています。必要に応じてサイズを１０倍して下さい。
 41
0.966667
  7
EXCADTTF1
 72
     5
 11
690.850002
 21
-33.4
 31
0.0
100
AcDbText
  0
TEXT
  5
60F
100
AcDbEntity
  8
LAY-3
  6
CONTINUOUS
 62
     7
100
AcDbText
 10
711.342194
 20
212.5
 30
0.0
 40
5.0
  1
１５００Ａ×１０５０Ｌ（Ｈ：１７０）
 41
0.760667
  7
EXCADSTD
 72
     5
 11
792.842194
 21
212.5
 31
0.0
100
AcDbText
  0
TEXT
  5
610
100
AcDbEntity
  8
LAY-3
  6
CONTINUOUS
 62
     7
100
AcDbText
 10
555.871429
 20
212.4
 30
0.0
 40
5.0
  1
１３５０Ａ×１０００Ｌ（Ｈ：１７０）
 41
0.760667
  7
EXCADSTD
 72
     5
 11
637.371429
 21
212.4
 31
0.0
100
AcDbText
  0
TEXT
  5
611
100
AcDbEntity
  8
LAY-3
  6
CONTINUOUS
 62
     7
100
AcDbText
 10
394.428571
 20
212.5
 30
0.0
 40
5.0
  1
１２００Ａ×１０００Ｌ（Ｈ：１７０）
 41
0.760667
  7
EXCADSTD
 72
     5
 11
475.928571
 21
212.5
 31
0.0
100
AcDbText
  0
TEXT
  5
612
100
AcDbEntity
  8
LAY-3
  6
CONTINUOUS
 62
     7
100
AcDbText
 10
236.713623
 20
211.7
 30
0.0
 40
5.0
  1
１１００Ａ×１０００Ｌ（Ｈ：１７０）
 41
0.760667
  7
EXCADSTD
 72
     5
 11
318.213623
 21
211.7
 31
0.0
100
AcDbText
  0
TEXT
  5
613
100
AcDbEntity
  8
LAY-3
  6
CONTINUOUS
 62
     7
100
AcDbText
 10
88.492194
 20
212.2
 30
0.0
 40
5.0
  1
１０００Ａ×１１００Ｌ（Ｈ：１６０）
 41
0.760667
  7
EXCADSTD
 72
     5
 11
169.992194
 21
212.2
 31
0.0
100
AcDbText
  0
TEXT
  5
614
100
AcDbEntity
  8
LAY-3
  6
CONTINUOUS
 62
     7
100
AcDbText
 10
709.45648
 20
393.1
 30
0.0
 40
5.0
  1
９００Ａ×１１００Ｌ（Ｈ：１６０）
 41
0.760941
  7
EXCADSTD
 72
     5
 11
786.45648
 21
393.1
 31
0.0
100
AcDbText
  0
TEXT
  5
615
100
AcDbEntity
  8
LAY-3
  6
CONTINUOUS
 62
     7
100
AcDbText
 10
557.6
 20
392.6
 30
0.0
 40
5.0
  1
８００Ａ×１０５０Ｌ（Ｈ：１６０）
 41
0.760941
  7
EXCADSTD
 72
     5
 11
634.6
 21
392.6
 31
0.0
100
AcDbText
  0
TEXT
  5
616
100
AcDbEntity
  8
LAY-3
  6
CONTINUOUS
 62
     7
100
AcDbText
 10
404.7
 20
393.9
 30
0.0
 40
5.0
  1
７００Ａ×１０５０Ｌ（Ｈ：１６０）
 41
0.760941
  7
EXCADSTD
 72
     5
 11
481.7
 21
393.9
 31
0.0
100
AcDbText
  0
TEXT
  5
617
100
AcDbEntity
  8
LAY-3
  6
CONTINUOUS
 62
     7
100
AcDbText
 10
242.3
 20
392.8
 30
0.0
 40
5.0
  1
６００Ａ×１０５０Ｌ（Ｈ：１６０）
 41
0.760941
  7
EXCADSTD
 72
     5
 11
319.3
 21
392.8
 31
0.0
100
AcDbText
  0
TEXT
  5
618
100
AcDbEntity
  8
LAY-3
  6
CONTINUOUS
 62
     7
100
AcDbText
 10
86.5
 20
392.1
 30
0.0
 40
5.0
  1
５００Ａ×１０５０Ｌ（Ｈ：１６０）
 41
0.760941
  7
EXCADSTD
 72
     5
 11
163.5
 21
392.1
 31
0.0
100
AcDbText
  0
TEXT
  5
619
100
AcDbEntity
  8
LAY-3
  6
CONTINUOUS
 62
     7
100
AcDbText
 10
739.514286
 20
482.7
 30
0.0
 40
5.0
  1
４５０Ａ×１０００Ｌ（Ｈ：１６０）
 41
0.760941
  7
EXCADSTD
 72
     5
 11
816.514286
 21
482.7
 31
0.0
100
AcDbText
  0
TEXT
  5
61A
100
AcDbEntity
  8
LAY-3
  6
CONTINUOUS
 62
     7
100
AcDbText
 10
626.214286
 20
482.4
 30
0.0
 40
5.0
  1
４００Ａ×１０００Ｌ（Ｈ：１６０）
 41
0.760941
  7
EXCADSTD
 72
     5
 11
703.214286
 21
482.4
 31
0.0
100
AcDbText
  0
TEXT
  5
61B
100
AcDbEntity
  8
LAY-3
  6
CONTINUOUS
 62
     7
100
AcDbText
 10
515.414286
 20
482.8
 30
0.0
 40
5.0
  1
３５０Ａ×１０００Ｌ（Ｈ：１５０）
 41
0.760941
  7
EXCADSTD
 72
     5
 11
592.414286
 21
482.8
 31
0.0
100
AcDbText
  0
TEXT
  5
61C
100
AcDbEntity
  8
LAY-3
  6
CONTINUOUS
 62
     7
100
AcDbText
 10
403.514286
 20
482.7
 30
0.0
 40
5.0
  1
３００Ａ×８００Ｌ（Ｈ：１５０）
 41
0.76125
  7
EXCADSTD
 72
     5
 11
476.014286
 21
482.7
 31
0.0
100
AcDbText
  0
TEXT
  5
61D
100
AcDbEntity
  8
LAY-3
  6
CONTINUOUS
 62
     7
100
AcDbText
 10
294.214286
 20
482.7
 30
0.0
 40
5.0
  1
２５０Ａ×８００Ｌ（Ｈ：１５０）
 41
0.76125
  7
EXCADSTD
 72
     5
 11
366.714286
 21
482.7
 31
0.0
100
AcDbText
  0
TEXT
  5
61E
100
AcDbEntity
  8
LAY-3
  6
CONTINUOUS
 62
     7
100
AcDbText
 10
182.814286
 20
482.6
 30
0.0
 40
5.0
  1
２００Ａ×８００Ｌ（Ｈ：１５０）
 41
0.76125
  7
EXCADSTD
 72
     5
 11
255.314286
 21
482.6
 31
0.0
100
AcDbText
  0
TEXT
  5
61F
100
AcDbEntity
  8
LAY-3
  6
CONTINUOUS
 62
     7
100
AcDbText
 10
67.328571
 20
482.2
 30
0.0
 40
5.0
  1
１５０Ａ×８００Ｌ（Ｈ：１５０）
 41
0.76125
  7
EXCADSTD
 72
     5
 11
139.828571
 21
482.2
 31
0.0
100
AcDbText
  0
TEXT
  5
620
100
AcDbEntity
  8
LAY-3
  6
CONTINUOUS
 62
     7
100
AcDbText
 10
740.114286
 20
539.3
 30
0.0
 40
5.0
  1
１２５Ａ×７００Ｌ（Ｈ：１５０）
 41
0.76125
  7
EXCADSTD
 72
     5
 11
812.614286
 21
539.3
 31
0.0
100
AcDbText
  0
TEXT
  5
621
100
AcDbEntity
  8
LAY-3
  6
CONTINUOUS
 62
     7
100
AcDbText
 10
627.435714
 20
539.2
 30
0.0
 40
5.0
  1
１００Ａ×７００Ｌ（Ｈ：１５０）
 41
0.76125
  7
EXCADSTD
 72
     5
 11
699.935714
 21
539.2
 31
0.0
100
AcDbText
  0
TEXT
  5
622
100
AcDbEntity
  8
LAY-3
  6
CONTINUOUS
 62
     7
100
AcDbText
 10
519.314286
 20
539.2
 30
0.0
 40
5.0
  1
８０Ａ×７００Ｌ（Ｈ：１５０）
 41
0.7616
  7
EXCADSTD
 72
     5
 11
587.314286
 21
539.2
 31
0.0
100
AcDbText
  0
TEXT
  5
623
100
AcDbEntity
  8
LAY-3
  6
CONTINUOUS
 62
     7
100
AcDbText
 10
407.614286
 20
539.2
 30
0.0
 40
5.0
  1
６５Ａ×７００Ｌ（Ｈ：１５０）
 41
0.7616
  7
EXCADSTD
 72
     5
 11
475.614286
 21
539.2
 31
0.0
100
AcDbText
  0
TEXT
  5
624
100
AcDbEntity
  8
LAY-3
  6
CONTINUOUS
 62
     7
100
AcDbText
 10
297.214286
 20
539.2
 30
0.0
 40
5.0
  1
５０Ａ×７００Ｌ（Ｈ：１５０）
 41
0.7616
  7
EXCADSTD
 72
     5
 11
365.214286
 21
539.2
 31
0.0
100
AcDbText
  0
TEXT
  5
625
100
AcDbEntity
  8
LAY-3
  6
CONTINUOUS
 62
     7
100
AcDbText
 10
184.414286
 20
539.0
 30
0.0
 40
5.0
  1
４０Ａ×７００Ｌ（Ｈ：１５０）
 41
0.7616
  7
EXCADSTD
 72
     5
 11
252.414286
 21
539.0
 31
0.0
100
AcDbText
  0
TEXT
  5
626
100
AcDbEntity
  8
LAY-3
  6
CONTINUOUS
 62
     7
100
AcDbText
 10
71.314286
 20
539.0
 30
0.0
 40
5.0
  1
３２Ａ×７００Ｌ（Ｈ：１５０）
 41
0.7616
  7
EXCADSTD
 72
     5
 11
139.314286
 21
539.0
 31
0.0
100
AcDbText
  0
TEXT
  5
627
100
AcDbEntity
  8
LAY-3
  6
CONTINUOUS
 62
     7
100
AcDbText
 10
376.100002
 20
551.2
 30
0.0
 40
12.0
  1
ＬＢコネクタ　３山（１００ｍｍ偏心用）
 41
0.806842
  7
EXCADSTD
 72
     5
 11
595.100002
 21
551.2
 31
0.0
100
AcDbText
  0
LINE
  5
628
100
AcDbEntity
  8
LAY-3
  6
CONTINUOUS
 62
     2
100
AcDbLine
 10
325.410562
 20
566.575
 30
0.0
 11
327.589438
 21
566.575
 31
0.0
  0
LINE
  5
629
100
AcDbEntity
  8
LAY-3
  6
CONTINUOUS
 62
     2
100
AcDbLine
 10
323.863241
 20
566.2
 30
0.0
 11
329.136759
 21
566.2
 31
0.0
  0
LINE
  5
62A
100
AcDbEntity
  8
LAY-3
  6
CONTINUOUS
 62
     2
100
AcDbLine
 10
322.973405
 20
565.825
 30
0.0
 11
330.026595
 21
565.825
 31
0.0
  0
LINE
  5
62B
100
AcDbEntity
  8
LAY-3
  6
CONTINUOUS
 62
     2
100
AcDbLine
 10
322.3
 20
565.45
 30
0.0
 11
330.7
 21
565.45
 31
0.0
  0
LINE
  5
62C
100
AcDbEntity
  8
LAY-3
  6
CONTINUOUS
 62
     2
100
AcDbLine
 10
321.750066
 20
565.075
 30
0.0
 11
331.249934
 21
565.075
 31
0.0
  0
LINE
  5
62D
100
AcDbEntity
  8
LAY-3
  6
CONTINUOUS
 62
     2
100
AcDbLine
 10
321.284398
 20
564.7
 30
0.0
 11
331.715602
 21
564.7
 31
0.0
  0
LINE
  5
62E
100
AcDbEntity
  8
LAY-3
  6
CONTINUOUS
 62
     2
100
AcDbLine
 10
307.75
 20
564.325
 30
0.0
 11
319.833635
 21
564.325
 31
0.0
  0
LINE
  5
62F
100
AcDbEntity
  8
LAY-3
  6
CONTINUOUS
 62
     2
100
AcDbLine
 10
320.882004
 20
564.325
 30
0.0
 11
332.117996
 21
564.325
 31
0.0
  0
LINE
  5
630
100
AcDbEntity
  8
LAY-3
  6
CONTINUOUS
 62
     2
100
AcDbLine
 10
333.166365
 20
564.325
 30
0.0
 11
342.25
 21
564.325
 31
0.0
  0
LINE
  5
631
100
AcDbEntity
  8
LAY-3
  6
CONTINUOUS
 62
     2
100
AcDbLine
 10
343.525
 20
564.325
 30
0.0
 11
353.575
 21
564.325
 31
0.0
  0
LINE
  5
632
100
AcDbEntity
  8
LAY-3
  6
CONTINUOUS
 62
     2
100
AcDbLine
 10
354.7
 20
564.325
 30
0.0
 11
357.25
 21
564.325
 31
0.0
  0
LINE
  5
633
100
AcDbEntity
  8
LAY-3
  6
CONTINUOUS
 62
     2
100
AcDbLine
 10
362.5
 20
564.325
 30
0.0
 11
365.05
 21
564.325
 31
0.0
  0
LINE
  5
634
100
AcDbEntity
  8
LAY-3
  6
CONTINUOUS
 62
     2
100
AcDbLine
 10
307.75
 20
563.95
 30
0.0
 11
319.534474
 21
563.95
 31
0.0
  0
LINE
  5
635
100
AcDbEntity
  8
LAY-3
  6
CONTINUOUS
 62
     2
100
AcDbLine
 10
320.530075
 20
563.95
 30
0.0
 11
332.469925
 21
563.95
 31
0.0
  0
LINE
  5
636
100
AcDbEntity
  8
LAY-3
  6
CONTINUOUS
 62
     2
100
AcDbLine
 10
333.465526
 20
563.95
 30
0.0
 11
342.25
 21
563.95
 31
0.0
  0
LINE
  5
637
100
AcDbEntity
  8
LAY-3
  6
CONTINUOUS
 62
     2
100
AcDbLine
 10
343.525
 20
563.95
 30
0.0
 11
353.575
 21
563.95
 31
0.0
  0
LINE
  5
638
100
AcDbEntity
  8
LAY-3
  6
CONTINUOUS
 62
     2
100
AcDbLine
 10
354.7
 20
563.95
 30
0.0
 11
357.496783
 21
563.95
 31
0.0
  0
LINE
  5
639
100
AcDbEntity
  8
LAY-3
  6
CONTINUOUS
 62
     2
100
AcDbLine
 10
362.5
 20
563.95
 30
0.0
 11
365.05
 21
563.95
 31
0.0
  0
LINE
  5
63A
100
AcDbEntity
  8
LAY-3
  6
CONTINUOUS
 62
     2
100
AcDbLine
 10
307.75
 20
563.575
 30
0.0
 11
319.26706
 21
563.575
 31
0.0
  0
LINE
  5
63B
100
AcDbEntity
  8
LAY-3
  6
CONTINUOUS
 62
     2
100
AcDbLine
 10
320.220121
 20
563.575
 30
0.0
 11
324.551443
 21
563.575
 31
0.0
  0
LINE
  5
63C
100
AcDbEntity
  8
LAY-3
  6
CONTINUOUS
 62
     2
100
AcDbLine
 10
328.448557
 20
563.575
 30
0.0
 11
332.779879
 21
563.575
 31
0.0
  0
LINE
  5
63D
100
AcDbEntity
  8
LAY-3
  6
CONTINUOUS
 62
     2
100
AcDbLine
 10
333.73294
 20
563.575
 30
0.0
 11
342.25
 21
563.575
 31
0.0
  0
LINE
  5
63E
100
AcDbEntity
  8
LAY-3
  6
CONTINUOUS
 62
     2
100
AcDbLine
 10
343.525
 20
563.575
 30
0.0
 11
353.575
 21
563.575
 31
0.0
  0
LINE
  5
63F
100
AcDbEntity
  8
LAY-3
  6
CONTINUOUS
 62
     2
100
AcDbLine
 10
354.7
 20
563.575
 30
0.0
 11
357.743566
 21
563.575
 31
0.0
  0
LINE
  5
640
100
AcDbEntity
  8
LAY-3
  6
CONTINUOUS
 62
     2
100
AcDbLine
 10
362.5
 20
563.575
 30
0.0
 11
365.05
 21
563.575
 31
0.0
  0
LINE
  5
641
100
AcDbEntity
  8
LAY-3
  6
CONTINUOUS
 62
     2
100
AcDbLine
 10
307.75
 20
563.2
 30
0.0
 11
319.027982
 21
563.2
 31
0.0
  0
LINE
  5
642
100
AcDbEntity
  8
LAY-3
  6
CONTINUOUS
 62
     2
100
AcDbLine
 10
319.946184
 20
563.2
 30
0.0
 11
323.795837
 21
563.2
 31
0.0
  0
LINE
  5
643
100
AcDbEntity
  8
LAY-3
  6
CONTINUOUS
 62
     2
100
AcDbLine
 10
329.204163
 20
563.2
 30
0.0
 11
333.053816
 21
563.2
 31
0.0
  0
LINE
  5
644
100
AcDbEntity
  8
LAY-3
  6
CONTINUOUS
 62
     2
100
AcDbLine
 10
333.972018
 20
563.2
 30
0.0
 11
342.25
 21
563.2
 31
0.0
  0
LINE
  5
645
100
AcDbEntity
  8
LAY-3
  6
CONTINUOUS
 62
     2
100
AcDbLine
 10
343.525
 20
563.2
 30
0.0
 11
353.575
 21
563.2
 31
0.0
  0
LINE
  5
646
100
AcDbEntity
  8
LAY-3
  6
CONTINUOUS
 62
     2
100
AcDbLine
 10
354.7
 20
563.2
 30
0.0
 11
357.990349
 21
563.2
 31
0.0
  0
LINE
  5
647
100
AcDbEntity
  8
LAY-3
  6
CONTINUOUS
 62
     2
100
AcDbLine
 10
362.5
 20
563.2
 30
0.0
 11
365.05
 21
563.2
 31
0.0
  0
LINE
  5
648
100
AcDbEntity
  8
LAY-3
  6
CONTINUOUS
 62
     2
100
AcDbLine
 10
307.75
 20
562.825
 30
0.0
 11
318.814597
 21
562.825
 31
0.0
  0
LINE
  5
649
100
AcDbEntity
  8
LAY-3
  6
CONTINUOUS
 62
     2
100
AcDbLine
 10
319.703907
 20
562.825
 30
0.0
 11
323.252405
 21
562.825
 31
0.0
  0
LINE
  5
64A
100
AcDbEntity
  8
LAY-3
  6
CONTINUOUS
 62
     2
100
AcDbLine
 10
329.747595
 20
562.825
 30
0.0
 11
333.296093
 21
562.825
 31
0.0
  0
LINE
  5
64B
100
AcDbEntity
  8
LAY-3
  6
CONTINUOUS
 62
     2
100
AcDbLine
 10
334.185403
 20
562.825
 30
0.0
 11
342.25
 21
562.825
 31
0.0
  0
LINE
  5
64C
100
AcDbEntity
  8
LAY-3
  6
CONTINUOUS
 62
     2
100
AcDbLine
 10
343.525
 20
562.825
 30
0.0
 11
353.575
 21
562.825
 31
0.0
  0
LINE
  5
64D
100
AcDbEntity
  8
LAY-3
  6
CONTINUOUS
 62
     2
100
AcDbLine
 10
354.7
 20
562.825
 30
0.0
 11
358.237132
 21
562.825
 31
0.0
  0
LINE
  5
64E
100
AcDbEntity
  8
LAY-3
  6
CONTINUOUS
 62
     2
100
AcDbLine
 10
362.5
 20
562.825
 30
0.0
 11
365.05
 21
562.825
 31
0.0
  0
LINE
  5
64F
100
AcDbEntity
  8
LAY-3
  6
CONTINUOUS
 62
     2
100
AcDbLine
 10
307.75
 20
562.45
 30
0.0
 11
318.624814
 21
562.45
 31
0.0
  0
LINE
  5
650
100
AcDbEntity
  8
LAY-3
  6
CONTINUOUS
 62
     2
100
AcDbLine
 10
319.490007
 20
562.45
 30
0.0
 11
322.825765
 21
562.45
 31
0.0
  0
LINE
  5
651
100
AcDbEntity
  8
LAY-3
  6
CONTINUOUS
 62
     2
100
AcDbLine
 10
325.18162
 20
562.45
 30
0.0
 11
327.81838
 21
562.45
 31
0.0
  0
LINE
  5
652
100
AcDbEntity
  8
LAY-3
  6
CONTINUOUS
 62
     2
100
AcDbLine
 10
330.174235
 20
562.45
 30
0.0
 11
333.509993
 21
562.45
 31
0.0
  0
LINE
  5
653
100
AcDbEntity
  8
LAY-3
  6
CONTINUOUS
 62
     2
100
AcDbLine
 10
334.375186
 20
562.45
 30
0.0
 11
342.25
 21
562.45
 31
0.0
  0
LINE
  5
654
100
AcDbEntity
  8
LAY-3
  6
CONTINUOUS
 62
     2
100
AcDbLine
 10
343.525
 20
562.45
 30
0.0
 11
353.575
 21
562.45
 31
0.0
  0
LINE
  5
655
100
AcDbEntity
  8
LAY-3
  6
CONTINUOUS
 62
     2
100
AcDbLine
 10
354.7
 20
562.45
 30
0.0
 11
358.483915
 21
562.45
 31
0.0
  0
LINE
  5
656
100
AcDbEntity
  8
LAY-3
  6
CONTINUOUS
 62
     2
100
AcDbLine
 10
362.5
 20
562.45
 30
0.0
 11
365.05
 21
562.45
 31
0.0
  0
LINE
  5
657
100
AcDbEntity
  8
LAY-3
  6
CONTINUOUS
 62
     2
100
AcDbLine
 10
307.75
 20
562.075
 30
0.0
 11
318.456964
 21
562.075
 31
0.0
  0
LINE
  5
658
100
AcDbEntity
  8
LAY-3
  6
CONTINUOUS
 62
     2
100
AcDbLine
 10
319.301953
 20
562.075
 30
0.0
 11
322.478573
 21
562.075
 31
0.0
  0
LINE
  5
659
100
AcDbEntity
  8
LAY-3
  6
CONTINUOUS
 62
     2
100
AcDbLine
 10
324.4
 20
562.075
 30
0.0
 11
328.6
 21
562.075
 31
0.0
  0
LINE
  5
65A
100
AcDbEntity
  8
LAY-3
  6
CONTINUOUS
 62
     2
100
AcDbLine
 10
330.521427
 20
562.075
 30
0.0
 11
333.698047
 21
562.075
 31
0.0
  0
LINE
  5
65B
100
AcDbEntity
  8
LAY-3
  6
CONTINUOUS
 62
     2
100
AcDbLine
 10
334.543036
 20
562.075
 30
0.0
 11
342.25
 21
562.075
 31
0.0
  0
LINE
  5
65C
100
AcDbEntity
  8
LAY-3
  6
CONTINUOUS
 62
     2
100
AcDbLine
 10
343.525
 20
562.075
 30
0.0
 11
353.575
 21
562.075
 31
0.0
  0
LINE
  5
65D
100
AcDbEntity
  8
LAY-3
  6
CONTINUOUS
 62
     2
100
AcDbLine
 10
354.7
 20
562.075
 30
0.0
 11
358.730699
 21
562.075
 31
0.0
  0
LINE
  5
65E
100
AcDbEntity
  8
LAY-3
  6
CONTINUOUS
 62
     2
100
AcDbLine
 10
362.5
 20
562.075
 30
0.0
 11
365.05
 21
562.075
 31
0.0
  0
LINE
  5
65F
100
AcDbEntity
  8
LAY-3
  6
CONTINUOUS
 62
     2
100
AcDbLine
 10
313.0
 20
561.7
 30
0.0
 11
315.625
 21
561.7
 31
0.0
  0
LINE
  5
660
100
AcDbEntity
  8
LAY-3
  6
CONTINUOUS
 62
     2
100
AcDbLine
 10
319.137765
 20
561.7
 30
0.0
 11
322.191578
 21
561.7
 31
0.0
  0
LINE
  5
661
100
AcDbEntity
  8
LAY-3
  6
CONTINUOUS
 62
     2
100
AcDbLine
 10
323.892199
 20
561.7
 30
0.0
 11
329.107801
 21
561.7
 31
0.0
  0
LINE
  5
662
100
AcDbEntity
  8
LAY-3
  6
CONTINUOUS
 62
     2
100
AcDbLine
 10
330.808422
 20
561.7
 30
0.0
 11
333.862235
 21
561.7
 31
0.0
  0
LINE
  5
663
100
AcDbEntity
  8
LAY-3
  6
CONTINUOUS
 62
     2
100
AcDbLine
 10
339.357281
 20
561.7
 30
0.0
 11
342.25
 21
561.7
 31
0.0
  0
LINE
  5
664
100
AcDbEntity
  8
LAY-3
  6
CONTINUOUS
 62
     2
100
AcDbLine
 10
343.525
 20
561.7
 30
0.0
 11
346.15
 21
561.7
 31
0.0
  0
LINE
  5
665
100
AcDbEntity
  8
LAY-3
  6
CONTINUOUS
 62
     2
100
AcDbLine
 10
354.7
 20
561.7
 30
0.0
 11
358.977482
 21
561.7
 31
0.0
  0
LINE
  5
666
100
AcDbEntity
  8
LAY-3
  6
CONTINUOUS
 62
     2
100
AcDbLine
 10
362.5
 20
561.7
 30
0.0
 11
365.05
 21
561.7
 31
0.0
  0
LINE
  5
667
100
AcDbEntity
  8
LAY-3
  6
CONTINUOUS
 62
     2
100
AcDbLine
 10
313.0
 20
561.325
 30
0.0
 11
315.625
 21
561.325
 31
0.0
  0
LINE
  5
668
100
AcDbEntity
  8
LAY-3
  6
CONTINUOUS
 62
     2
100
AcDbLine
 10
318.995876
 20
561.325
 30
0.0
 11
321.953367
 21
561.325
 31
0.0
  0
LINE
  5
669
100
AcDbEntity
  8
LAY-3
  6
CONTINUOUS
 62
     2
100
AcDbLine
 10
323.515038
 20
561.325
 30
0.0
 11
329.484962
 21
561.325
 31
0.0
  0
LINE
  5
66A
100
AcDbEntity
  8
LAY-3
  6
CONTINUOUS
 62
     2
100
AcDbLine
 10
331.046633
 20
561.325
 30
0.0
 11
334.004124
 21
561.325
 31
0.0
  0
LINE
  5
66B
100
AcDbEntity
  8
LAY-3
  6
CONTINUOUS
 62
     2
100
AcDbLine
 10
339.019218
 20
561.325
 30
0.0
 11
341.911938
 21
561.325
 31
0.0
  0
LINE
  5
66C
100
AcDbEntity
  8
LAY-3
  6
CONTINUOUS
 62
     2
100
AcDbLine
 10
343.525
 20
561.325
 30
0.0
 11
346.15
 21
561.325
 31
0.0
  0
LINE
  5
66D
100
AcDbEntity
  8
LAY-3
  6
CONTINUOUS
 62
     2
100
AcDbLine
 10
354.7
 20
561.325
 30
0.0
 11
359.224265
 21
561.325
 31
0.0
  0
LINE
  5
66E
100
AcDbEntity
  8
LAY-3
  6
CONTINUOUS
 62
     2
100
AcDbLine
 10
362.5
 20
561.325
 30
0.0
 11
365.05
 21
561.325
 31
0.0
  0
LINE
  5
66F
100
AcDbEntity
  8
LAY-3
  6
CONTINUOUS
 62
     2
100
AcDbLine
 10
313.0
 20
560.95
 30
0.0
 11
315.625
 21
560.95
 31
0.0
  0
LINE
  5
670
100
AcDbEntity
  8
LAY-3
  6
CONTINUOUS
 62
     2
100
AcDbLine
 10
318.875041
 20
560.95
 30
0.0
 11
321.756584
 21
560.95
 31
0.0
  0
LINE
  5
671
100
AcDbEntity
  8
LAY-3
  6
CONTINUOUS
 62
     2
100
AcDbLine
 10
323.223092
 20
560.95
 30
0.0
 11
329.776908
 21
560.95
 31
0.0
  0
LINE
  5
672
100
AcDbEntity
  8
LAY-3
  6
CONTINUOUS
 62
     2
100
AcDbLine
 10
331.243416
 20
560.95
 30
0.0
 11
334.124959
 21
560.95
 31
0.0
  0
LINE
  5
673
100
AcDbEntity
  8
LAY-3
  6
CONTINUOUS
 62
     2
100
AcDbLine
 10
338.681156
 20
560.95
 30
0.0
 11
341.573876
 21
560.95
 31
0.0
  0
LINE
  5
674
100
AcDbEntity
  8
LAY-3
  6
CONTINUOUS
 62
     2
100
AcDbLine
 10
343.525
 20
560.95
 30
0.0
 11
346.15
 21
560.95
 31
0.0
  0
LINE
  5
675
100
AcDbEntity
  8
LAY-3
  6
CONTINUOUS
 62
     2
100
AcDbLine
 10
354.7
 20
560.95
 30
0.0
 11
357.25
 21
560.95
 31
0.0
  0
LINE
  5
676
100
AcDbEntity
  8
LAY-3
  6
CONTINUOUS
 62
     2
100
AcDbLine
 10
357.317555
 20
560.95
 30
0.0
 11
359.471048
 21
560.95
 31
0.0
  0
LINE
  5
677
100
AcDbEntity
  8
LAY-3
  6
CONTINUOUS
 62
     2
100
AcDbLine
 10
362.5
 20
560.95
 30
0.0
 11
365.05
 21
560.95
 31
0.0
  0
LINE
  5
678
100
AcDbEntity
  8
LAY-3
  6
CONTINUOUS
 62
     2
100
AcDbLine
 10
313.0
 20
560.575
 30
0.0
 11
315.625
 21
560.575
 31
0.0
  0
LINE
  5
679
100
AcDbEntity
  8
LAY-3
  6
CONTINUOUS
 62
     2
100
AcDbLine
 10
318.774272
 20
560.575
 30
0.0
 11
321.596239
 21
560.575
 31
0.0
  0
LINE
  5
67A
100
AcDbEntity
  8
LAY-3
  6
CONTINUOUS
 62
     2
100
AcDbLine
 10
322.995004
 20
560.575
 30
0.0
 11
330.004996
 21
560.575
 31
0.0
  0
LINE
  5
67B
100
AcDbEntity
  8
LAY-3
  6
CONTINUOUS
 62
     2
100
AcDbLine
 10
331.403761
 20
560.575
 30
0.0
 11
334.225728
 21
560.575
 31
0.0
  0
LINE
  5
67C
100
AcDbEntity
  8
LAY-3
  6
CONTINUOUS
 62
     2
100
AcDbLine
 10
338.343094
 20
560.575
 30
0.0
 11
341.235814
 21
560.575
 31
0.0
  0
LINE
  5
67D
100
AcDbEntity
  8
LAY-3
  6
CONTINUOUS
 62
     2
100
AcDbLine
 10
343.525
 20
560.575
 30
0.0
 11
346.15
 21
560.575
 31
0.0
  0
LINE
  5
67E
100
AcDbEntity
  8
LAY-3
  6
CONTINUOUS
 62
     2
100
AcDbLine
 10
354.7
 20
560.575
 30
0.0
 11
357.25
 21
560.575
 31
0.0
  0
LINE
  5
67F
100
AcDbEntity
  8
LAY-3
  6
CONTINUOUS
 62
     2
100
AcDbLine
 10
357.564338
 20
560.575
 30
0.0
 11
359.717831
 21
560.575
 31
0.0
  0
LINE
  5
680
100
AcDbEntity
  8
LAY-3
  6
CONTINUOUS
 62
     2
100
AcDbLine
 10
362.5
 20
560.575
 30
0.0
 11
365.05
 21
560.575
 31
0.0
  0
LINE
  5
681
100
AcDbEntity
  8
LAY-3
  6
CONTINUOUS
 62
     2
100
AcDbLine
 10
313.0
 20
560.2
 30
0.0
 11
315.625
 21
560.2
 31
0.0
  0
LINE
  5
682
100
AcDbEntity
  8
LAY-3
  6
CONTINUOUS
 62
     2
100
AcDbLine
 10
318.692792
 20
560.2
 30
0.0
 11
321.468847
 21
560.2
 31
0.0
  0
LINE
  5
683
100
AcDbEntity
  8
LAY-3
  6
CONTINUOUS
 62
     2
100
AcDbLine
 10
322.818883
 20
560.2
 30
0.0
 11
330.181117
 21
560.2
 31
0.0
  0
LINE
  5
684
100
AcDbEntity
  8
LAY-3
  6
CONTINUOUS
 62
     2
100
AcDbLine
 10
331.531153
 20
560.2
 30
0.0
 11
334.307208
 21
560.2
 31
0.0
  0
LINE
  5
685
100
AcDbEntity
  8
LAY-3
  6
CONTINUOUS
 62
     2
100
AcDbLine
 10
338.005032
 20
560.2
 30
0.0
 11
340.897752
 21
560.2
 31
0.0
  0
LINE
  5
686
100
AcDbEntity
  8
LAY-3
  6
CONTINUOUS
 62
     2
100
AcDbLine
 10
343.525
 20
560.2
 30
0.0
 11
346.15
 21
560.2
 31
0.0
  0
LINE
  5
687
100
AcDbEntity
  8
LAY-3
  6
CONTINUOUS
 62
     2
100
AcDbLine
 10
354.7
 20
560.2
 30
0.0
 11
357.25
 21
560.2
 31
0.0
  0
LINE
  5
688
100
AcDbEntity
  8
LAY-3
  6
CONTINUOUS
 62
     2
100
AcDbLine
 10
357.811121
 20
560.2
 30
0.0
 11
359.964614
 21
560.2
 31
0.0
  0
LINE
  5
689
100
AcDbEntity
  8
LAY-3
  6
CONTINUOUS
 62
     2
100
AcDbLine
 10
362.5
 20
560.2
 30
0.0
 11
365.05
 21
560.2
 31
0.0
  0
LINE
  5
68A
100
AcDbEntity
  8
LAY-3
  6
CONTINUOUS
 62
     2
100
AcDbLine
 10
313.0
 20
559.825
 30
0.0
 11
315.625
 21
559.825
 31
0.0
  0
LINE
  5
68B
100
AcDbEntity
  8
LAY-3
  6
CONTINUOUS
 62
     2
100
AcDbLine
 10
318.630002
 20
559.825
 30
0.0
 11
321.371952
 21
559.825
 31
0.0
  0
LINE
  5
68C
100
AcDbEntity
  8
LAY-3
  6
CONTINUOUS
 62
     2
100
AcDbLine
 10
322.68752
 20
559.825
 30
0.0
 11
330.31248
 21
559.825
 31
0.0
  0
LINE
  5
68D
100
AcDbEntity
  8
LAY-3
  6
CONTINUOUS
 62
     2
100
AcDbLine
 10
331.628048
 20
559.825
 30
0.0
 11
334.369998
 21
559.825
 31
0.0
  0
LINE
  5
68E
100
AcDbEntity
  8
LAY-3
  6
CONTINUOUS
 62
     2
100
AcDbLine
 10
337.66697
 20
559.825
 30
0.0
 11
340.55969
 21
559.825
 31
0.0
  0
LINE
  5
68F
100
AcDbEntity
  8
LAY-3
  6
CONTINUOUS
 62
     2
100
AcDbLine
 10
343.525
 20
559.825
 30
0.0
 11
353.575
 21
559.825
 31
0.0
  0
LINE
  5
690
100
AcDbEntity
  8
LAY-3
  6
CONTINUOUS
 62
     2
100
AcDbLine
 10
354.7
 20
559.825
 30
0.0
 11
357.25
 21
559.825
 31
0.0
  0
LINE
  5
691
100
AcDbEntity
  8
LAY-3
  6
CONTINUOUS
 62
     2
100
AcDbLine
 10
358.057904
 20
559.825
 30
0.0
 11
360.211397
 21
559.825
 31
0.0
  0
LINE
  5
692
100
AcDbEntity
  8
LAY-3
  6
CONTINUOUS
 62
     2
100
AcDbLine
 10
362.5
 20
559.825
 30
0.0
 11
365.05
 21
559.825
 31
0.0
  0
LINE
  5
693
100
AcDbEntity
  8
LAY-3
  6
CONTINUOUS
 62
     2
100
AcDbLine
 10
313.0
 20
559.45
 30
0.0
 11
315.625
 21
559.45
 31
0.0
  0
LINE
  5
694
100
AcDbEntity
  8
LAY-3
  6
CONTINUOUS
 62
     2
100
AcDbLine
 10
318.585456
 20
559.45
 30
0.0
 11
321.303848
 21
559.45
 31
0.0
  0
LINE
  5
695
100
AcDbEntity
  8
LAY-3
  6
CONTINUOUS
 62
     2
100
AcDbLine
 10
322.596396
 20
559.45
 30
0.0
 11
330.403604
 21
559.45
 31
0.0
  0
LINE
  5
696
100
AcDbEntity
  8
LAY-3
  6
CONTINUOUS
 62
     2
100
AcDbLine
 10
331.696152
 20
559.45
 30
0.0
 11
334.414544
 21
559.45
 31
0.0
  0
LINE
  5
697
100
AcDbEntity
  8
LAY-3
  6
CONTINUOUS
 62
     2
100
AcDbLine
 10
337.328908
 20
559.45
 30
0.0
 11
340.221627
 21
559.45
 31
0.0
  0
LINE
  5
698
100
AcDbEntity
  8
LAY-3
  6
CONTINUOUS
 62
     2
100
AcDbLine
 10
343.525
 20
559.45
 30
0.0
 11
353.575
 21
559.45
 31
0.0
  0
LINE
  5
699
100
AcDbEntity
  8
LAY-3
  6
CONTINUOUS
 62
     2
100
AcDbLine
 10
354.7
 20
559.45
 30
0.0
 11
357.25
 21
559.45
 31
0.0
  0
LINE
  5
69A
100
AcDbEntity
  8
LAY-3
  6
CONTINUOUS
 62
     2
100
AcDbLine
 10
358.304687
 20
559.45
 30
0.0
 11
360.45818
 21
559.45
 31
0.0
  0
LINE
  5
69B
100
AcDbEntity
  8
LAY-3
  6
CONTINUOUS
 62
     2
100
AcDbLine
 10
362.5
 20
559.45
 30
0.0
 11
365.05
 21
559.45
 31
0.0
  0
LINE
  5
69C
100
AcDbEntity
  8
LAY-3
  6
CONTINUOUS
 62
     2
100
AcDbLine
 10
313.0
 20
559.075
 30
0.0
 11
315.625
 21
559.075
 31
0.0
  0
LINE
  5
69D
100
AcDbEntity
  8
LAY-3
  6
CONTINUOUS
 62
     2
100
AcDbLine
 10
318.558849
 20
559.075
 30
0.0
 11
321.26341
 21
559.075
 31
0.0
  0
LINE
  5
69E
100
AcDbEntity
  8
LAY-3
  6
CONTINUOUS
 62
     2
100
AcDbLine
 10
322.542728
 20
559.075
 30
0.0
 11
330.457272
 21
559.075
 31
0.0
  0
LINE
  5
69F
100
AcDbEntity
  8
LAY-3
  6
CONTINUOUS
 62
     2
100
AcDbLine
 10
331.73659
 20
559.075
 30
0.0
 11
334.441151
 21
559.075
 31
0.0
  0
LINE
  5
6A0
100
AcDbEntity
  8
LAY-3
  6
CONTINUOUS
 62
     2
100
AcDbLine
 10
336.990846
 20
559.075
 30
0.0
 11
339.883565
 21
559.075
 31
0.0
  0
LINE
  5
6A1
100
AcDbEntity
  8
LAY-3
  6
CONTINUOUS
 62
     2
100
AcDbLine
 10
343.525
 20
559.075
 30
0.0
 11
353.575
 21
559.075
 31
0.0
  0
LINE
  5
6A2
100
AcDbEntity
  8
LAY-3
  6
CONTINUOUS
 62
     2
100
AcDbLine
 10
354.7
 20
559.075
 30
0.0
 11
357.25
 21
559.075
 31
0.0
  0
LINE
  5
6A3
100
AcDbEntity
  8
LAY-3
  6
CONTINUOUS
 62
     2
100
AcDbLine
 10
358.551471
 20
559.075
 30
0.0
 11
360.704963
 21
559.075
 31
0.0
  0
LINE
  5
6A4
100
AcDbEntity
  8
LAY-3
  6
CONTINUOUS
 62
     2
100
AcDbLine
 10
362.5
 20
559.075
 30
0.0
 11
365.05
 21
559.075
 31
0.0
  0
LINE
  5
6A5
100
AcDbEntity
  8
LAY-3
  6
CONTINUOUS
 62
     2
100
AcDbLine
 10
313.0
 20
558.7
 30
0.0
 11
315.625
 21
558.7
 31
0.0
  0
LINE
  5
6A6
100
AcDbEntity
  8
LAY-3
  6
CONTINUOUS
 62
     2
100
AcDbLine
 10
318.55
 20
558.7
 30
0.0
 11
321.25
 21
558.7
 31
0.0
  0
LINE
  5
6A7
100
AcDbEntity
  8
LAY-3
  6
CONTINUOUS
 62
     2
100
AcDbLine
 10
322.525
 20
558.7
 30
0.0
 11
330.475
 21
558.7
 31
0.0
  0
LINE
  5
6A8
100
AcDbEntity
  8
LAY-3
  6
CONTINUOUS
 62
     2
100
AcDbLine
 10
331.75
 20
558.7
 30
0.0
 11
334.45
 21
558.7
 31
0.0
  0
LINE
  5
6A9
100
AcDbEntity
  8
LAY-3
  6
CONTINUOUS
 62
     2
100
AcDbLine
 10
336.652784
 20
558.7
 30
0.0
 11
339.545503
 21
558.7
 31
0.0
  0
LINE
  5
6AA
100
AcDbEntity
  8
LAY-3
  6
CONTINUOUS
 62
     2
100
AcDbLine
 10
343.525
 20
558.7
 30
0.0
 11
353.575
 21
558.7
 31
0.0
  0
LINE
  5
6AB
100
AcDbEntity
  8
LAY-3
  6
CONTINUOUS
 62
     2
100
AcDbLine
 10
354.7
 20
558.7
 30
0.0
 11
357.25
 21
558.7
 31
0.0
  0
LINE
  5
6AC
100
AcDbEntity
  8
LAY-3
  6
CONTINUOUS
 62
     2
100
AcDbLine
 10
358.798254
 20
558.7
 30
0.0
 11
360.951746
 21
558.7
 31
0.0
  0
LINE
  5
6AD
100
AcDbEntity
  8
LAY-3
  6
CONTINUOUS
 62
     2
100
AcDbLine
 10
362.5
 20
558.7
 30
0.0
 11
365.05
 21
558.7
 31
0.0
  0
LINE
  5
6AE
100
AcDbEntity
  8
LAY-3
  6
CONTINUOUS
 62
     2
100
AcDbLine
 10
313.0
 20
558.325
 30
0.0
 11
315.625
 21
558.325
 31
0.0
  0
LINE
  5
6AF
100
AcDbEntity
  8
LAY-3
  6
CONTINUOUS
 62
     2
100
AcDbLine
 10
318.558849
 20
558.325
 30
0.0
 11
321.26341
 21
558.325
 31
0.0
  0
LINE
  5
6B0
100
AcDbEntity
  8
LAY-3
  6
CONTINUOUS
 62
     2
100
AcDbLine
 10
322.542728
 20
558.325
 30
0.0
 11
330.457272
 21
558.325
 31
0.0
  0
LINE
  5
6B1
100
AcDbEntity
  8
LAY-3
  6
CONTINUOUS
 62
     2
100
AcDbLine
 10
331.73659
 20
558.325
 30
0.0
 11
334.441151
 21
558.325
 31
0.0
  0
LINE
  5
6B2
100
AcDbEntity
  8
LAY-3
  6
CONTINUOUS
 62
     2
100
AcDbLine
 10
336.314722
 20
558.325
 30
0.0
 11
339.207441
 21
558.325
 31
0.0
  0
LINE
  5
6B3
100
AcDbEntity
  8
LAY-3
  6
CONTINUOUS
 62
     2
100
AcDbLine
 10
343.525
 20
558.325
 30
0.0
 11
353.575
 21
558.325
 31
0.0
  0
LINE
  5
6B4
100
AcDbEntity
  8
LAY-3
  6
CONTINUOUS
 62
     2
100
AcDbLine
 10
354.7
 20
558.325
 30
0.0
 11
357.25
 21
558.325
 31
0.0
  0
LINE
  5
6B5
100
AcDbEntity
  8
LAY-3
  6
CONTINUOUS
 62
     2
100
AcDbLine
 10
359.045037
 20
558.325
 30
0.0
 11
361.198529
 21
558.325
 31
0.0
  0
LINE
  5
6B6
100
AcDbEntity
  8
LAY-3
  6
CONTINUOUS
 62
     2
100
AcDbLine
 10
362.5
 20
558.325
 30
0.0
 11
365.05
 21
558.325
 31
0.0
  0
LINE
  5
6B7
100
AcDbEntity
  8
LAY-3
  6
CONTINUOUS
 62
     2
100
AcDbLine
 10
313.0
 20
557.95
 30
0.0
 11
315.625
 21
557.95
 31
0.0
  0
LINE
  5
6B8
100
AcDbEntity
  8
LAY-3
  6
CONTINUOUS
 62
     2
100
AcDbLine
 10
318.585456
 20
557.95
 30
0.0
 11
321.303848
 21
557.95
 31
0.0
  0
LINE
  5
6B9
100
AcDbEntity
  8
LAY-3
  6
CONTINUOUS
 62
     2
100
AcDbLine
 10
322.596396
 20
557.95
 30
0.0
 11
330.403604
 21
557.95
 31
0.0
  0
LINE
  5
6BA
100
AcDbEntity
  8
LAY-3
  6
CONTINUOUS
 62
     2
100
AcDbLine
 10
331.696152
 20
557.95
 30
0.0
 11
334.414544
 21
557.95
 31
0.0
  0
LINE
  5
6BB
100
AcDbEntity
  8
LAY-3
  6
CONTINUOUS
 62
     2
100
AcDbLine
 10
335.97666
 20
557.95
 30
0.0
 11
338.869379
 21
557.95
 31
0.0
  0
LINE
  5
6BC
100
AcDbEntity
  8
LAY-3
  6
CONTINUOUS
 62
     2
100
AcDbLine
 10
343.525
 20
557.95
 30
0.0
 11
353.575
 21
557.95
 31
0.0
  0
LINE
  5
6BD
100
AcDbEntity
  8
LAY-3
  6
CONTINUOUS
 62
     2
100
AcDbLine
 10
354.7
 20
557.95
 30
0.0
 11
357.25
 21
557.95
 31
0.0
  0
LINE
  5
6BE
100
AcDbEntity
  8
LAY-3
  6
CONTINUOUS
 62
     2
100
AcDbLine
 10
359.29182
 20
557.95
 30
0.0
 11
361.445312
 21
557.95
 31
0.0
  0
LINE
  5
6BF
100
AcDbEntity
  8
LAY-3
  6
CONTINUOUS
 62
     2
100
AcDbLine
 10
362.5
 20
557.95
 30
0.0
 11
365.05
 21
557.95
 31
0.0
  0
LINE
  5
6C0
100
AcDbEntity
  8
LAY-3
  6
CONTINUOUS
 62
     2
100
AcDbLine
 10
313.0
 20
557.575
 30
0.0
 11
315.625
 21
557.575
 31
0.0
  0
LINE
  5
6C1
100
AcDbEntity
  8
LAY-3
  6
CONTINUOUS
 62
     2
100
AcDbLine
 10
318.630002
 20
557.575
 30
0.0
 11
321.371952
 21
557.575
 31
0.0
  0
LINE
  5
6C2
100
AcDbEntity
  8
LAY-3
  6
CONTINUOUS
 62
     2
100
AcDbLine
 10
322.68752
 20
557.575
 30
0.0
 11
330.31248
 21
557.575
 31
0.0
  0
LINE
  5
6C3
100
AcDbEntity
  8
LAY-3
  6
CONTINUOUS
 62
     2
100
AcDbLine
 10
331.628048
 20
557.575
 30
0.0
 11
334.369998
 21
557.575
 31
0.0
  0
LINE
  5
6C4
100
AcDbEntity
  8
LAY-3
  6
CONTINUOUS
 62
     2
100
AcDbLine
 10
335.638597
 20
557.575
 30
0.0
 11
338.531317
 21
557.575
 31
0.0
  0
LINE
  5
6C5
100
AcDbEntity
  8
LAY-3
  6
CONTINUOUS
 62
     2
100
AcDbLine
 10
343.525
 20
557.575
 30
0.0
 11
346.15
 21
557.575
 31
0.0
  0
LINE
  5
6C6
100
AcDbEntity
  8
LAY-3
  6
CONTINUOUS
 62
     2
100
AcDbLine
 10
354.7
 20
557.575
 30
0.0
 11
357.25
 21
557.575
 31
0.0
  0
LINE
  5
6C7
100
AcDbEntity
  8
LAY-3
  6
CONTINUOUS
 62
     2
100
AcDbLine
 10
359.538603
 20
557.575
 30
0.0
 11
361.692096
 21
557.575
 31
0.0
  0
LINE
  5
6C8
100
AcDbEntity
  8
LAY-3
  6
CONTINUOUS
 62
     2
100
AcDbLine
 10
362.5
 20
557.575
 30
0.0
 11
365.05
 21
557.575
 31
0.0
  0
LINE
  5
6C9
100
AcDbEntity
  8
LAY-3
  6
CONTINUOUS
 62
     2
100
AcDbLine
 10
313.0
 20
557.2
 30
0.0
 11
315.625
 21
557.2
 31
0.0
  0
LINE
  5
6CA
100
AcDbEntity
  8
LAY-3
  6
CONTINUOUS
 62
     2
100
AcDbLine
 10
318.692792
 20
557.2
 30
0.0
 11
321.468847
 21
557.2
 31
0.0
  0
LINE
  5
6CB
100
AcDbEntity
  8
LAY-3
  6
CONTINUOUS
 62
     2
100
AcDbLine
 10
322.818883
 20
557.2
 30
0.0
 11
330.181117
 21
557.2
 31
0.0
  0
LINE
  5
6CC
100
AcDbEntity
  8
LAY-3
  6
CONTINUOUS
 62
     2
100
AcDbLine
 10
331.531153
 20
557.2
 30
0.0
 11
334.307208
 21
557.2
 31
0.0
  0
LINE
  5
6CD
100
AcDbEntity
  8
LAY-3
  6
CONTINUOUS
 62
     2
100
AcDbLine
 10
335.300535
 20
557.2
 30
0.0
 11
338.193255
 21
557.2
 31
0.0
  0
LINE
  5
6CE
100
AcDbEntity
  8
LAY-3
  6
CONTINUOUS
 62
     2
100
AcDbLine
 10
343.525
 20
557.2
 30
0.0
 11
346.15
 21
557.2
 31
0.0
  0
LINE
  5
6CF
100
AcDbEntity
  8
LAY-3
  6
CONTINUOUS
 62
     2
100
AcDbLine
 10
354.7
 20
557.2
 30
0.0
 11
357.25
 21
557.2
 31
0.0
  0
LINE
  5
6D0
100
AcDbEntity
  8
LAY-3
  6
CONTINUOUS
 62
     2
100
AcDbLine
 10
359.785386
 20
557.2
 30
0.0
 11
361.938879
 21
557.2
 31
0.0
  0
LINE
  5
6D1
100
AcDbEntity
  8
LAY-3
  6
CONTINUOUS
 62
     2
100
AcDbLine
 10
362.5
 20
557.2
 30
0.0
 11
365.05
 21
557.2
 31
0.0
  0
LINE
  5
6D2
100
AcDbEntity
  8
LAY-3
  6
CONTINUOUS
 62
     2
100
AcDbLine
 10
313.0
 20
556.825
 30
0.0
 11
315.625
 21
556.825
 31
0.0
  0
LINE
  5
6D3
100
AcDbEntity
  8
LAY-3
  6
CONTINUOUS
 62
     2
100
AcDbLine
 10
318.774272
 20
556.825
 30
0.0
 11
321.596239
 21
556.825
 31
0.0
  0
LINE
  5
6D4
100
AcDbEntity
  8
LAY-3
  6
CONTINUOUS
 62
     2
100
AcDbLine
 10
322.995004
 20
556.825
 30
0.0
 11
330.004996
 21
556.825
 31
0.0
  0
LINE
  5
6D5
100
AcDbEntity
  8
LAY-3
  6
CONTINUOUS
 62
     2
100
AcDbLine
 10
331.403761
 20
556.825
 30
0.0
 11
334.225728
 21
556.825
 31
0.0
  0
LINE
  5
6D6
100
AcDbEntity
  8
LAY-3
  6
CONTINUOUS
 62
     2
100
AcDbLine
 10
335.018534
 20
556.825
 30
0.0
 11
337.855193
 21
556.825
 31
0.0
  0
LINE
  5
6D7
100
AcDbEntity
  8
LAY-3
  6
CONTINUOUS
 62
     2
100
AcDbLine
 10
343.525
 20
556.825
 30
0.0
 11
346.15
 21
556.825
 31
0.0
  0
LINE
  5
6D8
100
AcDbEntity
  8
LAY-3
  6
CONTINUOUS
 62
     2
100
AcDbLine
 10
354.7
 20
556.825
 30
0.0
 11
357.25
 21
556.825
 31
0.0
  0
LINE
  5
6D9
100
AcDbEntity
  8
LAY-3
  6
CONTINUOUS
 62
     2
100
AcDbLine
 10
360.032169
 20
556.825
 30
0.0
 11
362.185662
 21
556.825
 31
0.0
  0
LINE
  5
6DA
100
AcDbEntity
  8
LAY-3
  6
CONTINUOUS
 62
     2
100
AcDbLine
 10
362.5
 20
556.825
 30
0.0
 11
365.05
 21
556.825
 31
0.0
  0
LINE
  5
6DB
100
AcDbEntity
  8
LAY-3
  6
CONTINUOUS
 62
     2
100
AcDbLine
 10
313.0
 20
556.45
 30
0.0
 11
315.625
 21
556.45
 31
0.0
  0
LINE
  5
6DC
100
AcDbEntity
  8
LAY-3
  6
CONTINUOUS
 62
     2
100
AcDbLine
 10
318.875041
 20
556.45
 30
0.0
 11
321.756584
 21
556.45
 31
0.0
  0
LINE
  5
6DD
100
AcDbEntity
  8
LAY-3
  6
CONTINUOUS
 62
     2
100
AcDbLine
 10
323.223092
 20
556.45
 30
0.0
 11
329.776908
 21
556.45
 31
0.0
  0
LINE
  5
6DE
100
AcDbEntity
  8
LAY-3
  6
CONTINUOUS
 62
     2
100
AcDbLine
 10
331.243416
 20
556.45
 30
0.0
 11
334.124959
 21
556.45
 31
0.0
  0
LINE
  5
6DF
100
AcDbEntity
  8
LAY-3
  6
CONTINUOUS
 62
     2
100
AcDbLine
 10
334.92725
 20
556.45
 30
0.0
 11
337.517131
 21
556.45
 31
0.0
  0
LINE
  5
6E0
100
AcDbEntity
  8
LAY-3
  6
CONTINUOUS
 62
     2
100
AcDbLine
 10
343.525
 20
556.45
 30
0.0
 11
346.15
 21
556.45
 31
0.0
  0
LINE
  5
6E1
100
AcDbEntity
  8
LAY-3
  6
CONTINUOUS
 62
     2
100
AcDbLine
 10
354.7
 20
556.45
 30
0.0
 11
357.25
 21
556.45
 31
0.0
  0
LINE
  5
6E2
100
AcDbEntity
  8
LAY-3
  6
CONTINUOUS
 62
     2
100
AcDbLine
 10
360.278952
 20
556.45
 30
0.0
 11
362.432445
 21
556.45
 31
0.0
  0
LINE
  5
6E3
100
AcDbEntity
  8
LAY-3
  6
CONTINUOUS
 62
     2
100
AcDbLine
 10
362.5
 20
556.45
 30
0.0
 11
365.05
 21
556.45
 31
0.0
  0
LINE
  5
6E4
100
AcDbEntity
  8
LAY-3
  6
CONTINUOUS
 62
     2
100
AcDbLine
 10
313.0
 20
556.075
 30
0.0
 11
315.625
 21
556.075
 31
0.0
  0
LINE
  5
6E5
100
AcDbEntity
  8
LAY-3
  6
CONTINUOUS
 62
     2
100
AcDbLine
 10
318.995876
 20
556.075
 30
0.0
 11
321.953367
 21
556.075
 31
0.0
  0
LINE
  5
6E6
100
AcDbEntity
  8
LAY-3
  6
CONTINUOUS
 62
     2
100
AcDbLine
 10
323.515038
 20
556.075
 30
0.0
 11
329.484962
 21
556.075
 31
0.0
  0
LINE
  5
6E7
100
AcDbEntity
  8
LAY-3
  6
CONTINUOUS
 62
     2
100
AcDbLine
 10
331.046633
 20
556.075
 30
0.0
 11
334.004124
 21
556.075
 31
0.0
  0
LINE
  5
6E8
100
AcDbEntity
  8
LAY-3
  6
CONTINUOUS
 62
     2
100
AcDbLine
 10
334.818078
 20
556.075
 30
0.0
 11
337.179069
 21
556.075
 31
0.0
  0
LINE
  5
6E9
100
AcDbEntity
  8
LAY-3
  6
CONTINUOUS
 62
     2
100
AcDbLine
 10
343.525
 20
556.075
 30
0.0
 11
346.15
 21
556.075
 31
0.0
  0
LINE
  5
6EA
100
AcDbEntity
  8
LAY-3
  6
CONTINUOUS
 62
     2
100
AcDbLine
 10
354.7
 20
556.075
 30
0.0
 11
357.25
 21
556.075
 31
0.0
  0
LINE
  5
6EB
100
AcDbEntity
  8
LAY-3
  6
CONTINUOUS
 62
     2
100
AcDbLine
 10
360.525735
 20
556.075
 30
0.0
 11
365.05
 21
556.075
 31
0.0
  0
LINE
  5
6EC
100
AcDbEntity
  8
LAY-3
  6
CONTINUOUS
 62
     2
100
AcDbLine
 10
313.0
 20
555.7
 30
0.0
 11
315.625
 21
555.7
 31
0.0
  0
LINE
  5
6ED
100
AcDbEntity
  8
LAY-3
  6
CONTINUOUS
 62
     2
100
AcDbLine
 10
319.137765
 20
555.7
 30
0.0
 11
322.191578
 21
555.7
 31
0.0
  0
LINE
  5
6EE
100
AcDbEntity
  8
LAY-3
  6
CONTINUOUS
 62
     2
100
AcDbLine
 10
323.892199
 20
555.7
 30
0.0
 11
329.107801
 21
555.7
 31
0.0
  0
LINE
  5
6EF
100
AcDbEntity
  8
LAY-3
  6
CONTINUOUS
 62
     2
100
AcDbLine
 10
330.808422
 20
555.7
 30
0.0
 11
333.862235
 21
555.7
 31
0.0
  0
LINE
  5
6F0
100
AcDbEntity
  8
LAY-3
  6
CONTINUOUS
 62
     2
100
AcDbLine
 10
334.690302
 20
555.7
 30
0.0
 11
342.25
 21
555.7
 31
0.0
  0
LINE
  5
6F1
100
AcDbEntity
  8
LAY-3
  6
CONTINUOUS
 62
     2
100
AcDbLine
 10
343.525
 20
555.7
 30
0.0
 11
353.575
 21
555.7
 31
0.0
  0
LINE
  5
6F2
100
AcDbEntity
  8
LAY-3
  6
CONTINUOUS
 62
     2
100
AcDbLine
 10
354.7
 20
555.7
 30
0.0
 11
357.25
 21
555.7
 31
0.0
  0
LINE
  5
6F3
100
AcDbEntity
  8
LAY-3
  6
CONTINUOUS
 62
     2
100
AcDbLine
 10
360.772518
 20
555.7
 30
0.0
 11
365.05
 21
555.7
 31
0.0
  0
LINE
  5
6F4
100
AcDbEntity
  8
LAY-3
  6
CONTINUOUS
 62
     2
100
AcDbLine
 10
313.0
 20
555.325
 30
0.0
 11
315.625
 21
555.325
 31
0.0
  0
LINE
  5
6F5
100
AcDbEntity
  8
LAY-3
  6
CONTINUOUS
 62
     2
100
AcDbLine
 10
319.301953
 20
555.325
 30
0.0
 11
322.478573
 21
555.325
 31
0.0
  0
LINE
  5
6F6
100
AcDbEntity
  8
LAY-3
  6
CONTINUOUS
 62
     2
100
AcDbLine
 10
324.4
 20
555.325
 30
0.0
 11
328.6
 21
555.325
 31
0.0
  0
LINE
  5
6F7
100
AcDbEntity
  8
LAY-3
  6
CONTINUOUS
 62
     2
100
AcDbLine
 10
330.521427
 20
555.325
 30
0.0
 11
333.698047
 21
555.325
 31
0.0
  0
LINE
  5
6F8
100
AcDbEntity
  8
LAY-3
  6
CONTINUOUS
 62
     2
100
AcDbLine
 10
334.543036
 20
555.325
 30
0.0
 11
342.25
 21
555.325
 31
0.0
  0
LINE
  5
6F9
100
AcDbEntity
  8
LAY-3
  6
CONTINUOUS
 62
     2
100
AcDbLine
 10
343.525
 20
555.325
 30
0.0
 11
353.575
 21
555.325
 31
0.0
  0
LINE
  5
6FA
100
AcDbEntity
  8
LAY-3
  6
CONTINUOUS
 62
     2
100
AcDbLine
 10
354.7
 20
555.325
 30
0.0
 11
357.25
 21
555.325
 31
0.0
  0
LINE
  5
6FB
100
AcDbEntity
  8
LAY-3
  6
CONTINUOUS
 62
     2
100
AcDbLine
 10
361.019301
 20
555.325
 30
0.0
 11
365.05
 21
555.325
 31
0.0
  0
LINE
  5
6FC
100
AcDbEntity
  8
LAY-3
  6
CONTINUOUS
 62
     2
100
AcDbLine
 10
313.0
 20
554.95
 30
0.0
 11
315.625
 21
554.95
 31
0.0
  0
LINE
  5
6FD
100
AcDbEntity
  8
LAY-3
  6
CONTINUOUS
 62
     2
100
AcDbLine
 10
319.490007
 20
554.95
 30
0.0
 11
322.825765
 21
554.95
 31
0.0
  0
LINE
  5
6FE
100
AcDbEntity
  8
LAY-3
  6
CONTINUOUS
 62
     2
100
AcDbLine
 10
325.18162
 20
554.95
 30
0.0
 11
327.81838
 21
554.95
 31
0.0
  0
LINE
  5
6FF
100
AcDbEntity
  8
LAY-3
  6
CONTINUOUS
 62
     2
100
AcDbLine
 10
330.174235
 20
554.95
 30
0.0
 11
333.509993
 21
554.95
 31
0.0
  0
LINE
  5
700
100
AcDbEntity
  8
LAY-3
  6
CONTINUOUS
 62
     2
100
AcDbLine
 10
334.375186
 20
554.95
 30
0.0
 11
342.25
 21
554.95
 31
0.0
  0
LINE
  5
701
100
AcDbEntity
  8
LAY-3
  6
CONTINUOUS
 62
     2
100
AcDbLine
 10
343.525
 20
554.95
 30
0.0
 11
353.575
 21
554.95
 31
0.0
  0
LINE
  5
702
100
AcDbEntity
  8
LAY-3
  6
CONTINUOUS
 62
     2
100
AcDbLine
 10
354.7
 20
554.95
 30
0.0
 11
357.25
 21
554.95
 31
0.0
  0
LINE
  5
703
100
AcDbEntity
  8
LAY-3
  6
CONTINUOUS
 62
     2
100
AcDbLine
 10
361.266085
 20
554.95
 30
0.0
 11
365.05
 21
554.95
 31
0.0
  0
LINE
  5
704
100
AcDbEntity
  8
LAY-3
  6
CONTINUOUS
 62
     2
100
AcDbLine
 10
313.0
 20
554.575
 30
0.0
 11
315.625
 21
554.575
 31
0.0
  0
LINE
  5
705
100
AcDbEntity
  8
LAY-3
  6
CONTINUOUS
 62
     2
100
AcDbLine
 10
319.703907
 20
554.575
 30
0.0
 11
323.252405
 21
554.575
 31
0.0
  0
LINE
  5
706
100
AcDbEntity
  8
LAY-3
  6
CONTINUOUS
 62
     2
100
AcDbLine
 10
329.747595
 20
554.575
 30
0.0
 11
333.296093
 21
554.575
 31
0.0
  0
LINE
  5
707
100
AcDbEntity
  8
LAY-3
  6
CONTINUOUS
 62
     2
100
AcDbLine
 10
334.185403
 20
554.575
 30
0.0
 11
342.25
 21
554.575
 31
0.0
  0
LINE
  5
708
100
AcDbEntity
  8
LAY-3
  6
CONTINUOUS
 62
     2
100
AcDbLine
 10
343.525
 20
554.575
 30
0.0
 11
353.575
 21
554.575
 31
0.0
  0
LINE
  5
709
100
AcDbEntity
  8
LAY-3
  6
CONTINUOUS
 62
     2
100
AcDbLine
 10
354.7
 20
554.575
 30
0.0
 11
357.25
 21
554.575
 31
0.0
  0
LINE
  5
70A
100
AcDbEntity
  8
LAY-3
  6
CONTINUOUS
 62
     2
100
AcDbLine
 10
361.512868
 20
554.575
 30
0.0
 11
365.05
 21
554.575
 31
0.0
  0
LINE
  5
70B
100
AcDbEntity
  8
LAY-3
  6
CONTINUOUS
 62
     2
100
AcDbLine
 10
313.0
 20
554.2
 30
0.0
 11
315.625
 21
554.2
 31
0.0
  0
LINE
  5
70C
100
AcDbEntity
  8
LAY-3
  6
CONTINUOUS
 62
     2
100
AcDbLine
 10
319.946184
 20
554.2
 30
0.0
 11
323.795837
 21
554.2
 31
0.0
  0
LINE
  5
70D
100
AcDbEntity
  8
LAY-3
  6
CONTINUOUS
 62
     2
100
AcDbLine
 10
329.204163
 20
554.2
 30
0.0
 11
333.053816
 21
554.2
 31
0.0
  0
LINE
  5
70E
100
AcDbEntity
  8
LAY-3
  6
CONTINUOUS
 62
     2
100
AcDbLine
 10
333.972018
 20
554.2
 30
0.0
 11
342.25
 21
554.2
 31
0.0
  0
LINE
  5
70F
100
AcDbEntity
  8
LAY-3
  6
CONTINUOUS
 62
     2
100
AcDbLine
 10
343.525
 20
554.2
 30
0.0
 11
353.575
 21
554.2
 31
0.0
  0
LINE
  5
710
100
AcDbEntity
  8
LAY-3
  6
CONTINUOUS
 62
     2
100
AcDbLine
 10
354.7
 20
554.2
 30
0.0
 11
357.25
 21
554.2
 31
0.0
  0
LINE
  5
711
100
AcDbEntity
  8
LAY-3
  6
CONTINUOUS
 62
     2
100
AcDbLine
 10
361.759651
 20
554.2
 30
0.0
 11
365.05
 21
554.2
 31
0.0
  0
LINE
  5
712
100
AcDbEntity
  8
LAY-3
  6
CONTINUOUS
 62
     2
100
AcDbLine
 10
313.0
 20
553.825
 30
0.0
 11
315.625
 21
553.825
 31
0.0
  0
LINE
  5
713
100
AcDbEntity
  8
LAY-3
  6
CONTINUOUS
 62
     2
100
AcDbLine
 10
320.220121
 20
553.825
 30
0.0
 11
324.551443
 21
553.825
 31
0.0
  0
LINE
  5
714
100
AcDbEntity
  8
LAY-3
  6
CONTINUOUS
 62
     2
100
AcDbLine
 10
328.448557
 20
553.825
 30
0.0
 11
332.779879
 21
553.825
 31
0.0
  0
LINE
  5
715
100
AcDbEntity
  8
LAY-3
  6
CONTINUOUS
 62
     2
100
AcDbLine
 10
333.73294
 20
553.825
 30
0.0
 11
342.25
 21
553.825
 31
0.0
  0
LINE
  5
716
100
AcDbEntity
  8
LAY-3
  6
CONTINUOUS
 62
     2
100
AcDbLine
 10
343.525
 20
553.825
 30
0.0
 11
353.575
 21
553.825
 31
0.0
  0
LINE
  5
717
100
AcDbEntity
  8
LAY-3
  6
CONTINUOUS
 62
     2
100
AcDbLine
 10
354.7
 20
553.825
 30
0.0
 11
357.25
 21
553.825
 31
0.0
  0
LINE
  5
718
100
AcDbEntity
  8
LAY-3
  6
CONTINUOUS
 62
     2
100
AcDbLine
 10
362.006434
 20
553.825
 30
0.0
 11
365.05
 21
553.825
 31
0.0
  0
LINE
  5
719
100
AcDbEntity
  8
LAY-3
  6
CONTINUOUS
 62
     2
100
AcDbLine
 10
313.0
 20
553.45
 30
0.0
 11
315.625
 21
553.45
 31
0.0
  0
LINE
  5
71A
100
AcDbEntity
  8
LAY-3
  6
CONTINUOUS
 62
     2
100
AcDbLine
 10
320.530075
 20
553.45
 30
0.0
 11
332.469925
 21
553.45
 31
0.0
  0
LINE
  5
71B
100
AcDbEntity
  8
LAY-3
  6
CONTINUOUS
 62
     2
100
AcDbLine
 10
333.465526
 20
553.45
 30
0.0
 11
342.25
 21
553.45
 31
0.0
  0
LINE
  5
71C
100
AcDbEntity
  8
LAY-3
  6
CONTINUOUS
 62
     2
100
AcDbLine
 10
343.525
 20
553.45
 30
0.0
 11
353.575
 21
553.45
 31
0.0
  0
LINE
  5
71D
100
AcDbEntity
  8
LAY-3
  6
CONTINUOUS
 62
     2
100
AcDbLine
 10
354.7
 20
553.45
 30
0.0
 11
357.25
 21
553.45
 31
0.0
  0
LINE
  5
71E
100
AcDbEntity
  8
LAY-3
  6
CONTINUOUS
 62
     2
100
AcDbLine
 10
362.253217
 20
553.45
 30
0.0
 11
365.05
 21
553.45
 31
0.0
  0
LINE
  5
71F
100
AcDbEntity
  8
LAY-3
  6
CONTINUOUS
 62
     2
100
AcDbLine
 10
320.882004
 20
553.075
 30
0.0
 11
332.117996
 21
553.075
 31
0.0
  0
LINE
  5
720
100
AcDbEntity
  8
LAY-3
  6
CONTINUOUS
 62
     2
100
AcDbLine
 10
321.284398
 20
552.7
 30
0.0
 11
331.715602
 21
552.7
 31
0.0
  0
LINE
  5
721
100
AcDbEntity
  8
LAY-3
  6
CONTINUOUS
 62
     2
100
AcDbLine
 10
321.750066
 20
552.325
 30
0.0
 11
331.249934
 21
552.325
 31
0.0
  0
LINE
  5
722
100
AcDbEntity
  8
LAY-3
  6
CONTINUOUS
 62
     2
100
AcDbLine
 10
322.3
 20
551.95
 30
0.0
 11
330.7
 21
551.95
 31
0.0
  0
LINE
  5
723
100
AcDbEntity
  8
LAY-3
  6
CONTINUOUS
 62
     2
100
AcDbLine
 10
322.973405
 20
551.575
 30
0.0
 11
330.026595
 21
551.575
 31
0.0
  0
LINE
  5
724
100
AcDbEntity
  8
LAY-3
  6
CONTINUOUS
 62
     2
100
AcDbLine
 10
323.863241
 20
551.2
 30
0.0
 11
329.136759
 21
551.2
 31
0.0
  0
LINE
  5
725
100
AcDbEntity
  8
LAY-3
  6
CONTINUOUS
 62
     2
100
AcDbLine
 10
325.410562
 20
550.825
 30
0.0
 11
327.589438
 21
550.825
 31
0.0
  0
LINE
  5
726
100
AcDbEntity
  8
LAY-3
  6
CONTINUOUS
 62
     2
100
AcDbLine
 10
346.15
 20
561.7
 30
0.0
 11
346.15
 21
559.825
 31
0.0
  0
LINE
  5
727
100
AcDbEntity
  8
LAY-3
  6
CONTINUOUS
 62
     2
100
AcDbLine
 10
336.841006
 20
555.7
 30
0.0
 11
342.25
 21
555.7
 31
0.0
  0
LINE
  5
728
100
AcDbEntity
  8
LAY-3
  6
CONTINUOUS
 62
     2
100
AcDbLine
 10
333.166365
 20
553.075
 30
0.0
 11
342.25
 21
553.075
 31
0.0
  0
LINE
  5
729
100
AcDbEntity
  8
LAY-3
  6
CONTINUOUS
 62
     2
100
AcDbLine
 10
334.690302
 20
561.7
 30
0.0
 11
339.357281
 21
561.7
 31
0.0
  0
LINE
  5
72A
100
AcDbEntity
  8
LAY-3
  6
CONTINUOUS
 62
     2
100
AcDbLine
 10
333.166365
 20
564.325
 30
0.0
 11
342.25
 21
564.325
 31
0.0
  0
LINE
  5
72B
100
AcDbEntity
  8
LAY-3
  6
CONTINUOUS
 62
     2
100
AcDbLine
 10
307.75
 20
564.325
 30
0.0
 11
319.833635
 21
564.325
 31
0.0
  0
LINE
  5
72C
100
AcDbEntity
  8
LAY-3
  6
CONTINUOUS
 62
     2
100
AcDbLine
 10
315.625
 20
561.7
 30
0.0
 11
318.309698
 21
561.7
 31
0.0
  0
LINE
  5
72D
100
AcDbEntity
  8
LAY-3
  6
CONTINUOUS
 62
     2
100
AcDbLine
 10
307.75
 20
561.7
 30
0.0
 11
313.0
 21
561.7
 31
0.0
  0
LINE
  5
72E
100
AcDbEntity
  8
LAY-3
  6
CONTINUOUS
 62
     2
100
AcDbLine
 10
362.5
 20
564.325
 30
0.0
 11
362.5
 21
556.347346
 31
0.0
  0
LINE
  5
72F
100
AcDbEntity
  8
LAY-3
  6
CONTINUOUS
 62
     2
100
AcDbLine
 10
362.5
 20
553.075
 30
0.0
 11
365.05
 21
553.075
 31
0.0
  0
LINE
  5
730
100
AcDbEntity
  8
LAY-3
  6
CONTINUOUS
 62
     2
100
AcDbLine
 10
354.7
 20
553.075
 30
0.0
 11
357.25
 21
553.075
 31
0.0
  0
LINE
  5
731
100
AcDbEntity
  8
LAY-3
  6
CONTINUOUS
 62
     2
100
AcDbLine
 10
362.5
 20
564.325
 30
0.0
 11
365.05
 21
564.325
 31
0.0
  0
LINE
  5
732
100
AcDbEntity
  8
LAY-3
  6
CONTINUOUS
 62
     2
100
AcDbLine
 10
354.7
 20
564.325
 30
0.0
 11
357.25
 21
564.325
 31
0.0
  0
LINE
  5
733
100
AcDbEntity
  8
LAY-3
  6
CONTINUOUS
 62
     2
100
AcDbLine
 10
357.25
 20
561.052654
 30
0.0
 11
357.25
 21
553.075
 31
0.0
  0
LINE
  5
734
100
AcDbEntity
  8
LAY-3
  6
CONTINUOUS
 62
     2
100
AcDbLine
 10
346.15
 20
555.7
 30
0.0
 11
353.575
 21
555.7
 31
0.0
  0
LINE
  5
735
100
AcDbEntity
  8
LAY-3
  6
CONTINUOUS
 62
     2
100
AcDbLine
 10
343.525
 20
553.075
 30
0.0
 11
353.575
 21
553.075
 31
0.0
  0
LINE
  5
736
100
AcDbEntity
  8
LAY-3
  6
CONTINUOUS
 62
     2
100
AcDbLine
 10
346.15
 20
557.575
 30
0.0
 11
346.15
 21
555.7
 31
0.0
  0
LINE
  5
737
100
AcDbEntity
  8
LAY-3
  6
CONTINUOUS
 62
     2
100
AcDbLine
 10
343.525
 20
564.325
 30
0.0
 11
353.575
 21
564.325
 31
0.0
  0
LINE
  5
738
100
AcDbEntity
  8
LAY-3
  6
CONTINUOUS
 62
     2
100
AcDbLine
 10
346.15
 20
561.7
 30
0.0
 11
353.575
 21
561.7
 31
0.0
  0
LINE
  5
739
100
AcDbEntity
  8
LAY-3
  6
CONTINUOUS
 62
     2
100
AcDbLine
 10
353.575
 20
555.7
 30
0.0
 11
353.575
 21
553.075
 31
0.0
  0
LINE
  5
73A
100
AcDbEntity
  8
LAY-3
  6
CONTINUOUS
 62
     2
100
AcDbLine
 10
353.575
 20
559.825
 30
0.0
 11
353.575
 21
557.575
 31
0.0
  0
LINE
  5
73B
100
AcDbEntity
  8
LAY-3
  6
CONTINUOUS
 62
     2
100
AcDbLine
 10
353.575
 20
564.325
 30
0.0
 11
353.575
 21
561.7
 31
0.0
  0
LINE
  5
73C
100
AcDbEntity
  8
LAY-3
  6
CONTINUOUS
 62
     2
100
AcDbLine
 10
357.25
 20
564.325
 30
0.0
 11
362.5
 21
556.347346
 31
0.0
  0
LINE
  5
73D
100
AcDbEntity
  8
LAY-3
  6
CONTINUOUS
 62
     2
100
AcDbLine
 10
362.5
 20
553.075
 30
0.0
 11
357.25
 21
561.052654
 31
0.0
  0
LINE
  5
73E
100
AcDbEntity
  8
LAY-3
  6
CONTINUOUS
 62
     2
100
AcDbLine
 10
365.05
 20
564.325
 30
0.0
 11
365.05
 21
553.075
 31
0.0
  0
LINE
  5
73F
100
AcDbEntity
  8
LAY-3
  6
CONTINUOUS
 62
     2
100
AcDbLine
 10
354.7
 20
564.325
 30
0.0
 11
354.7
 21
553.075
 31
0.0
  0
LINE
  5
740
100
AcDbEntity
  8
LAY-3
  6
CONTINUOUS
 62
     2
100
AcDbLine
 10
346.15
 20
557.575
 30
0.0
 11
353.575
 21
557.575
 31
0.0
  0
LINE
  5
741
100
AcDbEntity
  8
LAY-3
  6
CONTINUOUS
 62
     2
100
AcDbLine
 10
346.15
 20
559.825
 30
0.0
 11
353.575
 21
559.825
 31
0.0
  0
LINE
  5
742
100
AcDbEntity
  8
LAY-3
  6
CONTINUOUS
 62
     2
100
AcDbLine
 10
343.525
 20
564.325
 30
0.0
 11
343.525
 21
553.075
 31
0.0
  0
LINE
  5
743
100
AcDbEntity
  8
LAY-3
  6
CONTINUOUS
 62
     2
100
AcDbLine
 10
339.357281
 20
561.7
 30
0.0
 11
335.036102
 21
556.906673
 31
0.0
  0
LINE
  5
744
100
AcDbEntity
  8
LAY-3
  6
CONTINUOUS
 62
     2
100
AcDbLine
 10
342.25
 20
561.7
 30
0.0
 11
336.841006
 21
555.7
 31
0.0
  0
ARC
  5
745
100
AcDbEntity
  8
LAY-3
  6
CONTINUOUS
 62
     2
100
AcDbCircle
 10
326.5
 20
558.7
 30
0.0
 40
8.722445
100
AcDbArc
 50
319.842723
 51
348.135428
  0
LINE
  5
746
100
AcDbEntity
  8
LAY-3
  6
CONTINUOUS
 62
     2
100
AcDbLine
 10
342.25
 20
564.325
 30
0.0
 11
342.25
 21
561.7
 31
0.0
  0
LINE
  5
747
100
AcDbEntity
  8
LAY-3
  6
CONTINUOUS
 62
     2
100
AcDbLine
 10
342.25
 20
555.7
 30
0.0
 11
342.25
 21
553.075
 31
0.0
  0
ARC
  5
748
100
AcDbEntity
  8
LAY-3
  6
CONTINUOUS
 62
     2
100
AcDbCircle
 10
326.5
 20
558.7
 30
0.0
 40
8.722445
100
AcDbArc
 50
20.117118
 51
40.157277
  0
ARC
  5
749
100
AcDbEntity
  8
LAY-3
  6
CONTINUOUS
 62
     2
100
AcDbCircle
 10
326.5
 20
558.7
 30
0.0
 40
8.722445
100
AcDbArc
 50
139.842723
 51
159.882882
  0
LINE
  5
74A
100
AcDbEntity
  8
LAY-3
  6
CONTINUOUS
 62
     2
100
AcDbLine
 10
313.0
 20
553.075
 30
0.0
 11
315.625
 21
553.075
 31
0.0
  0
LINE
  5
74B
100
AcDbEntity
  8
LAY-3
  6
CONTINUOUS
 62
     2
100
AcDbLine
 10
307.75
 20
564.325
 30
0.0
 11
307.75
 21
561.7
 31
0.0
  0
CIRCLE
  5
74C
100
AcDbEntity
  8
LAY-3
  6
CONTINUOUS
 62
     2
100
AcDbCircle
 10
326.5
 20
558.7
 30
0.0
 40
7.95
  0
CIRCLE
  5
74D
100
AcDbEntity
  8
LAY-3
  6
CONTINUOUS
 62
     2
100
AcDbCircle
 10
326.5
 20
558.7
 30
0.0
 40
5.25
  0
CIRCLE
  5
74E
100
AcDbEntity
  8
LAY-3
  6
CONTINUOUS
 62
     2
100
AcDbCircle
 10
326.5
 20
558.7
 30
0.0
 40
3.975
  0
LINE
  5
74F
100
AcDbEntity
  8
LAY-3
  6
CONTINUOUS
 62
     2
100
AcDbLine
 10
315.625
 20
561.7
 30
0.0
 11
315.625
 21
553.075
 31
0.0
  0
LINE
  5
750
100
AcDbEntity
  8
LAY-3
  6
CONTINUOUS
 62
     2
100
AcDbLine
 10
313.0
 20
561.7
 30
0.0
 11
313.0
 21
553.075
 31
0.0
  0
LINE
  5
751
100
AcDbEntity
  8
LAY-3
  6
CONTINUOUS
 62
     2
100
AcDbLine
 10
717.557143
 20
546.7
 30
0.0
 11
717.557143
 21
400.2
 31
0.0
  0
LINE
  5
752
100
AcDbEntity
  8
LAY-3
  6
CONTINUOUS
 62
     2
100
AcDbLine
 10
606.114286
 20
546.7
 30
0.0
 11
606.114286
 21
400.2
 31
0.0
  0
LINE
  5
753
100
AcDbEntity
  8
LAY-3
  6
CONTINUOUS
 62
     2
100
AcDbLine
 10
494.671429
 20
546.7
 30
0.0
 11
494.671429
 21
400.2
 31
0.0
  0
LINE
  5
754
100
AcDbEntity
  8
LAY-3
  6
CONTINUOUS
 62
     2
100
AcDbLine
 10
383.228571
 20
546.7
 30
0.0
 11
383.228571
 21
400.2
 31
0.0
  0
LINE
  5
755
100
AcDbEntity
  8
LAY-3
  6
CONTINUOUS
 62
     2
100
AcDbLine
 10
271.785714
 20
546.7
 30
0.0
 11
271.785714
 21
400.2
 31
0.0
  0
LINE
  5
756
100
AcDbEntity
  8
LAY-3
  6
CONTINUOUS
 62
     2
100
AcDbLine
 10
160.342857
 20
546.7
 30
0.0
 11
160.342857
 21
400.2
 31
0.0
  0
LINE
  5
757
100
AcDbEntity
  8
LAY-3
  6
CONTINUOUS
 62
     2
100
AcDbLine
 10
48.9
 20
546.7
 30
0.0
 11
829.0
 21
546.7
 31
0.0
  0
LINE
  5
758
100
AcDbEntity
  8
LAY-3
  6
CONTINUOUS
 62
     2
100
AcDbLine
 10
48.9
 20
536.7
 30
0.0
 11
829.0
 21
536.7
 31
0.0
  0
POINT
  5
759
100
AcDbEntity
  8
LAY-3
  6
CONTINUOUS
 62
     2
100
AcDbPoint
 10
829.0
 20
546.7
 30
0.0
  0
LINE
  5
75A
100
AcDbEntity
  8
LAY-3
  6
CONTINUOUS
 62
     2
100
AcDbLine
 10
48.9
 20
490.2
 30
0.0
 11
829.0
 21
490.2
 31
0.0
  0
LINE
  5
75B
100
AcDbEntity
  8
LAY-3
  6
CONTINUOUS
 62
     2
100
AcDbLine
 10
48.9
 20
480.2
 30
0.0
 11
828.5
 21
480.2
 31
0.0
  0
LINE
  5
75C
100
AcDbEntity
  8
LAY-3
  6
CONTINUOUS
 62
     2
100
AcDbLine
 10
48.9
 20
400.2
 30
0.0
 11
828.5
 21
400.2
 31
0.0
  0
LINE
  5
75D
100
AcDbEntity
  8
LAY-3
  6
CONTINUOUS
 62
     2
100
AcDbLine
 10
48.9
 20
390.2
 30
0.0
 11
829.0
 21
390.2
 31
0.0
  0
LINE
  5
75E
100
AcDbEntity
  8
LAY-3
  6
CONTINUOUS
 62
     2
100
AcDbLine
 10
48.9
 20
570.0
 30
0.0
 11
48.9
 21
10.2
 31
0.0
  0
LINE
  5
75F
100
AcDbEntity
  8
LAY-3
  6
CONTINUOUS
 62
     2
100
AcDbLine
 10
829.0
 20
10.2
 30
0.0
 11
829.0
 21
570.0
 31
0.0
  0
LINE
  5
760
100
AcDbEntity
  8
LAY-3
  6
CONTINUOUS
 62
     2
100
AcDbLine
 10
48.9
 20
220.2
 30
0.0
 11
829.0
 21
220.2
 31
0.0
  0
LINE
  5
761
100
AcDbEntity
  8
LAY-3
  6
CONTINUOUS
 62
     2
100
AcDbLine
 10
48.9
 20
210.2
 30
0.0
 11
829.0
 21
210.2
 31
0.0
  0
LINE
  5
762
100
AcDbEntity
  8
LAY-3
  6
CONTINUOUS
 62
     2
100
AcDbLine
 10
829.0
 20
570.0
 30
0.0
 11
48.9
 21
570.0
 31
0.0
  0
LINE
  5
763
100
AcDbEntity
  8
LAY-3
  6
EXLTYPE3
 62
     1
100
AcDbLine
 10
142.7
 20
513.4
 30
0.0
 11
66.052705
 21
513.4
 31
0.0
  0
LINE
  5
764
100
AcDbEntity
  8
LAY-3
  6
EXLTYPE3
 62
     1
100
AcDbLine
 10
150.0
 20
440.0
 30
0.0
 11
63.352705
 21
440.0
 31
0.0
  0
LINE
  5
765
100
AcDbEntity
  8
LAY-3
  6
EXLTYPE3
 62
     1
100
AcDbLine
 10
261.442857
 20
440.0
 30
0.0
 11
174.795562
 21
440.0
 31
0.0
  0
LINE
  5
766
100
AcDbEntity
  8
LAY-3
  6
EXLTYPE3
 62
     1
100
AcDbLine
 10
254.142857
 20
513.4
 30
0.0
 11
177.495562
 21
513.4
 31
0.0
  0
LINE
  5
767
100
AcDbEntity
  8
LAY-3
  6
EXLTYPE3
 62
     1
100
AcDbLine
 10
365.585714
 20
513.4
 30
0.0
 11
288.93842
 21
513.4
 31
0.0
  0
LINE
  5
768
100
AcDbEntity
  8
LAY-3
  6
EXLTYPE3
 62
     1
100
AcDbLine
 10
372.885714
 20
440.0
 30
0.0
 11
286.23842
 21
440.0
 31
0.0
  0
LINE
  5
769
100
AcDbEntity
  8
LAY-3
  6
EXLTYPE3
 62
     1
100
AcDbLine
 10
484.328571
 20
440.0
 30
0.0
 11
397.681277
 21
440.0
 31
0.0
  0
LINE
  5
76A
100
AcDbEntity
  8
LAY-3
  6
EXLTYPE3
 62
     1
100
AcDbLine
 10
477.028571
 20
513.4
 30
0.0
 11
400.381277
 21
513.4
 31
0.0
  0
LINE
  5
76B
100
AcDbEntity
  8
LAY-3
  6
EXLTYPE3
 62
     1
100
AcDbLine
 10
588.471429
 20
513.4
 30
0.0
 11
511.824134
 21
513.4
 31
0.0
  0
LINE
  5
76C
100
AcDbEntity
  8
LAY-3
  6
EXLTYPE3
 62
     1
100
AcDbLine
 10
603.871429
 20
440.0
 30
0.0
 11
497.224134
 21
440.0
 31
0.0
  0
LINE
  5
76D
100
AcDbEntity
  8
LAY-3
  6
EXLTYPE3
 62
     1
100
AcDbLine
 10
714.314286
 20
440.0
 30
0.0
 11
609.166991
 21
440.0
 31
0.0
  0
LINE
  5
76E
100
AcDbEntity
  8
LAY-3
  6
EXLTYPE3
 62
     1
100
AcDbLine
 10
699.914286
 20
513.4
 30
0.0
 11
623.266991
 21
513.4
 31
0.0
  0
LINE
  5
76F
100
AcDbEntity
  8
LAY-3
  6
EXLTYPE3
 62
     1
100
AcDbLine
 10
811.357143
 20
513.4
 30
0.0
 11
734.709848
 21
513.4
 31
0.0
  0
LINE
  5
770
100
AcDbEntity
  8
LAY-3
  6
EXLTYPE3
 62
     1
100
AcDbLine
 10
825.757143
 20
440.0
 30
0.0
 11
720.609848
 21
440.0
 31
0.0
  0
LINE
  5
771
100
AcDbEntity
  8
LAY-3
  6
EXLTYPE3
 62
     1
100
AcDbLine
 10
817.3
 20
304.9
 30
0.0
 11
689.3
 21
304.9
 31
0.0
  0
LINE
  5
772
100
AcDbEntity
  8
LAY-3
  6
EXLTYPE3
 62
     1
100
AcDbLine
 10
648.55648
 20
305.0
 30
0.0
 11
538.409185
 21
305.0
 31
0.0
  0
LINE
  5
773
100
AcDbEntity
  8
LAY-3
  6
EXLTYPE3
 62
     1
100
AcDbLine
 10
494.45648
 20
304.9
 30
0.0
 11
384.309185
 21
304.9
 31
0.0
  0
LINE
  5
774
100
AcDbEntity
  8
LAY-3
  6
EXLTYPE3
 62
     1
100
AcDbLine
 10
337.742857
 20
304.8
 30
0.0
 11
227.595562
 21
304.8
 31
0.0
  0
LINE
  5
775
100
AcDbEntity
  8
LAY-3
  6
EXLTYPE3
 62
     1
100
AcDbLine
 10
177.7
 20
305.2
 30
0.0
 11
67.552705
 21
305.2
 31
0.0
  0
LINE
  5
776
100
AcDbEntity
  8
LAY-3
  6
EXLTYPE3
 62
     1
100
AcDbLine
 10
191.192194
 20
107.4
 30
0.0
 11
56.792194
 21
107.4
 31
0.0
  0
LINE
  5
777
100
AcDbEntity
  8
LAY-3
  6
EXLTYPE3
 62
     1
100
AcDbLine
 10
341.792194
 20
107.2
 30
0.0
 11
218.4
 21
107.2
 31
0.0
  0
LINE
  5
778
100
AcDbEntity
  8
LAY-3
  6
EXLTYPE3
 62
     1
100
AcDbLine
 10
493.364286
 20
108.4
 30
0.0
 11
368.464286
 21
108.4
 31
0.0
  0
LINE
  5
779
100
AcDbEntity
  8
LAY-3
  6
EXLTYPE3
 62
     1
100
AcDbLine
 10
656.864286
 20
107.9
 30
0.0
 11
531.964286
 21
107.9
 31
0.0
  0
LINE
  5
77A
100
AcDbEntity
  8
LAY-3
  6
EXLTYPE3
 62
     1
100
AcDbLine
 10
816.792194
 20
108.4
 30
0.0
 11
688.142194
 21
108.4
 31
0.0
  0
ENDSEC
  0
SECTION
  2
OBJECTS
  0
DICTIONARY
  5
19
100
AcDbDictionary
  3
ACAD_GROUP
350
1A
  3
ACAD_MLINESTYLE
350
1B
  0
DICTIONARY
  5
1A
102
{ACAD_REACTORS
330
19
102
}
100
AcDbDictionary
  0
DICTIONARY
  5
1B
102
{ACAD_REACTORS
330
19
102
}
100
AcDbDictionary
  3
STANDARD
350
1C
  0
MLINESTYLE
  5
1C
102
{ACAD_REACTORS
330
1B
102
}
100
AcDbMlineStyle
  2
Standard
 70
     0
  3

 62
     0
 51
90.0
 52
90.0
 71
     2
 49
0.5
 62
   256
  6
ByLayer
 49
-0.5
 62
   256
  6
ByLayer
  0
ENDSEC
  0
EOF
