  0
SECTION
  2
HEADER
  9
$ACADVER
  1
AC1014
  9
$ACADMAINTVER
 70
     0
  9
$DWGCODEPAGE
  3
DOS932
  9
$INSBASE
 10
0.0
 20
0.0
 30
0.0
  9
$EXTMIN
 10
30.5
 20
-29.3
 30
0.0
  9
$EXTMAX
 10
810.6
 20
557.5
 30
0.0
  9
$LIMMIN
 10
0.0
 20
0.0
  9
$LIMMAX
 10
841.0
 20
594.0
  9
$ORTHOMODE
 70
     0
  9
$REGENMODE
 70
     1
  9
$FILLMODE
 70
     1
  9
$QTEXTMODE
 70
     0
  9
$MIRRTEXT
 70
     1
  9
$DRAGMODE
 70
     2
  9
$LTSCALE
 40
1.0
  9
$OSMODE
 70
     0
  9
$ATTMODE
 70
     1
  9
$TEXTSIZE
 40
0.2
  9
$TRACEWID
 40
0.05
  9
$TEXTSTYLE
  7
STANDARD
  9
$CLAYER
  8
LAY-2
  9
$CELTYPE
  6
CONTINUOUS
  9
$CECOLOR
 62
   256
  9
$CELTSCALE
 40
1.0
  9
$DELOBJ
 70
     1
  9
$DISPSILH
 70
     0
  9
$DIMSCALE
 40
1.0
  9
$DIMASZ
 40
0.18
  9
$DIMEXO
 40
0.0625
  9
$DIMDLI
 40
0.38
  9
$DIMRND
 40
0.0
  9
$DIMDLE
 40
0.0
  9
$DIMEXE
 40
0.18
  9
$DIMTP
 40
0.0
  9
$DIMTM
 40
0.0
  9
$DIMTXT
 40
0.18
  9
$DIMCEN
 40
0.09
  9
$DIMTSZ
 40
0.0
  9
$DIMTOL
 70
     0
  9
$DIMLIM
 70
     0
  9
$DIMTIH
 70
     1
  9
$DIMTOH
 70
     1
  9
$DIMSE1
 70
     0
  9
$DIMSE2
 70
     0
  9
$DIMTAD
 70
     0
  9
$DIMZIN
 70
     0
  9
$DIMBLK
  1

  9
$DIMASO
 70
     1
  9
$DIMSHO
 70
     1
  9
$DIMPOST
  1

  9
$DIMAPOST
  1

  9
$DIMALT
 70
     0
  9
$DIMALTD
 70
     2
  9
$DIMALTF
 40
25.4
  9
$DIMLFAC
 40
1.0
  9
$DIMTOFL
 70
     0
  9
$DIMTVP
 40
0.0
  9
$DIMTIX
 70
     0
  9
$DIMSOXD
 70
     0
  9
$DIMSAH
 70
     0
  9
$DIMBLK1
  1

  9
$DIMBLK2
  1

  9
$DIMSTYLE
  2
STANDARD
  9
$DIMCLRD
 70
     0
  9
$DIMCLRE
 70
     0
  9
$DIMCLRT
 70
     0
  9
$DIMTFAC
 40
1.0
  9
$DIMGAP
 40
0.09
  9
$DIMJUST
 70
     0
  9
$DIMSD1
 70
     0
  9
$DIMSD2
 70
     0
  9
$DIMTOLJ
 70
     1
  9
$DIMTZIN
 70
     0
  9
$DIMALTZ
 70
     0
  9
$DIMALTTZ
 70
     0
  9
$DIMFIT
 70
     3
  9
$DIMUPT
 70
     0
  9
$DIMUNIT
 70
     2
  9
$DIMDEC
 70
     4
  9
$DIMTDEC
 70
     4
  9
$DIMALTU
 70
     2
  9
$DIMALTTD
 70
     2
  9
$DIMTXSTY
  7
STANDARD
  9
$DIMAUNIT
 70
     0
  9
$LUNITS
 70
     2
  9
$LUPREC
 70
     4
  9
$SKETCHINC
 40
0.1
  9
$FILLETRAD
 40
0.0
  9
$AUNITS
 70
     0
  9
$AUPREC
 70
     0
  9
$MENU
  1
acad
  9
$ELEVATION
 40
0.0
  9
$PELEVATION
 40
0.0
  9
$THICKNESS
 40
0.0
  9
$LIMCHECK
 70
     0
  9
$BLIPMODE
 70
     1
  9
$CHAMFERA
 40
0.0
  9
$CHAMFERB
 40
0.0
  9
$CHAMFERC
 40
0.0
  9
$CHAMFERD
 40
0.0
  9
$SKPOLY
 70
     0
  9
$TDCREATE
 40
2453495.151576192
  9
$TDUPDATE
 40
2453495.151576192
  9
$TDINDWG
 40
0.0000000000
  9
$TDUSRTIMER
 40
0.0000000000
  9
$USRTIMER
 70
     1
  9
$ANGBASE
 50
0.0
  9
$ANGDIR
 70
     0
  9
$PDMODE
 70
     0
  9
$PDSIZE
 40
0.0
  9
$PLINEWID
 40
0.0
  9
$COORDS
 70
     1
  9
$SPLFRAME
 70
     0
  9
$SPLINETYPE
 70
     6
  9
$SPLINESEGS
 70
     8
  9
$ATTDIA
 70
     0
  9
$ATTREQ
 70
     1
  9
$HANDLING
 70
     1
  9
$HANDSEED
  5
6AE
  9
$SURFTAB1
 70
     6
  9
$SURFTAB2
 70
     6
  9
$SURFTYPE
 70
     6
  9
$SURFU
 70
     6
  9
$SURFV
 70
     6
  9
$UCSNAME
  2

  9
$UCSORG
 10
0.0
 20
0.0
 30
0.0
  9
$UCSXDIR
 10
1.0
 20
0.0
 30
0.0
  9
$UCSYDIR
 10
0.0
 20
1.0
 30
0.0
  9
$PUCSNAME
  2

  9
$PUCSORG
 10
0.0
 20
0.0
 30
0.0
  9
$PUCSXDIR
 10
1.0
 20
0.0
 30
0.0
  9
$PUCSYDIR
 10
0.0
 20
1.0
 30
0.0
  9
$USERI1
 70
     0
  9
$USERI2
 70
     0
  9
$USERI3
 70
     0
  9
$USERI4
 70
     0
  9
$USERI5
 70
     0
  9
$USERR1
 40
0.0
  9
$USERR2
 40
0.0
  9
$USERR3
 40
0.0
  9
$USERR4
 40
0.0
  9
$USERR5
 40
0.0
  9
$WORLDVIEW
 70
     1
  9
$SHADEDGE
 70
     3
  9
$SHADEDIF
 70
    70
  9
$TILEMODE
 70
     1
  9
$MAXACTVP
 70
    16
  9
$PINSBASE
 10
0.0
 20
0.0
 30
0.0
  9
$PLIMCHECK
 70
     0
  9
$PEXTMIN
 10
1.000000E+20
 20
1.000000E+20
 30
1.000000E+20
  9
$PEXTMAX
 10
-1.000000E+20
 20
-1.000000E+20
 30
-1.000000E+20
  9
$PLIMMIN
 10
0.0
 20
0.0
  9
$PLIMMAX
 10
12.0
 20
9.0
  9
$UNITMODE
 70
     0
  9
$VISRETAIN
 70
     0
  9
$PLINEGEN
 70
     1
  9
$PSLTSCALE
 70
     0
  9
$TREEDEPTH
 70
  3020
  9
$PICKSTYLE
 70
     1
  9
$CMLSTYLE
  2
Standard
  9
$CMLJUST
 70
     0
  9
$CMLSCALE
 40
1.0
  9
$PROXYGRAPHICS
 70
     0
  9
$MEASUREMENT
 70
     0
  0
ENDSEC
  0
SECTION
  2
CLASSES
  0
CLASS
  1
LWPOLYLINE
  2
AcDbPolyline
  3
"AutoCAD"
 90
        0
280
     0
281
     1
  0
CLASS
  1
IMAGE
  2
AcDbRasterImage
  3
ISM
 90
      127
280
     0
281
     1
  0
CLASS
  1
OLE2FRAME
  2
AcDbOle2Frame
  3
""
 90
        0
280
     0
281
     1
  0
CLASS
  1
HATCH
  2
AcDbHatch
  3
"ACAD_SEDONA"
 90
        0
280
     0
281
     1
  0
CLASS
  1
DICTIONARYVAR
  2
AcDbDictionaryVar
  3
"AutoCAD"
 90
        0
280
     0
281
     0
  0
CLASS
  1
RASTERVARIABLES
  2
AcDbRasterVariables
  3
ISM
 90
        0
280
     0
281
     0
  0
CLASS
  1
IMAGEDEF
  2
AcDbRasterImageDef
  3
ISM
 90
        0
280
     0
281
     0
  0
CLASS
  1
IMAGEDEF_REACTOR
  2
AcDbRasterImageDefReactor
  3
ISM
 90
        1
280
     0
281
     0
  0
CLASS
  1
IDBUFFER
  2
AcDbIdBuffer
  3
"Acad"
 90
        0
280
     0
281
     0
  0
CLASS
  1
SPATIAL_FILTER
  2
AcDbSpatialFilter
  3
"Acad"
 90
        0
280
     0
281
     0
  0
CLASS
  1
XRECORD
  2
AcDbXrecord
  3
"<Built In>"
 90
        0
280
     0
281
     0
  0
CLASS
  1
SORTENTSTABLE
  2
AcDbSortentsTable
  3
"AutoCAD"
 90
        0
280
     0
281
     0
  0
CLASS
  1
LAYER_INDEX
  2
AcDbLayerIndex
  3
"Acad"
 90
        0
280
     0
281
     0
  0
CLASS
  1
SPATIAL_INDEX
  2
AcDbSpatialIndex
  3
"Acad"
 90
        0
280
     0
281
     0
  0
CLASS
  1
OBJECT_PTR
  2
CAseDLPNTableRecord
  3
"ASE-LPNTableRecord"
 90
        1
280
     0
281
     0
  0
CLASS
  1
LAYOUT
  2
AcDbLayout
  3
"AutoCAD 2000"
 90
        1
280
     0
281
     0
  0
CLASS
  1
PLOTSETTINGS
  2
AcDbPlotSettings
  3
"AutoCAD 2000"
 90
        1
280
     0
281
     0
  0
CLASS
  1
ACDBDICTIONARYWDFLT
  2
AcDbDictionaryWithDefault
  3
"AutoCAD 2000"
 90
        1
280
     0
281
     0
  0
CLASS
  1
ACDBPLACEHOLDER
  2
AcDbPlaceHolder
  3
"AutoCAD 2000"
 90
        1
280
     0
281
     0
  0
CLASS
  1
VBA_PROJECT
  2
AcDbVbaProject
  3
"acadvba"
 90
        1
280
     0
281
     0
  0
CLASS
  1
WIPEOUT
  2
AcDbWipeout
  3
WipeOut|AutoCAD Express Tool|expresstools@autodesk.com
 90
      127
280
     0
281
     1
  0
CLASS
  1
WIPEOUTVARIABLES
  2
AcDbWipeoutVariables
  3
WipeOut|AutoCAD Express Tool|expresstools@autodesk.com
 90
        0
280
     0
281
     0
  0
CLASS
  1
RTEXT
  2
RText
  3
RText|AutoCAD Express Tool|expresstools@autodesk.com
 90
        0
280
     0
281
     1
  0
CLASS
  1
ARCALIGNEDTEXT
  2
AcDbArcAlignedText
  3
ATEXT|AutoCAD Express Tool|expresstools@autodesk.com
 90
        0
280
     0
281
     1
  0
ENDSEC
  0
SECTION
  2
TABLES
  0
TABLE
  2
VPORT
  5
7
100
AcDbSymbolTable
 70
     1
  0
VPORT
  5
15
100
AcDbSymbolTableRecord
100
AcDbViewportTableRecord
  2
*ACTIVE
 70
     0
 10
0.0
 20
0.0
 11
1.0
 21
1.0
 12
420.55
 22
264.1
 13
0.0
 23
0.0
 14
1.0
 24
1.0
 15
0.0
 25
0.0
 16
0.0
 26
0.0
 36
1.0
 17
0.0
 27
0.0
 37
0.0
 40
586.8
 41
1.722533
 42
50.0
 43
0.0
 44
0.0
 50
0.0
 51
0.0
 71
     0
 72
   100
 73
     1
 74
     1
 75
     0
 76
     0
 77
     0
 78
     0
  0
ENDTAB
  0
TABLE
  2
LTYPE
  5
4
100
AcDbSymbolTable
 70
     9
  0
LTYPE
  5
11
100
AcDbSymbolTableRecord
100
AcDbLinetypeTableRecord
  2
BYBLOCK
 70
    64
  3

 72
    65
 73
     0
 40
0.0
  0
LTYPE
  5
12
100
AcDbSymbolTableRecord
100
AcDbLinetypeTableRecord
  2
BYLAYER
 70
    64
  3

 72
    65
 73
     0
 40
0.0
  0
LTYPE
  5
13
100
AcDbSymbolTableRecord
100
AcDbLinetypeTableRecord
  2
CONTINUOUS
 70
    64
  3
実線
 72
    65
 73
     0
 40
0.0
  0
LTYPE
  5
1D
100
AcDbSymbolTableRecord
100
AcDbLinetypeTableRecord
  2
EXLTYPE1
 70
    64
  3
破線
 72
    65
 73
     2
 40
4.0
 49
3.0
 74
     0
 49
-1.0
 74
     0
  0
LTYPE
  5
1E
100
AcDbSymbolTableRecord
100
AcDbLinetypeTableRecord
  2
EXLTYPE2
 70
    64
  3
点線
 72
    65
 73
     2
 40
2.0
 49
1.0
 74
     0
 49
-1.0
 74
     0
  0
LTYPE
  5
1F
100
AcDbSymbolTableRecord
100
AcDbLinetypeTableRecord
  2
EXLTYPE3
 70
    64
  3
一点鎖線
 72
    65
 73
     4
 40
33.0
 49
30.0
 74
     0
 49
-1.0
 74
     0
 49
1.0
 74
     0
 49
-1.0
 74
     0
  0
LTYPE
  5
20
100
AcDbSymbolTableRecord
100
AcDbLinetypeTableRecord
  2
EXLTYPE4
 70
    64
  3
二点鎖線
 72
    65
 73
     6
 40
35.0
 49
30.0
 74
     0
 49
-1.0
 74
     0
 49
1.0
 74
     0
 49
-1.0
 74
     0
 49
1.0
 74
     0
 49
-1.0
 74
     0
  0
LTYPE
  5
21
100
AcDbSymbolTableRecord
100
AcDbLinetypeTableRecord
  2
EXLTYPE5
 70
    64
  3
三点鎖線
 72
    65
 73
     8
 40
37.0
 49
30.0
 74
     0
 49
-1.0
 74
     0
 49
1.0
 74
     0
 49
-1.0
 74
     0
 49
1.0
 74
     0
 49
-1.0
 74
     0
 49
1.0
 74
     0
 49
-1.0
 74
     0
  0
LTYPE
  5
22
100
AcDbSymbolTableRecord
100
AcDbLinetypeTableRecord
  2
EXLTYPE6
 70
    64
  3
四点鎖線
 72
    65
 73
    10
 40
39.0
 49
30.0
 74
     0
 49
-1.0
 74
     0
 49
1.0
 74
     0
 49
-1.0
 74
     0
 49
1.0
 74
     0
 49
-1.0
 74
     0
 49
1.0
 74
     0
 49
-1.0
 74
     0
 49
1.0
 74
     0
 49
-1.0
 74
     0
  0
ENDTAB
  0
TABLE
  2
LAYER
  5
2
100
AcDbSymbolTable
 70
     3
  0
LAYER
  5
14
100
AcDbSymbolTableRecord
100
AcDbLayerTableRecord
  2
0
 70
     0
 62
     7
  6
CONTINUOUS
  0
LAYER
  5
25
100
AcDbSymbolTableRecord
100
AcDbLayerTableRecord
  2
LAY-1
 70
    64
 62
     7
  6
CONTINUOUS
  0
LAYER
  5
26
100
AcDbSymbolTableRecord
100
AcDbLayerTableRecord
  2
LAY-2
 70
    64
 62
     7
  6
CONTINUOUS
  0
ENDTAB
  0
TABLE
  2
STYLE
  5
3
100
AcDbSymbolTable
 70
     4
  0
STYLE
  5
17
100
AcDbSymbolTableRecord
100
AcDbTextStyleTableRecord
  2
STANDARD
 70
     0
 40
0.0
 41
1.0
 50
0.0
 71
     0
 42
0.0
  3
monotxt
  4
extfont
  0
STYLE
  5
23
100
AcDbSymbolTableRecord
100
AcDbTextStyleTableRecord
  2
EXCADSTD
 70
    64
 40
0.0
 41
1.0
 50
0.0
 71
     0
 42
0.2
  3
monotxt
  4
extfont
  0
STYLE
  5
24
100
AcDbSymbolTableRecord
100
AcDbTextStyleTableRecord
  2
EXCADVERT
 70
    68
 40
0.0
 41
1.0
 50
0.0
 71
     0
 42
0.286885
  3
monotxt
  4
extfont
  0
STYLE
  5
6AC
100
AcDbSymbolTableRecord
100
AcDbTextStyleTableRecord
  2
EXCADTTF1
 70
    64
 40
0.0
 41
1.0
 50
0.0
 71
     0
 42
0.2
  3
MS Gothic.ttf
  4

1001
ACAD
1000
MS Gothic
1071
    32817
  0
ENDTAB
  0
TABLE
  2
VIEW
  5
5
100
AcDbSymbolTable
 70
     0
  0
ENDTAB
  0
TABLE
  2
UCS
  5
6
100
AcDbSymbolTable
 70
     0
  0
ENDTAB
  0
TABLE
  2
APPID
  5
8
100
AcDbSymbolTable
 70
     1
  0
APPID
  5
16
100
AcDbSymbolTableRecord
100
AcDbRegAppTableRecord
  2
ACAD
 70
     0
  0
ENDTAB
  0
TABLE
  2
DIMSTYLE
  5
9
100
AcDbSymbolTable
 70
     1
  0
DIMSTYLE
105
18
100
AcDbSymbolTableRecord
100
AcDbDimStyleTableRecord
  2
STANDARD
 70
     0
  3

  4

  5

  6

  7

 40
1.0
 41
0.18
 42
0.0625
 43
0.38
 44
0.18
 45
0.0
 46
0.0
 47
0.0
 48
0.0
 71
     0
 72
     0
 73
     1
 74
     1
 75
     0
 76
     0
 77
     0
 78
     0
140
0.18
141
0.09
142
0.0
143
25.4
144
1.0
145
0.0
146
1.0
147
0.09
170
     0
171
     2
172
     0
173
     0
174
     0
175
     0
176
     0
177
     0
178
     0
270
     2
271
     4
272
     4
273
     2
274
     2
275
     0
280
     0
281
     0
282
     0
283
     1
284
     0
285
     0
286
     0
287
     0
288
     0
340
17
  0
ENDTAB
  0
TABLE
  2
BLOCK_RECORD
  5
1
100
AcDbSymbolTable
 70
    14
  0
BLOCK_RECORD
  5
A
100
AcDbSymbolTableRecord
100
AcDbBlockTableRecord
  2
*MODEL_SPACE
  0
BLOCK_RECORD
  5
B
100
AcDbSymbolTableRecord
100
AcDbBlockTableRecord
  2
*PAPER_SPACE
  0
BLOCK_RECORD
  5
27
100
AcDbSymbolTableRecord
100
AcDbBlockTableRecord
  2
_EX_NORM
  0
BLOCK_RECORD
  5
28
100
AcDbSymbolTableRecord
100
AcDbBlockTableRecord
  2
_EX_BNORM
  0
BLOCK_RECORD
  5
29
100
AcDbSymbolTableRecord
100
AcDbBlockTableRecord
  2
_EX_BCIR
  0
BLOCK_RECORD
  5
2A
100
AcDbSymbolTableRecord
100
AcDbBlockTableRecord
  2
_EX_RCIVIL
  0
BLOCK_RECORD
  5
2B
100
AcDbSymbolTableRecord
100
AcDbBlockTableRecord
  2
_EX_SLANT
  0
BLOCK_RECORD
  5
2C
100
AcDbSymbolTableRecord
100
AcDbBlockTableRecord
  2
_EX_NONE
  0
BLOCK_RECORD
  5
2D
100
AcDbSymbolTableRecord
100
AcDbBlockTableRecord
  2
_EX_CIVIL
  0
BLOCK_RECORD
  5
2E
100
AcDbSymbolTableRecord
100
AcDbBlockTableRecord
  2
_EX_WCIR
  0
BLOCK_RECORD
  5
2F
100
AcDbSymbolTableRecord
100
AcDbBlockTableRecord
  2
_EX_WCIR2
  0
BLOCK_RECORD
  5
30
100
AcDbSymbolTableRecord
100
AcDbBlockTableRecord
  2
_EX_WNORM
  0
BLOCK_RECORD
  5
31
100
AcDbSymbolTableRecord
100
AcDbBlockTableRecord
  2
_EX_NNORM
  0
BLOCK_RECORD
  5
32
100
AcDbSymbolTableRecord
100
AcDbBlockTableRecord
  2
_EX_BBOX
  0
BLOCK_RECORD
  5
33
100
AcDbSymbolTableRecord
100
AcDbBlockTableRecord
  2
_EX_WBOX
  0
BLOCK_RECORD
  5
34
100
AcDbSymbolTableRecord
100
AcDbBlockTableRecord
  2
_EX_INTEGRAL
  0
ENDTAB
  0
ENDSEC
  0
SECTION
  2
BLOCKS
  0
BLOCK
  5
D
100
AcDbEntity
  8
0
100
AcDbBlockBegin
  2
*MODEL_SPACE
 70
     0
 10
0.0
 20
0.0
 30
0.0
  3
*MODEL_SPACE
  1

  0
ENDBLK
  5
E
100
AcDbEntity
  8
0
100
AcDbBlockEnd
  0
BLOCK
  5
F
100
AcDbEntity
 67
     1
  8
0
100
AcDbBlockBegin
  2
*PAPER_SPACE
 70
     0
 10
0.0
 20
0.0
 30
0.0
  3
*PAPER_SPACE
  1

  0
ENDBLK
  5
10
100
AcDbEntity
 67
     1
  8
0
100
AcDbBlockEnd
  0
BLOCK
  5
35
100
AcDbEntity
  8
0
100
AcDbBlockBegin
  2
_EX_NORM
 70
     0
 10
0.0
 20
0.0
 30
0.0
  3
_EX_NORM
  1

  0
LINE
  5
36
100
AcDbEntity
  8
0
  6
CONTINUOUS
 62
     0
100
AcDbLine
 10
0.0
 20
0.0
 30
0.0
 11
-1.0
 21
0.0
 31
0.0
  0
LINE
  5
37
100
AcDbEntity
  8
0
  6
CONTINUOUS
 62
     0
100
AcDbLine
 10
0.0
 20
0.0
 30
0.0
 11
-1.0
 21
0.166667
 31
0.0
  0
LINE
  5
38
100
AcDbEntity
  8
0
  6
CONTINUOUS
 62
     0
100
AcDbLine
 10
0.0
 20
0.0
 30
0.0
 11
-1.0
 21
-0.166667
 31
0.0
  0
ENDBLK
  5
39
100
AcDbEntity
  8
0
100
AcDbBlockEnd
  0
BLOCK
  5
3A
100
AcDbEntity
  8
0
100
AcDbBlockBegin
  2
_EX_BNORM
 70
     0
 10
0.0
 20
0.0
 30
0.0
  3
_EX_BNORM
  1

  0
LINE
  5
3B
100
AcDbEntity
  8
0
  6
CONTINUOUS
 62
     0
100
AcDbLine
 10
0.0
 20
0.0
 30
0.0
 11
-1.0
 21
0.0
 31
0.0
  0
LINE
  5
3C
100
AcDbEntity
  8
0
  6
CONTINUOUS
 62
     0
100
AcDbLine
 10
0.0
 20
0.0
 30
0.0
 11
-1.0
 21
0.166667
 31
0.0
  0
LINE
  5
3D
100
AcDbEntity
  8
0
  6
CONTINUOUS
 62
     0
100
AcDbLine
 10
0.0
 20
0.0
 30
0.0
 11
-1.0
 21
-0.166667
 31
0.0
  0
LINE
  5
3E
100
AcDbEntity
  8
0
  6
CONTINUOUS
 62
     0
100
AcDbLine
 10
0.0
 20
0.0
 30
0.0
 11
-1.0
 21
0.083333
 31
0.0
  0
LINE
  5
3F
100
AcDbEntity
  8
0
  6
CONTINUOUS
 62
     0
100
AcDbLine
 10
0.0
 20
0.0
 30
0.0
 11
-1.0
 21
-0.083333
 31
0.0
  0
LINE
  5
40
100
AcDbEntity
  8
0
  6
CONTINUOUS
 62
     0
100
AcDbLine
 10
-1.0
 20
0.166667
 30
0.0
 11
-1.0
 21
-0.166667
 31
0.0
  0
ENDBLK
  5
41
100
AcDbEntity
  8
0
100
AcDbBlockEnd
  0
BLOCK
  5
42
100
AcDbEntity
  8
0
100
AcDbBlockBegin
  2
_EX_BCIR
 70
     0
 10
0.0
 20
0.0
 30
0.0
  3
_EX_BCIR
  1

  0
LINE
  5
43
100
AcDbEntity
  8
0
  6
CONTINUOUS
 62
     0
100
AcDbLine
 10
0.0
 20
0.0
 30
0.0
 11
-1.0
 21
0.0
 31
0.0
  0
CIRCLE
  5
44
100
AcDbEntity
  8
0
  6
CONTINUOUS
 62
     0
100
AcDbCircle
 10
0.0
 20
0.0
 30
0.0
 40
0.5
  0
CIRCLE
  5
45
100
AcDbEntity
  8
0
  6
CONTINUOUS
 62
     0
100
AcDbCircle
 10
0.0
 20
0.0
 30
0.0
 40
0.25
  0
ENDBLK
  5
46
100
AcDbEntity
  8
0
100
AcDbBlockEnd
  0
BLOCK
  5
47
100
AcDbEntity
  8
0
100
AcDbBlockBegin
  2
_EX_RCIVIL
 70
     0
 10
0.0
 20
0.0
 30
0.0
  3
_EX_RCIVIL
  1

  0
LINE
  5
48
100
AcDbEntity
  8
0
  6
CONTINUOUS
 62
     0
100
AcDbLine
 10
0.0
 20
0.0
 30
0.0
 11
-1.0
 21
0.0
 31
0.0
  0
LINE
  5
49
100
AcDbEntity
  8
0
  6
CONTINUOUS
 62
     0
100
AcDbLine
 10
-1.0
 20
-0.25
 30
0.0
 11
0.0
 21
-0.25
 31
0.0
  0
LINE
  5
4A
100
AcDbEntity
  8
0
  6
CONTINUOUS
 62
     0
100
AcDbLine
 10
-1.0
 20
-0.125
 30
0.0
 11
0.0
 21
-0.125
 31
0.0
  0
ENDBLK
  5
4B
100
AcDbEntity
  8
0
100
AcDbBlockEnd
  0
BLOCK
  5
4C
100
AcDbEntity
  8
0
100
AcDbBlockBegin
  2
_EX_SLANT
 70
     0
 10
0.0
 20
0.0
 30
0.0
  3
_EX_SLANT
  1

  0
LINE
  5
4D
100
AcDbEntity
  8
0
  6
CONTINUOUS
 62
     0
100
AcDbLine
 10
0.0
 20
0.0
 30
0.0
 11
-1.0
 21
0.0
 31
0.0
  0
LINE
  5
4E
100
AcDbEntity
  8
0
  6
CONTINUOUS
 62
     0
100
AcDbLine
 10
0.707107
 20
0.707107
 30
0.0
 11
-0.707107
 21
-0.707107
 31
0.0
  0
ENDBLK
  5
4F
100
AcDbEntity
  8
0
100
AcDbBlockEnd
  0
BLOCK
  5
50
100
AcDbEntity
  8
0
100
AcDbBlockBegin
  2
_EX_NONE
 70
     0
 10
0.0
 20
0.0
 30
0.0
  3
_EX_NONE
  1

  0
LINE
  5
51
100
AcDbEntity
  8
0
  6
CONTINUOUS
 62
     0
100
AcDbLine
 10
0.0
 20
0.0
 30
0.0
 11
-1.0
 21
0.0
 31
0.0
  0
ENDBLK
  5
52
100
AcDbEntity
  8
0
100
AcDbBlockEnd
  0
BLOCK
  5
53
100
AcDbEntity
  8
0
100
AcDbBlockBegin
  2
_EX_CIVIL
 70
     0
 10
0.0
 20
0.0
 30
0.0
  3
_EX_CIVIL
  1

  0
LINE
  5
54
100
AcDbEntity
  8
0
  6
CONTINUOUS
 62
     0
100
AcDbLine
 10
0.0
 20
0.0
 30
0.0
 11
-1.0
 21
0.0
 31
0.0
  0
LINE
  5
55
100
AcDbEntity
  8
0
  6
CONTINUOUS
 62
     0
100
AcDbLine
 10
-1.0
 20
0.25
 30
0.0
 11
0.0
 21
0.25
 31
0.0
  0
LINE
  5
56
100
AcDbEntity
  8
0
  6
CONTINUOUS
 62
     0
100
AcDbLine
 10
-1.0
 20
0.125
 30
0.0
 11
0.0
 21
0.125
 31
0.0
  0
ENDBLK
  5
57
100
AcDbEntity
  8
0
100
AcDbBlockEnd
  0
BLOCK
  5
58
100
AcDbEntity
  8
0
100
AcDbBlockBegin
  2
_EX_WCIR
 70
     0
 10
0.0
 20
0.0
 30
0.0
  3
_EX_WCIR
  1

  0
LINE
  5
59
100
AcDbEntity
  8
0
  6
CONTINUOUS
 62
     0
100
AcDbLine
 10
0.0
 20
0.0
 30
0.0
 11
-1.0
 21
0.0
 31
0.0
  0
CIRCLE
  5
5A
100
AcDbEntity
  8
0
  6
CONTINUOUS
 62
     0
100
AcDbCircle
 10
0.0
 20
0.0
 30
0.0
 40
0.5
  0
ENDBLK
  5
5B
100
AcDbEntity
  8
0
100
AcDbBlockEnd
  0
BLOCK
  5
5C
100
AcDbEntity
  8
0
100
AcDbBlockBegin
  2
_EX_WCIR2
 70
     0
 10
0.0
 20
0.0
 30
0.0
  3
_EX_WCIR2
  1

  0
LINE
  5
5D
100
AcDbEntity
  8
0
  6
CONTINUOUS
 62
     0
100
AcDbLine
 10
-0.5
 20
0.0
 30
0.0
 11
-1.0
 21
0.0
 31
0.0
  0
CIRCLE
  5
5E
100
AcDbEntity
  8
0
  6
CONTINUOUS
 62
     0
100
AcDbCircle
 10
0.0
 20
0.0
 30
0.0
 40
0.5
  0
ENDBLK
  5
5F
100
AcDbEntity
  8
0
100
AcDbBlockEnd
  0
BLOCK
  5
60
100
AcDbEntity
  8
0
100
AcDbBlockBegin
  2
_EX_WNORM
 70
     0
 10
0.0
 20
0.0
 30
0.0
  3
_EX_WNORM
  1

  0
LINE
  5
61
100
AcDbEntity
  8
0
  6
CONTINUOUS
 62
     0
100
AcDbLine
 10
-1.0
 20
0.0
 30
0.0
 11
-1.0
 21
0.0
 31
0.0
  0
LINE
  5
62
100
AcDbEntity
  8
0
  6
CONTINUOUS
 62
     0
100
AcDbLine
 10
0.0
 20
0.0
 30
0.0
 11
-1.0
 21
0.166667
 31
0.0
  0
LINE
  5
63
100
AcDbEntity
  8
0
  6
CONTINUOUS
 62
     0
100
AcDbLine
 10
0.0
 20
0.0
 30
0.0
 11
-1.0
 21
-0.166667
 31
0.0
  0
LINE
  5
64
100
AcDbEntity
  8
0
  6
CONTINUOUS
 62
     0
100
AcDbLine
 10
-1.0
 20
0.166667
 30
0.0
 11
-1.0
 21
-0.166667
 31
0.0
  0
ENDBLK
  5
65
100
AcDbEntity
  8
0
100
AcDbBlockEnd
  0
BLOCK
  5
66
100
AcDbEntity
  8
0
100
AcDbBlockBegin
  2
_EX_NNORM
 70
     0
 10
0.0
 20
0.0
 30
0.0
  3
_EX_NNORM
  1

  0
LINE
  5
67
100
AcDbEntity
  8
0
  6
CONTINUOUS
 62
     0
100
AcDbLine
 10
0.0
 20
0.0
 30
0.0
 11
-1.0
 21
0.0
 31
0.0
  0
LINE
  5
68
100
AcDbEntity
  8
0
  6
CONTINUOUS
 62
     0
100
AcDbLine
 10
0.0
 20
0.0
 30
0.0
 11
-1.0
 21
0.166667
 31
0.0
  0
LINE
  5
69
100
AcDbEntity
  8
0
  6
CONTINUOUS
 62
     0
100
AcDbLine
 10
0.0
 20
0.0
 30
0.0
 11
-1.0
 21
-0.166667
 31
0.0
  0
LINE
  5
6A
100
AcDbEntity
  8
0
  6
CONTINUOUS
 62
     0
100
AcDbLine
 10
-1.0
 20
0.166667
 30
0.0
 11
-1.0
 21
-0.166667
 31
0.0
  0
ENDBLK
  5
6B
100
AcDbEntity
  8
0
100
AcDbBlockEnd
  0
BLOCK
  5
6C
100
AcDbEntity
  8
0
100
AcDbBlockBegin
  2
_EX_BBOX
 70
     0
 10
0.0
 20
0.0
 30
0.0
  3
_EX_BBOX
  1

  0
LINE
  5
6D
100
AcDbEntity
  8
0
  6
CONTINUOUS
 62
     0
100
AcDbLine
 10
0.0
 20
0.0
 30
0.0
 11
-1.0
 21
0.0
 31
0.0
  0
LINE
  5
6E
100
AcDbEntity
  8
0
  6
CONTINUOUS
 62
     0
100
AcDbLine
 10
-0.5
 20
0.5
 30
0.0
 11
0.5
 21
0.5
 31
0.0
  0
LINE
  5
6F
100
AcDbEntity
  8
0
  6
CONTINUOUS
 62
     0
100
AcDbLine
 10
0.5
 20
0.5
 30
0.0
 11
0.5
 21
-0.5
 31
0.0
  0
LINE
  5
70
100
AcDbEntity
  8
0
  6
CONTINUOUS
 62
     0
100
AcDbLine
 10
0.5
 20
-0.5
 30
0.0
 11
-0.5
 21
-0.5
 31
0.0
  0
LINE
  5
71
100
AcDbEntity
  8
0
  6
CONTINUOUS
 62
     0
100
AcDbLine
 10
-0.5
 20
-0.5
 30
0.0
 11
-0.5
 21
0.5
 31
0.0
  0
LINE
  5
72
100
AcDbEntity
  8
0
  6
CONTINUOUS
 62
     0
100
AcDbLine
 10
-0.25
 20
0.25
 30
0.0
 11
0.25
 21
0.25
 31
0.0
  0
LINE
  5
73
100
AcDbEntity
  8
0
  6
CONTINUOUS
 62
     0
100
AcDbLine
 10
0.25
 20
0.25
 30
0.0
 11
0.25
 21
-0.25
 31
0.0
  0
LINE
  5
74
100
AcDbEntity
  8
0
  6
CONTINUOUS
 62
     0
100
AcDbLine
 10
0.25
 20
-0.25
 30
0.0
 11
-0.25
 21
-0.25
 31
0.0
  0
LINE
  5
75
100
AcDbEntity
  8
0
  6
CONTINUOUS
 62
     0
100
AcDbLine
 10
-0.25
 20
-0.25
 30
0.0
 11
-0.25
 21
0.25
 31
0.0
  0
ENDBLK
  5
76
100
AcDbEntity
  8
0
100
AcDbBlockEnd
  0
BLOCK
  5
77
100
AcDbEntity
  8
0
100
AcDbBlockBegin
  2
_EX_WBOX
 70
     0
 10
0.0
 20
0.0
 30
0.0
  3
_EX_WBOX
  1

  0
LINE
  5
78
100
AcDbEntity
  8
0
  6
CONTINUOUS
 62
     0
100
AcDbLine
 10
-0.5
 20
0.0
 30
0.0
 11
-1.0
 21
0.0
 31
0.0
  0
LINE
  5
79
100
AcDbEntity
  8
0
  6
CONTINUOUS
 62
     0
100
AcDbLine
 10
-0.5
 20
0.5
 30
0.0
 11
0.5
 21
0.5
 31
0.0
  0
LINE
  5
7A
100
AcDbEntity
  8
0
  6
CONTINUOUS
 62
     0
100
AcDbLine
 10
0.5
 20
0.5
 30
0.0
 11
0.5
 21
-0.5
 31
0.0
  0
LINE
  5
7B
100
AcDbEntity
  8
0
  6
CONTINUOUS
 62
     0
100
AcDbLine
 10
0.5
 20
-0.5
 30
0.0
 11
-0.5
 21
-0.5
 31
0.0
  0
LINE
  5
7C
100
AcDbEntity
  8
0
  6
CONTINUOUS
 62
     0
100
AcDbLine
 10
-0.5
 20
-0.5
 30
0.0
 11
-0.5
 21
0.5
 31
0.0
  0
ENDBLK
  5
7D
100
AcDbEntity
  8
0
100
AcDbBlockEnd
  0
BLOCK
  5
7E
100
AcDbEntity
  8
0
100
AcDbBlockBegin
  2
_EX_INTEGRAL
 70
     0
 10
0.0
 20
0.0
 30
0.0
  3
_EX_INTEGRAL
  1

  0
LINE
  5
7F
100
AcDbEntity
  8
0
  6
CONTINUOUS
 62
     0
100
AcDbLine
 10
0.0
 20
0.0
 30
0.0
 11
-1.0
 21
0.0
 31
0.0
  0
ARC
  5
80
100
AcDbEntity
  8
0
  6
CONTINUOUS
 62
     0
100
AcDbCircle
 10
0.0
 20
0.0
 30
0.0
 40
0.707107
100
AcDbArc
 50
90.0
 51
180.0
  0
ARC
  5
81
100
AcDbEntity
  8
0
  6
CONTINUOUS
 62
     0
100
AcDbCircle
 10
0.0
 20
0.0
 30
0.0
 40
0.707107
100
AcDbArc
 50
270.0
 51
0.0
  0
ENDBLK
  5
82
100
AcDbEntity
  8
0
100
AcDbBlockEnd
  0
ENDSEC
  0
SECTION
  2
ENTITIES
  0
LINE
  5
83
100
AcDbEntity
  8
LAY-1
  6
CONTINUOUS
 62
     3
100
AcDbLine
 10
128.121429
 20
518.2
 30
0.0
 11
126.721429
 21
518.2
 31
0.0
  0
LINE
  5
84
100
AcDbEntity
  8
LAY-1
  6
CONTINUOUS
 62
     3
100
AcDbLine
 10
128.121429
 20
508.2
 30
0.0
 11
126.721429
 21
508.2
 31
0.0
  0
LINE
  5
85
100
AcDbEntity
  8
LAY-1
  6
CONTINUOUS
 62
     3
100
AcDbLine
 10
129.121429
 20
515.95
 30
0.0
 11
128.121429
 21
515.95
 31
0.0
  0
LINE
  5
86
100
AcDbEntity
  8
LAY-1
  6
CONTINUOUS
 62
     3
100
AcDbLine
 10
129.121429
 20
510.45
 30
0.0
 11
128.121429
 21
510.45
 31
0.0
  0
LINE
  5
87
100
AcDbEntity
  8
LAY-1
  6
CONTINUOUS
 62
     3
100
AcDbLine
 10
129.121429
 20
515.95
 30
0.0
 11
129.121429
 21
510.45
 31
0.0
  0
LINE
  5
88
100
AcDbEntity
  8
LAY-1
  6
CONTINUOUS
 62
     3
100
AcDbLine
 10
128.121429
 20
518.2
 30
0.0
 11
128.121429
 21
508.2
 31
0.0
  0
LINE
  5
89
100
AcDbEntity
  8
LAY-1
  6
CONTINUOUS
 62
     3
100
AcDbLine
 10
126.721429
 20
518.2
 30
0.0
 11
126.721429
 21
508.2
 31
0.0
  0
ARC
  5
8A
100
AcDbEntity
  8
LAY-1
  6
CONTINUOUS
 62
     3
100
AcDbCircle
 10
121.621429
 20
514.59
 30
0.0
 40
2.2
100
AcDbArc
 50
27.645523
 51
152.354477
  0
ARC
  5
8B
100
AcDbEntity
  8
LAY-1
  6
CONTINUOUS
 62
     3
100
AcDbCircle
 10
123.836017
 20
515.75
 30
0.0
 40
0.3
100
AcDbArc
 50
207.645523
 51
270.0
  0
ARC
  5
8C
100
AcDbEntity
  8
LAY-1
  6
CONTINUOUS
 62
     3
100
AcDbCircle
 10
119.406841
 20
515.75
 30
0.0
 40
0.3
100
AcDbArc
 50
270.0
 51
332.354477
  0
ARC
  5
8D
100
AcDbEntity
  8
LAY-1
  6
CONTINUOUS
 62
     3
100
AcDbCircle
 10
119.406841
 20
510.65
 30
0.0
 40
0.3
100
AcDbArc
 50
27.645523
 51
90.0
  0
ARC
  5
8E
100
AcDbEntity
  8
LAY-1
  6
CONTINUOUS
 62
     3
100
AcDbCircle
 10
121.621429
 20
511.81
 30
0.0
 40
2.2
100
AcDbArc
 50
207.645523
 51
332.354477
  0
ARC
  5
8F
100
AcDbEntity
  8
LAY-1
  6
CONTINUOUS
 62
     3
100
AcDbCircle
 10
123.836017
 20
510.65
 30
0.0
 40
0.3
100
AcDbArc
 50
90.0
 51
152.354477
  0
LINE
  5
90
100
AcDbEntity
  8
LAY-1
  6
CONTINUOUS
 62
     3
100
AcDbLine
 10
119.672591
 20
515.6108
 30
0.0
 11
119.672591
 21
510.7892
 31
0.0
  0
LINE
  5
91
100
AcDbEntity
  8
LAY-1
  6
CONTINUOUS
 62
     3
100
AcDbLine
 10
123.570266
 20
510.7892
 30
0.0
 11
123.570266
 21
515.6108
 31
0.0
  0
LINE
  5
92
100
AcDbEntity
  8
LAY-1
  6
CONTINUOUS
 62
     3
100
AcDbLine
 10
123.836017
 20
515.45
 30
0.0
 11
126.721429
 21
515.45
 31
0.0
  0
LINE
  5
93
100
AcDbEntity
  8
LAY-1
  6
CONTINUOUS
 62
     3
100
AcDbLine
 10
126.721429
 20
510.95
 30
0.0
 11
123.836017
 21
510.95
 31
0.0
  0
LINE
  5
94
100
AcDbEntity
  8
LAY-1
  6
CONTINUOUS
 62
     3
100
AcDbLine
 10
95.121429
 20
518.2
 30
0.0
 11
96.521429
 21
518.2
 31
0.0
  0
LINE
  5
95
100
AcDbEntity
  8
LAY-1
  6
CONTINUOUS
 62
     3
100
AcDbLine
 10
95.121429
 20
508.2
 30
0.0
 11
96.521429
 21
508.2
 31
0.0
  0
LINE
  5
96
100
AcDbEntity
  8
LAY-1
  6
CONTINUOUS
 62
     3
100
AcDbLine
 10
94.121429
 20
515.95
 30
0.0
 11
95.121429
 21
515.95
 31
0.0
  0
LINE
  5
97
100
AcDbEntity
  8
LAY-1
  6
CONTINUOUS
 62
     3
100
AcDbLine
 10
94.121429
 20
510.45
 30
0.0
 11
95.121429
 21
510.45
 31
0.0
  0
LINE
  5
98
100
AcDbEntity
  8
LAY-1
  6
CONTINUOUS
 62
     3
100
AcDbLine
 10
94.121429
 20
515.95
 30
0.0
 11
94.121429
 21
510.45
 31
0.0
  0
LINE
  5
99
100
AcDbEntity
  8
LAY-1
  6
CONTINUOUS
 62
     3
100
AcDbLine
 10
95.121429
 20
518.2
 30
0.0
 11
95.121429
 21
508.2
 31
0.0
  0
LINE
  5
9A
100
AcDbEntity
  8
LAY-1
  6
CONTINUOUS
 62
     3
100
AcDbLine
 10
96.521429
 20
518.2
 30
0.0
 11
96.521429
 21
508.2
 31
0.0
  0
ARC
  5
9B
100
AcDbEntity
  8
LAY-1
  6
CONTINUOUS
 62
     3
100
AcDbCircle
 10
101.621429
 20
514.59
 30
0.0
 40
2.2
100
AcDbArc
 50
27.645523
 51
152.354477
  0
ARC
  5
9C
100
AcDbEntity
  8
LAY-1
  6
CONTINUOUS
 62
     3
100
AcDbCircle
 10
103.836017
 20
515.75
 30
0.0
 40
0.3
100
AcDbArc
 50
207.645523
 51
270.0
  0
ARC
  5
9D
100
AcDbEntity
  8
LAY-1
  6
CONTINUOUS
 62
     3
100
AcDbCircle
 10
99.406841
 20
515.75
 30
0.0
 40
0.3
100
AcDbArc
 50
270.0
 51
332.354477
  0
ARC
  5
9E
100
AcDbEntity
  8
LAY-1
  6
CONTINUOUS
 62
     3
100
AcDbCircle
 10
99.406841
 20
510.65
 30
0.0
 40
0.3
100
AcDbArc
 50
27.645523
 51
90.0
  0
ARC
  5
9F
100
AcDbEntity
  8
LAY-1
  6
CONTINUOUS
 62
     3
100
AcDbCircle
 10
101.621429
 20
511.81
 30
0.0
 40
2.2
100
AcDbArc
 50
207.645523
 51
332.354477
  0
ARC
  5
A0
100
AcDbEntity
  8
LAY-1
  6
CONTINUOUS
 62
     3
100
AcDbCircle
 10
103.836017
 20
510.65
 30
0.0
 40
0.3
100
AcDbArc
 50
90.0
 51
152.354477
  0
LINE
  5
A1
100
AcDbEntity
  8
LAY-1
  6
CONTINUOUS
 62
     3
100
AcDbLine
 10
99.672591
 20
515.6108
 30
0.0
 11
99.672591
 21
510.7892
 31
0.0
  0
LINE
  5
A2
100
AcDbEntity
  8
LAY-1
  6
CONTINUOUS
 62
     3
100
AcDbLine
 10
103.570266
 20
510.7892
 30
0.0
 11
103.570266
 21
515.6108
 31
0.0
  0
LINE
  5
A3
100
AcDbEntity
  8
LAY-1
  6
CONTINUOUS
 62
     3
100
AcDbLine
 10
96.521429
 20
515.45
 30
0.0
 11
99.406841
 21
515.45
 31
0.0
  0
LINE
  5
A4
100
AcDbEntity
  8
LAY-1
  6
CONTINUOUS
 62
     3
100
AcDbLine
 10
99.406841
 20
510.95
 30
0.0
 11
96.521429
 21
510.95
 31
0.0
  0
LINE
  5
A5
100
AcDbEntity
  8
LAY-1
  6
EXLTYPE3
 62
     1
100
AcDbLine
 10
131.7
 20
513.2
 30
0.0
 11
90.9
 21
513.2
 31
0.0
  0
ARC
  5
A6
100
AcDbEntity
  8
LAY-1
  6
CONTINUOUS
 62
     3
100
AcDbCircle
 10
111.621429
 20
514.59
 30
0.0
 40
2.2
100
AcDbArc
 50
27.645523
 51
152.354477
  0
ARC
  5
A7
100
AcDbEntity
  8
LAY-1
  6
CONTINUOUS
 62
     3
100
AcDbCircle
 10
113.836017
 20
515.75
 30
0.0
 40
0.3
100
AcDbArc
 50
207.645523
 51
270.0
  0
ARC
  5
A8
100
AcDbEntity
  8
LAY-1
  6
CONTINUOUS
 62
     3
100
AcDbCircle
 10
109.406841
 20
515.75
 30
0.0
 40
0.3
100
AcDbArc
 50
270.0
 51
332.354477
  0
ARC
  5
A9
100
AcDbEntity
  8
LAY-1
  6
CONTINUOUS
 62
     3
100
AcDbCircle
 10
109.406841
 20
510.65
 30
0.0
 40
0.3
100
AcDbArc
 50
27.645523
 51
90.0
  0
ARC
  5
AA
100
AcDbEntity
  8
LAY-1
  6
CONTINUOUS
 62
     3
100
AcDbCircle
 10
111.621429
 20
511.81
 30
0.0
 40
2.2
100
AcDbArc
 50
207.645523
 51
332.354477
  0
ARC
  5
AB
100
AcDbEntity
  8
LAY-1
  6
CONTINUOUS
 62
     3
100
AcDbCircle
 10
113.836017
 20
510.65
 30
0.0
 40
0.3
100
AcDbArc
 50
90.0
 51
152.354477
  0
LINE
  5
AC
100
AcDbEntity
  8
LAY-1
  6
CONTINUOUS
 62
     3
100
AcDbLine
 10
109.672591
 20
515.6108
 30
0.0
 11
109.672591
 21
510.7892
 31
0.0
  0
LINE
  5
AD
100
AcDbEntity
  8
LAY-1
  6
CONTINUOUS
 62
     3
100
AcDbLine
 10
113.570266
 20
510.7892
 30
0.0
 11
113.570266
 21
515.6108
 31
0.0
  0
LINE
  5
AE
100
AcDbEntity
  8
LAY-1
  6
CONTINUOUS
 62
     3
100
AcDbLine
 10
103.836017
 20
515.45
 30
0.0
 11
109.406841
 21
515.45
 31
0.0
  0
LINE
  5
AF
100
AcDbEntity
  8
LAY-1
  6
CONTINUOUS
 62
     3
100
AcDbLine
 10
113.836017
 20
515.45
 30
0.0
 11
119.406841
 21
515.45
 31
0.0
  0
LINE
  5
B0
100
AcDbEntity
  8
LAY-1
  6
CONTINUOUS
 62
     3
100
AcDbLine
 10
119.406841
 20
510.95
 30
0.0
 11
113.836017
 21
510.95
 31
0.0
  0
LINE
  5
B1
100
AcDbEntity
  8
LAY-1
  6
CONTINUOUS
 62
     3
100
AcDbLine
 10
109.406841
 20
510.95
 30
0.0
 11
103.836017
 21
510.95
 31
0.0
  0
LINE
  5
B2
100
AcDbEntity
  8
LAY-1
  6
CONTINUOUS
 62
     3
100
AcDbLine
 10
239.564286
 20
519.45
 30
0.0
 11
239.564286
 21
506.95
 31
0.0
  0
LINE
  5
B3
100
AcDbEntity
  8
LAY-1
  6
CONTINUOUS
 62
     3
100
AcDbLine
 10
239.564286
 20
519.45
 30
0.0
 11
238.164286
 21
519.45
 31
0.0
  0
LINE
  5
B4
100
AcDbEntity
  8
LAY-1
  6
CONTINUOUS
 62
     3
100
AcDbLine
 10
239.564286
 20
506.95
 30
0.0
 11
238.164286
 21
506.95
 31
0.0
  0
LINE
  5
B5
100
AcDbEntity
  8
LAY-1
  6
CONTINUOUS
 62
     3
100
AcDbLine
 10
238.164286
 20
519.45
 30
0.0
 11
238.164286
 21
506.95
 31
0.0
  0
LINE
  5
B6
100
AcDbEntity
  8
LAY-1
  6
CONTINUOUS
 62
     3
100
AcDbLine
 10
240.564286
 20
510.2
 30
0.0
 11
239.564286
 21
510.2
 31
0.0
  0
LINE
  5
B7
100
AcDbEntity
  8
LAY-1
  6
CONTINUOUS
 62
     3
100
AcDbLine
 10
240.564286
 20
516.2
 30
0.0
 11
239.564286
 21
516.2
 31
0.0
  0
LINE
  5
B8
100
AcDbEntity
  8
LAY-1
  6
CONTINUOUS
 62
     3
100
AcDbLine
 10
240.564286
 20
510.2
 30
0.0
 11
240.564286
 21
516.2
 31
0.0
  0
ARC
  5
B9
100
AcDbEntity
  8
LAY-1
  6
CONTINUOUS
 62
     3
100
AcDbCircle
 10
235.278874
 20
516.0
 30
0.0
 40
0.3
100
AcDbArc
 50
207.645523
 51
270.0
  0
ARC
  5
BA
100
AcDbEntity
  8
LAY-1
  6
CONTINUOUS
 62
     3
100
AcDbCircle
 10
233.064286
 20
514.84
 30
0.0
 40
2.2
100
AcDbArc
 50
27.645523
 51
152.354477
  0
ARC
  5
BB
100
AcDbEntity
  8
LAY-1
  6
CONTINUOUS
 62
     3
100
AcDbCircle
 10
230.849698
 20
516.0
 30
0.0
 40
0.3
100
AcDbArc
 50
270.0
 51
332.354477
  0
ARC
  5
BC
100
AcDbEntity
  8
LAY-1
  6
CONTINUOUS
 62
     3
100
AcDbCircle
 10
235.278874
 20
510.4
 30
0.0
 40
0.3
100
AcDbArc
 50
90.0
 51
152.354477
  0
ARC
  5
BD
100
AcDbEntity
  8
LAY-1
  6
CONTINUOUS
 62
     3
100
AcDbCircle
 10
233.064286
 20
511.56
 30
0.0
 40
2.2
100
AcDbArc
 50
207.645523
 51
332.354477
  0
ARC
  5
BE
100
AcDbEntity
  8
LAY-1
  6
CONTINUOUS
 62
     3
100
AcDbCircle
 10
230.849698
 20
510.4
 30
0.0
 40
0.3
100
AcDbArc
 50
27.645523
 51
90.0
  0
LINE
  5
BF
100
AcDbEntity
  8
LAY-1
  6
CONTINUOUS
 62
     3
100
AcDbLine
 10
231.115448
 20
515.8608
 30
0.0
 11
231.115448
 21
510.5392
 31
0.0
  0
LINE
  5
C0
100
AcDbEntity
  8
LAY-1
  6
CONTINUOUS
 62
     3
100
AcDbLine
 10
235.013123
 20
510.5392
 30
0.0
 11
235.013123
 21
515.8608
 31
0.0
  0
LINE
  5
C1
100
AcDbEntity
  8
LAY-1
  6
CONTINUOUS
 62
     3
100
AcDbLine
 10
235.278874
 20
515.7
 30
0.0
 11
238.164286
 21
515.7
 31
0.0
  0
LINE
  5
C2
100
AcDbEntity
  8
LAY-1
  6
CONTINUOUS
 62
     3
100
AcDbLine
 10
235.278874
 20
510.7
 30
0.0
 11
238.164286
 21
510.7
 31
0.0
  0
ARC
  5
C3
100
AcDbEntity
  8
LAY-1
  6
CONTINUOUS
 62
     3
100
AcDbCircle
 10
215.278874
 20
516.0
 30
0.0
 40
0.3
100
AcDbArc
 50
207.645523
 51
270.0
  0
ARC
  5
C4
100
AcDbEntity
  8
LAY-1
  6
CONTINUOUS
 62
     3
100
AcDbCircle
 10
213.064286
 20
514.84
 30
0.0
 40
2.2
100
AcDbArc
 50
27.645523
 51
152.354477
  0
ARC
  5
C5
100
AcDbEntity
  8
LAY-1
  6
CONTINUOUS
 62
     3
100
AcDbCircle
 10
210.849698
 20
516.0
 30
0.0
 40
0.3
100
AcDbArc
 50
270.0
 51
332.354477
  0
ARC
  5
C6
100
AcDbEntity
  8
LAY-1
  6
CONTINUOUS
 62
     3
100
AcDbCircle
 10
215.278874
 20
510.4
 30
0.0
 40
0.3
100
AcDbArc
 50
90.0
 51
152.354477
  0
ARC
  5
C7
100
AcDbEntity
  8
LAY-1
  6
CONTINUOUS
 62
     3
100
AcDbCircle
 10
213.064286
 20
511.56
 30
0.0
 40
2.2
100
AcDbArc
 50
207.645523
 51
332.354477
  0
ARC
  5
C8
100
AcDbEntity
  8
LAY-1
  6
CONTINUOUS
 62
     3
100
AcDbCircle
 10
210.849698
 20
510.4
 30
0.0
 40
0.3
100
AcDbArc
 50
27.645523
 51
90.0
  0
LINE
  5
C9
100
AcDbEntity
  8
LAY-1
  6
CONTINUOUS
 62
     3
100
AcDbLine
 10
211.115448
 20
515.8608
 30
0.0
 11
211.115448
 21
510.5392
 31
0.0
  0
LINE
  5
CA
100
AcDbEntity
  8
LAY-1
  6
CONTINUOUS
 62
     3
100
AcDbLine
 10
215.013123
 20
510.5392
 30
0.0
 11
215.013123
 21
515.8608
 31
0.0
  0
LINE
  5
CB
100
AcDbEntity
  8
LAY-1
  6
CONTINUOUS
 62
     3
100
AcDbLine
 10
206.564286
 20
519.45
 30
0.0
 11
207.964286
 21
519.45
 31
0.0
  0
LINE
  5
CC
100
AcDbEntity
  8
LAY-1
  6
CONTINUOUS
 62
     3
100
AcDbLine
 10
206.564286
 20
506.95
 30
0.0
 11
207.964286
 21
506.95
 31
0.0
  0
LINE
  5
CD
100
AcDbEntity
  8
LAY-1
  6
CONTINUOUS
 62
     3
100
AcDbLine
 10
205.564286
 20
516.2
 30
0.0
 11
206.564286
 21
516.2
 31
0.0
  0
LINE
  5
CE
100
AcDbEntity
  8
LAY-1
  6
CONTINUOUS
 62
     3
100
AcDbLine
 10
205.564286
 20
510.2
 30
0.0
 11
206.564286
 21
510.2
 31
0.0
  0
LINE
  5
CF
100
AcDbEntity
  8
LAY-1
  6
CONTINUOUS
 62
     3
100
AcDbLine
 10
205.564286
 20
516.2
 30
0.0
 11
205.564286
 21
510.2
 31
0.0
  0
LINE
  5
D0
100
AcDbEntity
  8
LAY-1
  6
CONTINUOUS
 62
     3
100
AcDbLine
 10
206.564286
 20
519.45
 30
0.0
 11
206.564286
 21
506.95
 31
0.0
  0
LINE
  5
D1
100
AcDbEntity
  8
LAY-1
  6
CONTINUOUS
 62
     3
100
AcDbLine
 10
207.964286
 20
519.45
 30
0.0
 11
207.964286
 21
506.95
 31
0.0
  0
LINE
  5
D2
100
AcDbEntity
  8
LAY-1
  6
CONTINUOUS
 62
     3
100
AcDbLine
 10
207.964286
 20
515.7
 30
0.0
 11
210.849698
 21
515.7
 31
0.0
  0
LINE
  5
D3
100
AcDbEntity
  8
LAY-1
  6
CONTINUOUS
 62
     3
100
AcDbLine
 10
207.964286
 20
510.7
 30
0.0
 11
210.849698
 21
510.7
 31
0.0
  0
LINE
  5
D4
100
AcDbEntity
  8
LAY-1
  6
EXLTYPE3
 62
     1
100
AcDbLine
 10
203.1
 20
513.2
 30
0.0
 11
243.2
 21
513.2
 31
0.0
  0
ARC
  5
D5
100
AcDbEntity
  8
LAY-1
  6
CONTINUOUS
 62
     3
100
AcDbCircle
 10
225.278874
 20
516.0
 30
0.0
 40
0.3
100
AcDbArc
 50
207.645523
 51
270.0
  0
ARC
  5
D6
100
AcDbEntity
  8
LAY-1
  6
CONTINUOUS
 62
     3
100
AcDbCircle
 10
223.064286
 20
514.84
 30
0.0
 40
2.2
100
AcDbArc
 50
27.645523
 51
152.354477
  0
ARC
  5
D7
100
AcDbEntity
  8
LAY-1
  6
CONTINUOUS
 62
     3
100
AcDbCircle
 10
220.849698
 20
516.0
 30
0.0
 40
0.3
100
AcDbArc
 50
270.0
 51
332.354477
  0
ARC
  5
D8
100
AcDbEntity
  8
LAY-1
  6
CONTINUOUS
 62
     3
100
AcDbCircle
 10
225.278874
 20
510.4
 30
0.0
 40
0.3
100
AcDbArc
 50
90.0
 51
152.354477
  0
ARC
  5
D9
100
AcDbEntity
  8
LAY-1
  6
CONTINUOUS
 62
     3
100
AcDbCircle
 10
223.064286
 20
511.56
 30
0.0
 40
2.2
100
AcDbArc
 50
207.645523
 51
332.354477
  0
ARC
  5
DA
100
AcDbEntity
  8
LAY-1
  6
CONTINUOUS
 62
     3
100
AcDbCircle
 10
220.849698
 20
510.4
 30
0.0
 40
0.3
100
AcDbArc
 50
27.645523
 51
90.0
  0
LINE
  5
DB
100
AcDbEntity
  8
LAY-1
  6
CONTINUOUS
 62
     3
100
AcDbLine
 10
221.115448
 20
515.8608
 30
0.0
 11
221.115448
 21
510.5392
 31
0.0
  0
LINE
  5
DC
100
AcDbEntity
  8
LAY-1
  6
CONTINUOUS
 62
     3
100
AcDbLine
 10
225.013123
 20
510.5392
 30
0.0
 11
225.013123
 21
515.8608
 31
0.0
  0
LINE
  5
DD
100
AcDbEntity
  8
LAY-1
  6
CONTINUOUS
 62
     3
100
AcDbLine
 10
215.278874
 20
515.7
 30
0.0
 11
220.849698
 21
515.7
 31
0.0
  0
LINE
  5
DE
100
AcDbEntity
  8
LAY-1
  6
CONTINUOUS
 62
     3
100
AcDbLine
 10
225.278874
 20
515.7
 30
0.0
 11
230.849698
 21
515.7
 31
0.0
  0
LINE
  5
DF
100
AcDbEntity
  8
LAY-1
  6
CONTINUOUS
 62
     3
100
AcDbLine
 10
215.278874
 20
510.7
 30
0.0
 11
220.849698
 21
510.7
 31
0.0
  0
LINE
  5
E0
100
AcDbEntity
  8
LAY-1
  6
CONTINUOUS
 62
     3
100
AcDbLine
 10
225.278874
 20
510.7
 30
0.0
 11
230.849698
 21
510.7
 31
0.0
  0
LINE
  5
E1
100
AcDbEntity
  8
LAY-1
  6
CONTINUOUS
 62
     3
100
AcDbLine
 10
351.007143
 20
519.95
 30
0.0
 11
349.407143
 21
519.95
 31
0.0
  0
LINE
  5
E2
100
AcDbEntity
  8
LAY-1
  6
CONTINUOUS
 62
     3
100
AcDbLine
 10
351.007143
 20
506.45
 30
0.0
 11
349.407143
 21
506.45
 31
0.0
  0
LINE
  5
E3
100
AcDbEntity
  8
LAY-1
  6
CONTINUOUS
 62
     3
100
AcDbLine
 10
352.007143
 20
517.05
 30
0.0
 11
351.007143
 21
517.05
 31
0.0
  0
LINE
  5
E4
100
AcDbEntity
  8
LAY-1
  6
CONTINUOUS
 62
     3
100
AcDbLine
 10
352.007143
 20
509.35
 30
0.0
 11
351.007143
 21
509.35
 31
0.0
  0
LINE
  5
E5
100
AcDbEntity
  8
LAY-1
  6
CONTINUOUS
 62
     3
100
AcDbLine
 10
352.007143
 20
517.05
 30
0.0
 11
352.007143
 21
509.35
 31
0.0
  0
LINE
  5
E6
100
AcDbEntity
  8
LAY-1
  6
CONTINUOUS
 62
     3
100
AcDbLine
 10
351.007143
 20
519.95
 30
0.0
 11
351.007143
 21
506.45
 31
0.0
  0
LINE
  5
E7
100
AcDbEntity
  8
LAY-1
  6
CONTINUOUS
 62
     3
100
AcDbLine
 10
349.407143
 20
519.95
 30
0.0
 11
349.407143
 21
506.45
 31
0.0
  0
ARC
  5
E8
100
AcDbEntity
  8
LAY-1
  6
CONTINUOUS
 62
     3
100
AcDbCircle
 10
346.721731
 20
516.6
 30
0.0
 40
0.3
100
AcDbArc
 50
207.645523
 51
270.0
  0
ARC
  5
E9
100
AcDbEntity
  8
LAY-1
  6
CONTINUOUS
 62
     3
100
AcDbCircle
 10
344.507143
 20
515.44
 30
0.0
 40
2.2
100
AcDbArc
 50
27.645523
 51
152.354477
  0
ARC
  5
EA
100
AcDbEntity
  8
LAY-1
  6
CONTINUOUS
 62
     3
100
AcDbCircle
 10
342.292555
 20
516.6
 30
0.0
 40
0.3
100
AcDbArc
 50
270.0
 51
332.354477
  0
ARC
  5
EB
100
AcDbEntity
  8
LAY-1
  6
CONTINUOUS
 62
     3
100
AcDbCircle
 10
342.292555
 20
509.8
 30
0.0
 40
0.3
100
AcDbArc
 50
27.645523
 51
90.0
  0
ARC
  5
EC
100
AcDbEntity
  8
LAY-1
  6
CONTINUOUS
 62
     3
100
AcDbCircle
 10
344.507143
 20
510.96
 30
0.0
 40
2.2
100
AcDbArc
 50
207.645523
 51
332.354477
  0
ARC
  5
ED
100
AcDbEntity
  8
LAY-1
  6
CONTINUOUS
 62
     3
100
AcDbCircle
 10
346.721731
 20
509.8
 30
0.0
 40
0.3
100
AcDbArc
 50
90.0
 51
152.354477
  0
LINE
  5
EE
100
AcDbEntity
  8
LAY-1
  6
CONTINUOUS
 62
     3
100
AcDbLine
 10
342.558305
 20
516.4608
 30
0.0
 11
342.558305
 21
509.9392
 31
0.0
  0
LINE
  5
EF
100
AcDbEntity
  8
LAY-1
  6
CONTINUOUS
 62
     3
100
AcDbLine
 10
346.45598
 20
509.9392
 30
0.0
 11
346.45598
 21
516.4608
 31
0.0
  0
LINE
  5
F0
100
AcDbEntity
  8
LAY-1
  6
CONTINUOUS
 62
     3
100
AcDbLine
 10
346.721731
 20
516.3
 30
0.0
 11
349.407143
 21
516.3
 31
0.0
  0
LINE
  5
F1
100
AcDbEntity
  8
LAY-1
  6
CONTINUOUS
 62
     3
100
AcDbLine
 10
349.407143
 20
510.1
 30
0.0
 11
346.721731
 21
510.1
 31
0.0
  0
ARC
  5
F2
100
AcDbEntity
  8
LAY-1
  6
CONTINUOUS
 62
     3
100
AcDbCircle
 10
326.721731
 20
516.6
 30
0.0
 40
0.3
100
AcDbArc
 50
207.645523
 51
270.0
  0
ARC
  5
F3
100
AcDbEntity
  8
LAY-1
  6
CONTINUOUS
 62
     3
100
AcDbCircle
 10
324.507143
 20
515.44
 30
0.0
 40
2.2
100
AcDbArc
 50
27.645523
 51
152.354477
  0
ARC
  5
F4
100
AcDbEntity
  8
LAY-1
  6
CONTINUOUS
 62
     3
100
AcDbCircle
 10
322.292555
 20
516.6
 30
0.0
 40
0.3
100
AcDbArc
 50
270.0
 51
332.354477
  0
ARC
  5
F5
100
AcDbEntity
  8
LAY-1
  6
CONTINUOUS
 62
     3
100
AcDbCircle
 10
322.292555
 20
509.8
 30
0.0
 40
0.3
100
AcDbArc
 50
27.645523
 51
90.0
  0
ARC
  5
F6
100
AcDbEntity
  8
LAY-1
  6
CONTINUOUS
 62
     3
100
AcDbCircle
 10
324.507143
 20
510.96
 30
0.0
 40
2.2
100
AcDbArc
 50
207.645523
 51
332.354477
  0
ARC
  5
F7
100
AcDbEntity
  8
LAY-1
  6
CONTINUOUS
 62
     3
100
AcDbCircle
 10
326.721731
 20
509.8
 30
0.0
 40
0.3
100
AcDbArc
 50
90.0
 51
152.354477
  0
LINE
  5
F8
100
AcDbEntity
  8
LAY-1
  6
CONTINUOUS
 62
     3
100
AcDbLine
 10
322.558305
 20
516.4608
 30
0.0
 11
322.558305
 21
509.9392
 31
0.0
  0
LINE
  5
F9
100
AcDbEntity
  8
LAY-1
  6
CONTINUOUS
 62
     3
100
AcDbLine
 10
326.45598
 20
509.9392
 30
0.0
 11
326.45598
 21
516.4608
 31
0.0
  0
LINE
  5
FA
100
AcDbEntity
  8
LAY-1
  6
CONTINUOUS
 62
     3
100
AcDbLine
 10
318.007143
 20
519.95
 30
0.0
 11
319.607143
 21
519.95
 31
0.0
  0
LINE
  5
FB
100
AcDbEntity
  8
LAY-1
  6
CONTINUOUS
 62
     3
100
AcDbLine
 10
318.007143
 20
506.45
 30
0.0
 11
319.607143
 21
506.45
 31
0.0
  0
LINE
  5
FC
100
AcDbEntity
  8
LAY-1
  6
CONTINUOUS
 62
     3
100
AcDbLine
 10
317.007143
 20
517.05
 30
0.0
 11
318.007143
 21
517.05
 31
0.0
  0
LINE
  5
FD
100
AcDbEntity
  8
LAY-1
  6
CONTINUOUS
 62
     3
100
AcDbLine
 10
317.007143
 20
509.35
 30
0.0
 11
318.007143
 21
509.35
 31
0.0
  0
LINE
  5
FE
100
AcDbEntity
  8
LAY-1
  6
CONTINUOUS
 62
     3
100
AcDbLine
 10
319.607143
 20
519.95
 30
0.0
 11
319.607143
 21
506.45
 31
0.0
  0
LINE
  5
FF
100
AcDbEntity
  8
LAY-1
  6
CONTINUOUS
 62
     3
100
AcDbLine
 10
318.007143
 20
519.95
 30
0.0
 11
318.007143
 21
506.45
 31
0.0
  0
LINE
  5
100
100
AcDbEntity
  8
LAY-1
  6
CONTINUOUS
 62
     3
100
AcDbLine
 10
317.007143
 20
517.05
 30
0.0
 11
317.007143
 21
509.35
 31
0.0
  0
LINE
  5
101
100
AcDbEntity
  8
LAY-1
  6
CONTINUOUS
 62
     3
100
AcDbLine
 10
319.607143
 20
516.3
 30
0.0
 11
322.292555
 21
516.3
 31
0.0
  0
LINE
  5
102
100
AcDbEntity
  8
LAY-1
  6
CONTINUOUS
 62
     3
100
AcDbLine
 10
319.607143
 20
510.1
 30
0.0
 11
322.292555
 21
510.1
 31
0.0
  0
LINE
  5
103
100
AcDbEntity
  8
LAY-1
  6
EXLTYPE3
 62
     1
100
AcDbLine
 10
315.0
 20
513.2
 30
0.0
 11
353.6
 21
513.2
 31
0.0
  0
ARC
  5
104
100
AcDbEntity
  8
LAY-1
  6
CONTINUOUS
 62
     3
100
AcDbCircle
 10
336.721731
 20
516.6
 30
0.0
 40
0.3
100
AcDbArc
 50
207.645523
 51
270.0
  0
ARC
  5
105
100
AcDbEntity
  8
LAY-1
  6
CONTINUOUS
 62
     3
100
AcDbCircle
 10
334.507143
 20
515.44
 30
0.0
 40
2.2
100
AcDbArc
 50
27.645523
 51
152.354477
  0
ARC
  5
106
100
AcDbEntity
  8
LAY-1
  6
CONTINUOUS
 62
     3
100
AcDbCircle
 10
332.292555
 20
516.6
 30
0.0
 40
0.3
100
AcDbArc
 50
270.0
 51
332.354477
  0
ARC
  5
107
100
AcDbEntity
  8
LAY-1
  6
CONTINUOUS
 62
     3
100
AcDbCircle
 10
332.292555
 20
509.8
 30
0.0
 40
0.3
100
AcDbArc
 50
27.645523
 51
90.0
  0
ARC
  5
108
100
AcDbEntity
  8
LAY-1
  6
CONTINUOUS
 62
     3
100
AcDbCircle
 10
334.507143
 20
510.96
 30
0.0
 40
2.2
100
AcDbArc
 50
207.645523
 51
332.354477
  0
ARC
  5
109
100
AcDbEntity
  8
LAY-1
  6
CONTINUOUS
 62
     3
100
AcDbCircle
 10
336.721731
 20
509.8
 30
0.0
 40
0.3
100
AcDbArc
 50
90.0
 51
152.354477
  0
LINE
  5
10A
100
AcDbEntity
  8
LAY-1
  6
CONTINUOUS
 62
     3
100
AcDbLine
 10
332.558305
 20
516.4608
 30
0.0
 11
332.558305
 21
509.9392
 31
0.0
  0
LINE
  5
10B
100
AcDbEntity
  8
LAY-1
  6
CONTINUOUS
 62
     3
100
AcDbLine
 10
336.45598
 20
509.9392
 30
0.0
 11
336.45598
 21
516.4608
 31
0.0
  0
LINE
  5
10C
100
AcDbEntity
  8
LAY-1
  6
CONTINUOUS
 62
     3
100
AcDbLine
 10
326.721731
 20
516.3
 30
0.0
 11
332.292555
 21
516.3
 31
0.0
  0
LINE
  5
10D
100
AcDbEntity
  8
LAY-1
  6
CONTINUOUS
 62
     3
100
AcDbLine
 10
336.721731
 20
516.3
 30
0.0
 11
342.292555
 21
516.3
 31
0.0
  0
LINE
  5
10E
100
AcDbEntity
  8
LAY-1
  6
CONTINUOUS
 62
     3
100
AcDbLine
 10
342.292555
 20
510.1
 30
0.0
 11
336.721731
 21
510.1
 31
0.0
  0
LINE
  5
10F
100
AcDbEntity
  8
LAY-1
  6
CONTINUOUS
 62
     3
100
AcDbLine
 10
332.292555
 20
510.1
 30
0.0
 11
326.721731
 21
510.1
 31
0.0
  0
LINE
  5
110
100
AcDbEntity
  8
LAY-1
  6
CONTINUOUS
 62
     3
100
AcDbLine
 10
462.45
 20
520.2
 30
0.0
 11
460.85
 21
520.2
 31
0.0
  0
LINE
  5
111
100
AcDbEntity
  8
LAY-1
  6
CONTINUOUS
 62
     3
100
AcDbLine
 10
462.45
 20
506.2
 30
0.0
 11
460.85
 21
506.2
 31
0.0
  0
LINE
  5
112
100
AcDbEntity
  8
LAY-1
  6
CONTINUOUS
 62
     3
100
AcDbLine
 10
463.45
 20
517.2
 30
0.0
 11
462.45
 21
517.2
 31
0.0
  0
LINE
  5
113
100
AcDbEntity
  8
LAY-1
  6
CONTINUOUS
 62
     3
100
AcDbLine
 10
463.45
 20
509.2
 30
0.0
 11
462.45
 21
509.2
 31
0.0
  0
LINE
  5
114
100
AcDbEntity
  8
LAY-1
  6
CONTINUOUS
 62
     3
100
AcDbLine
 10
463.45
 20
517.2
 30
0.0
 11
463.45
 21
509.2
 31
0.0
  0
LINE
  5
115
100
AcDbEntity
  8
LAY-1
  6
CONTINUOUS
 62
     3
100
AcDbLine
 10
462.45
 20
520.2
 30
0.0
 11
462.45
 21
506.2
 31
0.0
  0
LINE
  5
116
100
AcDbEntity
  8
LAY-1
  6
CONTINUOUS
 62
     3
100
AcDbLine
 10
460.85
 20
520.2
 30
0.0
 11
460.85
 21
506.2
 31
0.0
  0
ARC
  5
117
100
AcDbEntity
  8
LAY-1
  6
CONTINUOUS
 62
     3
100
AcDbCircle
 10
458.164588
 20
516.5
 30
0.0
 40
0.3
100
AcDbArc
 50
207.645523
 51
270.0
  0
ARC
  5
118
100
AcDbEntity
  8
LAY-1
  6
CONTINUOUS
 62
     3
100
AcDbCircle
 10
455.95
 20
515.34
 30
0.0
 40
2.2
100
AcDbArc
 50
27.645523
 51
152.354477
  0
ARC
  5
119
100
AcDbEntity
  8
LAY-1
  6
CONTINUOUS
 62
     3
100
AcDbCircle
 10
453.735412
 20
516.5
 30
0.0
 40
0.3
100
AcDbArc
 50
270.0
 51
332.354477
  0
ARC
  5
11A
100
AcDbEntity
  8
LAY-1
  6
CONTINUOUS
 62
     3
100
AcDbCircle
 10
453.735412
 20
509.9
 30
0.0
 40
0.3
100
AcDbArc
 50
27.645523
 51
90.0
  0
ARC
  5
11B
100
AcDbEntity
  8
LAY-1
  6
CONTINUOUS
 62
     3
100
AcDbCircle
 10
455.95
 20
511.06
 30
0.0
 40
2.2
100
AcDbArc
 50
207.645523
 51
332.354477
  0
ARC
  5
11C
100
AcDbEntity
  8
LAY-1
  6
CONTINUOUS
 62
     3
100
AcDbCircle
 10
458.164588
 20
509.9
 30
0.0
 40
0.3
100
AcDbArc
 50
90.0
 51
152.354477
  0
LINE
  5
11D
100
AcDbEntity
  8
LAY-1
  6
CONTINUOUS
 62
     3
100
AcDbLine
 10
454.001163
 20
516.3608
 30
0.0
 11
454.001163
 21
510.0392
 31
0.0
  0
LINE
  5
11E
100
AcDbEntity
  8
LAY-1
  6
CONTINUOUS
 62
     3
100
AcDbLine
 10
457.898837
 20
510.0392
 30
0.0
 11
457.898837
 21
516.3608
 31
0.0
  0
LINE
  5
11F
100
AcDbEntity
  8
LAY-1
  6
CONTINUOUS
 62
     3
100
AcDbLine
 10
458.164588
 20
516.2
 30
0.0
 11
460.85
 21
516.2
 31
0.0
  0
LINE
  5
120
100
AcDbEntity
  8
LAY-1
  6
CONTINUOUS
 62
     3
100
AcDbLine
 10
460.85
 20
510.2
 30
0.0
 11
458.164588
 21
510.2
 31
0.0
  0
ARC
  5
121
100
AcDbEntity
  8
LAY-1
  6
CONTINUOUS
 62
     3
100
AcDbCircle
 10
438.164588
 20
516.5
 30
0.0
 40
0.3
100
AcDbArc
 50
207.645523
 51
270.0
  0
ARC
  5
122
100
AcDbEntity
  8
LAY-1
  6
CONTINUOUS
 62
     3
100
AcDbCircle
 10
435.95
 20
515.34
 30
0.0
 40
2.2
100
AcDbArc
 50
27.645523
 51
152.354477
  0
ARC
  5
123
100
AcDbEntity
  8
LAY-1
  6
CONTINUOUS
 62
     3
100
AcDbCircle
 10
433.735412
 20
516.5
 30
0.0
 40
0.3
100
AcDbArc
 50
270.0
 51
332.354477
  0
ARC
  5
124
100
AcDbEntity
  8
LAY-1
  6
CONTINUOUS
 62
     3
100
AcDbCircle
 10
433.735412
 20
509.9
 30
0.0
 40
0.3
100
AcDbArc
 50
27.645523
 51
90.0
  0
ARC
  5
125
100
AcDbEntity
  8
LAY-1
  6
CONTINUOUS
 62
     3
100
AcDbCircle
 10
435.95
 20
511.06
 30
0.0
 40
2.2
100
AcDbArc
 50
207.645523
 51
332.354477
  0
ARC
  5
126
100
AcDbEntity
  8
LAY-1
  6
CONTINUOUS
 62
     3
100
AcDbCircle
 10
438.164588
 20
509.9
 30
0.0
 40
0.3
100
AcDbArc
 50
90.0
 51
152.354477
  0
LINE
  5
127
100
AcDbEntity
  8
LAY-1
  6
CONTINUOUS
 62
     3
100
AcDbLine
 10
434.001163
 20
516.3608
 30
0.0
 11
434.001163
 21
510.0392
 31
0.0
  0
LINE
  5
128
100
AcDbEntity
  8
LAY-1
  6
CONTINUOUS
 62
     3
100
AcDbLine
 10
437.898837
 20
510.0392
 30
0.0
 11
437.898837
 21
516.3608
 31
0.0
  0
LINE
  5
129
100
AcDbEntity
  8
LAY-1
  6
CONTINUOUS
 62
     3
100
AcDbLine
 10
429.45
 20
520.2
 30
0.0
 11
431.05
 21
520.2
 31
0.0
  0
LINE
  5
12A
100
AcDbEntity
  8
LAY-1
  6
CONTINUOUS
 62
     3
100
AcDbLine
 10
429.45
 20
506.2
 30
0.0
 11
431.05
 21
506.2
 31
0.0
  0
LINE
  5
12B
100
AcDbEntity
  8
LAY-1
  6
CONTINUOUS
 62
     3
100
AcDbLine
 10
428.45
 20
517.2
 30
0.0
 11
429.45
 21
517.2
 31
0.0
  0
LINE
  5
12C
100
AcDbEntity
  8
LAY-1
  6
CONTINUOUS
 62
     3
100
AcDbLine
 10
428.45
 20
509.2
 30
0.0
 11
429.45
 21
509.2
 31
0.0
  0
LINE
  5
12D
100
AcDbEntity
  8
LAY-1
  6
CONTINUOUS
 62
     3
100
AcDbLine
 10
428.45
 20
517.2
 30
0.0
 11
428.45
 21
509.2
 31
0.0
  0
LINE
  5
12E
100
AcDbEntity
  8
LAY-1
  6
CONTINUOUS
 62
     3
100
AcDbLine
 10
429.45
 20
520.2
 30
0.0
 11
429.45
 21
506.2
 31
0.0
  0
LINE
  5
12F
100
AcDbEntity
  8
LAY-1
  6
CONTINUOUS
 62
     3
100
AcDbLine
 10
431.05
 20
520.2
 30
0.0
 11
431.05
 21
506.2
 31
0.0
  0
LINE
  5
130
100
AcDbEntity
  8
LAY-1
  6
CONTINUOUS
 62
     3
100
AcDbLine
 10
431.05
 20
516.2
 30
0.0
 11
434.001163
 21
516.2
 31
0.0
  0
LINE
  5
131
100
AcDbEntity
  8
LAY-1
  6
CONTINUOUS
 62
     3
100
AcDbLine
 10
431.05
 20
510.2
 30
0.0
 11
434.001163
 21
510.2
 31
0.0
  0
LINE
  5
132
100
AcDbEntity
  8
LAY-1
  6
EXLTYPE3
 62
     1
100
AcDbLine
 10
426.0
 20
513.2
 30
0.0
 11
465.3
 21
513.2
 31
0.0
  0
ARC
  5
133
100
AcDbEntity
  8
LAY-1
  6
CONTINUOUS
 62
     3
100
AcDbCircle
 10
448.164588
 20
516.5
 30
0.0
 40
0.3
100
AcDbArc
 50
207.645523
 51
270.0
  0
ARC
  5
134
100
AcDbEntity
  8
LAY-1
  6
CONTINUOUS
 62
     3
100
AcDbCircle
 10
445.95
 20
515.34
 30
0.0
 40
2.2
100
AcDbArc
 50
27.645523
 51
152.354477
  0
ARC
  5
135
100
AcDbEntity
  8
LAY-1
  6
CONTINUOUS
 62
     3
100
AcDbCircle
 10
443.735412
 20
516.5
 30
0.0
 40
0.3
100
AcDbArc
 50
270.0
 51
332.354477
  0
ARC
  5
136
100
AcDbEntity
  8
LAY-1
  6
CONTINUOUS
 62
     3
100
AcDbCircle
 10
443.735412
 20
509.9
 30
0.0
 40
0.3
100
AcDbArc
 50
27.645523
 51
90.0
  0
ARC
  5
137
100
AcDbEntity
  8
LAY-1
  6
CONTINUOUS
 62
     3
100
AcDbCircle
 10
445.95
 20
511.06
 30
0.0
 40
2.2
100
AcDbArc
 50
207.645523
 51
332.354477
  0
ARC
  5
138
100
AcDbEntity
  8
LAY-1
  6
CONTINUOUS
 62
     3
100
AcDbCircle
 10
448.164588
 20
509.9
 30
0.0
 40
0.3
100
AcDbArc
 50
90.0
 51
152.354477
  0
LINE
  5
139
100
AcDbEntity
  8
LAY-1
  6
CONTINUOUS
 62
     3
100
AcDbLine
 10
444.001163
 20
516.3608
 30
0.0
 11
444.001163
 21
510.0392
 31
0.0
  0
LINE
  5
13A
100
AcDbEntity
  8
LAY-1
  6
CONTINUOUS
 62
     3
100
AcDbLine
 10
447.898837
 20
510.0392
 30
0.0
 11
447.898837
 21
516.3608
 31
0.0
  0
LINE
  5
13B
100
AcDbEntity
  8
LAY-1
  6
CONTINUOUS
 62
     3
100
AcDbLine
 10
438.164588
 20
516.2
 30
0.0
 11
443.735412
 21
516.2
 31
0.0
  0
LINE
  5
13C
100
AcDbEntity
  8
LAY-1
  6
CONTINUOUS
 62
     3
100
AcDbLine
 10
448.164588
 20
516.2
 30
0.0
 11
453.735412
 21
516.2
 31
0.0
  0
LINE
  5
13D
100
AcDbEntity
  8
LAY-1
  6
CONTINUOUS
 62
     3
100
AcDbLine
 10
453.735412
 20
510.2
 30
0.0
 11
448.164588
 21
510.2
 31
0.0
  0
LINE
  5
13E
100
AcDbEntity
  8
LAY-1
  6
CONTINUOUS
 62
     3
100
AcDbLine
 10
443.735412
 20
510.2
 30
0.0
 11
438.164588
 21
510.2
 31
0.0
  0
ARC
  5
13F
100
AcDbEntity
  8
LAY-1
  6
CONTINUOUS
 62
     3
100
AcDbCircle
 10
549.607445
 20
517.25
 30
0.0
 40
0.3
100
AcDbArc
 50
207.645523
 51
270.0
  0
ARC
  5
140
100
AcDbEntity
  8
LAY-1
  6
CONTINUOUS
 62
     3
100
AcDbCircle
 10
547.392857
 20
516.09
 30
0.0
 40
2.2
100
AcDbArc
 50
27.645523
 51
152.354477
  0
ARC
  5
141
100
AcDbEntity
  8
LAY-1
  6
CONTINUOUS
 62
     3
100
AcDbCircle
 10
545.178269
 20
517.25
 30
0.0
 40
0.3
100
AcDbArc
 50
270.0
 51
332.354477
  0
ARC
  5
142
100
AcDbEntity
  8
LAY-1
  6
CONTINUOUS
 62
     3
100
AcDbCircle
 10
545.178269
 20
509.15
 30
0.0
 40
0.3
100
AcDbArc
 50
27.645523
 51
90.0
  0
ARC
  5
143
100
AcDbEntity
  8
LAY-1
  6
CONTINUOUS
 62
     3
100
AcDbCircle
 10
547.392857
 20
510.31
 30
0.0
 40
2.2
100
AcDbArc
 50
207.645523
 51
332.354477
  0
ARC
  5
144
100
AcDbEntity
  8
LAY-1
  6
CONTINUOUS
 62
     3
100
AcDbCircle
 10
549.607445
 20
509.15
 30
0.0
 40
0.3
100
AcDbArc
 50
90.0
 51
152.354477
  0
LINE
  5
145
100
AcDbEntity
  8
LAY-1
  6
CONTINUOUS
 62
     3
100
AcDbLine
 10
545.44402
 20
517.1108
 30
0.0
 11
545.44402
 21
509.2892
 31
0.0
  0
LINE
  5
146
100
AcDbEntity
  8
LAY-1
  6
CONTINUOUS
 62
     3
100
AcDbLine
 10
549.341695
 20
509.2892
 30
0.0
 11
549.341695
 21
517.1108
 31
0.0
  0
LINE
  5
147
100
AcDbEntity
  8
LAY-1
  6
CONTINUOUS
 62
     3
100
AcDbLine
 10
540.892857
 20
520.95
 30
0.0
 11
542.492857
 21
520.95
 31
0.0
  0
LINE
  5
148
100
AcDbEntity
  8
LAY-1
  6
CONTINUOUS
 62
     3
100
AcDbLine
 10
540.892857
 20
505.45
 30
0.0
 11
542.492857
 21
505.45
 31
0.0
  0
LINE
  5
149
100
AcDbEntity
  8
LAY-1
  6
CONTINUOUS
 62
     3
100
AcDbLine
 10
539.892857
 20
517.95
 30
0.0
 11
540.892857
 21
517.95
 31
0.0
  0
LINE
  5
14A
100
AcDbEntity
  8
LAY-1
  6
CONTINUOUS
 62
     3
100
AcDbLine
 10
539.892857
 20
508.45
 30
0.0
 11
540.892857
 21
508.45
 31
0.0
  0
LINE
  5
14B
100
AcDbEntity
  8
LAY-1
  6
CONTINUOUS
 62
     3
100
AcDbLine
 10
539.892857
 20
517.95
 30
0.0
 11
539.892857
 21
508.45
 31
0.0
  0
LINE
  5
14C
100
AcDbEntity
  8
LAY-1
  6
CONTINUOUS
 62
     3
100
AcDbLine
 10
540.892857
 20
520.95
 30
0.0
 11
540.892857
 21
505.45
 31
0.0
  0
LINE
  5
14D
100
AcDbEntity
  8
LAY-1
  6
CONTINUOUS
 62
     3
100
AcDbLine
 10
542.492857
 20
520.95
 30
0.0
 11
542.492857
 21
505.45
 31
0.0
  0
LINE
  5
14E
100
AcDbEntity
  8
LAY-1
  6
CONTINUOUS
 62
     3
100
AcDbLine
 10
542.492857
 20
516.95
 30
0.0
 11
545.178269
 21
516.95
 31
0.0
  0
LINE
  5
14F
100
AcDbEntity
  8
LAY-1
  6
CONTINUOUS
 62
     3
100
AcDbLine
 10
542.492857
 20
509.45
 30
0.0
 11
545.178269
 21
509.45
 31
0.0
  0
LINE
  5
150
100
AcDbEntity
  8
LAY-1
  6
CONTINUOUS
 62
     3
100
AcDbLine
 10
573.892857
 20
520.95
 30
0.0
 11
572.292857
 21
520.95
 31
0.0
  0
LINE
  5
151
100
AcDbEntity
  8
LAY-1
  6
CONTINUOUS
 62
     3
100
AcDbLine
 10
573.892857
 20
505.45
 30
0.0
 11
572.292857
 21
505.45
 31
0.0
  0
LINE
  5
152
100
AcDbEntity
  8
LAY-1
  6
CONTINUOUS
 62
     3
100
AcDbLine
 10
574.892857
 20
517.95
 30
0.0
 11
573.892857
 21
517.95
 31
0.0
  0
LINE
  5
153
100
AcDbEntity
  8
LAY-1
  6
CONTINUOUS
 62
     3
100
AcDbLine
 10
574.892857
 20
508.45
 30
0.0
 11
573.892857
 21
508.45
 31
0.0
  0
LINE
  5
154
100
AcDbEntity
  8
LAY-1
  6
CONTINUOUS
 62
     3
100
AcDbLine
 10
574.892857
 20
517.95
 30
0.0
 11
574.892857
 21
508.45
 31
0.0
  0
LINE
  5
155
100
AcDbEntity
  8
LAY-1
  6
CONTINUOUS
 62
     3
100
AcDbLine
 10
573.892857
 20
520.95
 30
0.0
 11
573.892857
 21
505.45
 31
0.0
  0
LINE
  5
156
100
AcDbEntity
  8
LAY-1
  6
CONTINUOUS
 62
     3
100
AcDbLine
 10
572.292857
 20
520.95
 30
0.0
 11
572.292857
 21
505.45
 31
0.0
  0
ARC
  5
157
100
AcDbEntity
  8
LAY-1
  6
CONTINUOUS
 62
     3
100
AcDbCircle
 10
569.607445
 20
517.25
 30
0.0
 40
0.3
100
AcDbArc
 50
207.645523
 51
270.0
  0
ARC
  5
158
100
AcDbEntity
  8
LAY-1
  6
CONTINUOUS
 62
     3
100
AcDbCircle
 10
567.392857
 20
516.09
 30
0.0
 40
2.2
100
AcDbArc
 50
27.645523
 51
152.354477
  0
ARC
  5
159
100
AcDbEntity
  8
LAY-1
  6
CONTINUOUS
 62
     3
100
AcDbCircle
 10
565.178269
 20
517.25
 30
0.0
 40
0.3
100
AcDbArc
 50
270.0
 51
332.354477
  0
ARC
  5
15A
100
AcDbEntity
  8
LAY-1
  6
CONTINUOUS
 62
     3
100
AcDbCircle
 10
565.178269
 20
509.15
 30
0.0
 40
0.3
100
AcDbArc
 50
27.645523
 51
90.0
  0
ARC
  5
15B
100
AcDbEntity
  8
LAY-1
  6
CONTINUOUS
 62
     3
100
AcDbCircle
 10
567.392857
 20
510.31
 30
0.0
 40
2.2
100
AcDbArc
 50
207.645523
 51
332.354477
  0
ARC
  5
15C
100
AcDbEntity
  8
LAY-1
  6
CONTINUOUS
 62
     3
100
AcDbCircle
 10
569.607445
 20
509.15
 30
0.0
 40
0.3
100
AcDbArc
 50
90.0
 51
152.354477
  0
LINE
  5
15D
100
AcDbEntity
  8
LAY-1
  6
CONTINUOUS
 62
     3
100
AcDbLine
 10
565.44402
 20
517.1108
 30
0.0
 11
565.44402
 21
509.2892
 31
0.0
  0
LINE
  5
15E
100
AcDbEntity
  8
LAY-1
  6
CONTINUOUS
 62
     3
100
AcDbLine
 10
569.341695
 20
509.2892
 30
0.0
 11
569.341695
 21
517.1108
 31
0.0
  0
LINE
  5
15F
100
AcDbEntity
  8
LAY-1
  6
CONTINUOUS
 62
     3
100
AcDbLine
 10
569.607445
 20
516.95
 30
0.0
 11
572.292857
 21
516.95
 31
0.0
  0
LINE
  5
160
100
AcDbEntity
  8
LAY-1
  6
CONTINUOUS
 62
     3
100
AcDbLine
 10
572.292857
 20
509.45
 30
0.0
 11
569.607445
 21
509.45
 31
0.0
  0
LINE
  5
161
100
AcDbEntity
  8
LAY-1
  6
EXLTYPE3
 62
     1
100
AcDbLine
 10
537.1
 20
513.2
 30
0.0
 11
577.7
 21
513.2
 31
0.0
  0
ARC
  5
162
100
AcDbEntity
  8
LAY-1
  6
CONTINUOUS
 62
     3
100
AcDbCircle
 10
559.607445
 20
517.25
 30
0.0
 40
0.3
100
AcDbArc
 50
207.645523
 51
270.0
  0
ARC
  5
163
100
AcDbEntity
  8
LAY-1
  6
CONTINUOUS
 62
     3
100
AcDbCircle
 10
557.392857
 20
516.09
 30
0.0
 40
2.2
100
AcDbArc
 50
27.645523
 51
152.354477
  0
ARC
  5
164
100
AcDbEntity
  8
LAY-1
  6
CONTINUOUS
 62
     3
100
AcDbCircle
 10
555.178269
 20
517.25
 30
0.0
 40
0.3
100
AcDbArc
 50
270.0
 51
332.354477
  0
ARC
  5
165
100
AcDbEntity
  8
LAY-1
  6
CONTINUOUS
 62
     3
100
AcDbCircle
 10
555.178269
 20
509.15
 30
0.0
 40
0.3
100
AcDbArc
 50
27.645523
 51
90.0
  0
ARC
  5
166
100
AcDbEntity
  8
LAY-1
  6
CONTINUOUS
 62
     3
100
AcDbCircle
 10
557.392857
 20
510.31
 30
0.0
 40
2.2
100
AcDbArc
 50
207.645523
 51
332.354477
  0
ARC
  5
167
100
AcDbEntity
  8
LAY-1
  6
CONTINUOUS
 62
     3
100
AcDbCircle
 10
559.607445
 20
509.15
 30
0.0
 40
0.3
100
AcDbArc
 50
90.0
 51
152.354477
  0
LINE
  5
168
100
AcDbEntity
  8
LAY-1
  6
CONTINUOUS
 62
     3
100
AcDbLine
 10
555.44402
 20
517.1108
 30
0.0
 11
555.44402
 21
509.2892
 31
0.0
  0
LINE
  5
169
100
AcDbEntity
  8
LAY-1
  6
CONTINUOUS
 62
     3
100
AcDbLine
 10
559.341695
 20
509.2892
 30
0.0
 11
559.341695
 21
517.1108
 31
0.0
  0
LINE
  5
16A
100
AcDbEntity
  8
LAY-1
  6
CONTINUOUS
 62
     3
100
AcDbLine
 10
549.607445
 20
516.95
 30
0.0
 11
555.178269
 21
516.95
 31
0.0
  0
LINE
  5
16B
100
AcDbEntity
  8
LAY-1
  6
CONTINUOUS
 62
     3
100
AcDbLine
 10
559.607445
 20
516.95
 30
0.0
 11
565.178269
 21
516.95
 31
0.0
  0
LINE
  5
16C
100
AcDbEntity
  8
LAY-1
  6
CONTINUOUS
 62
     3
100
AcDbLine
 10
565.178269
 20
509.45
 30
0.0
 11
559.607445
 21
509.45
 31
0.0
  0
LINE
  5
16D
100
AcDbEntity
  8
LAY-1
  6
CONTINUOUS
 62
     3
100
AcDbLine
 10
555.178269
 20
509.45
 30
0.0
 11
549.607445
 21
509.45
 31
0.0
  0
LINE
  5
16E
100
AcDbEntity
  8
LAY-1
  6
CONTINUOUS
 62
     3
100
AcDbLine
 10
685.335714
 20
521.95
 30
0.0
 11
683.535714
 21
521.95
 31
0.0
  0
LINE
  5
16F
100
AcDbEntity
  8
LAY-1
  6
CONTINUOUS
 62
     3
100
AcDbLine
 10
685.335714
 20
504.45
 30
0.0
 11
683.535714
 21
504.45
 31
0.0
  0
LINE
  5
170
100
AcDbEntity
  8
LAY-1
  6
CONTINUOUS
 62
     3
100
AcDbLine
 10
686.335714
 20
518.95
 30
0.0
 11
685.335714
 21
518.95
 31
0.0
  0
LINE
  5
171
100
AcDbEntity
  8
LAY-1
  6
CONTINUOUS
 62
     3
100
AcDbLine
 10
686.335714
 20
507.45
 30
0.0
 11
685.335714
 21
507.45
 31
0.0
  0
LINE
  5
172
100
AcDbEntity
  8
LAY-1
  6
CONTINUOUS
 62
     3
100
AcDbLine
 10
686.335714
 20
518.95
 30
0.0
 11
686.335714
 21
507.45
 31
0.0
  0
LINE
  5
173
100
AcDbEntity
  8
LAY-1
  6
CONTINUOUS
 62
     3
100
AcDbLine
 10
685.335714
 20
521.95
 30
0.0
 11
685.335714
 21
504.45
 31
0.0
  0
LINE
  5
174
100
AcDbEntity
  8
LAY-1
  6
CONTINUOUS
 62
     3
100
AcDbLine
 10
683.535714
 20
521.95
 30
0.0
 11
683.535714
 21
504.45
 31
0.0
  0
ARC
  5
175
100
AcDbEntity
  8
LAY-1
  6
CONTINUOUS
 62
     3
100
AcDbCircle
 10
681.050302
 20
518.25
 30
0.0
 40
0.3
100
AcDbArc
 50
207.645523
 51
270.0
  0
ARC
  5
176
100
AcDbEntity
  8
LAY-1
  6
CONTINUOUS
 62
     3
100
AcDbCircle
 10
678.835714
 20
517.09
 30
0.0
 40
2.2
100
AcDbArc
 50
27.645523
 51
152.354477
  0
ARC
  5
177
100
AcDbEntity
  8
LAY-1
  6
CONTINUOUS
 62
     3
100
AcDbCircle
 10
676.621126
 20
518.25
 30
0.0
 40
0.3
100
AcDbArc
 50
270.0
 51
332.354477
  0
ARC
  5
178
100
AcDbEntity
  8
LAY-1
  6
CONTINUOUS
 62
     3
100
AcDbCircle
 10
676.621126
 20
508.15
 30
0.0
 40
0.3
100
AcDbArc
 50
27.645523
 51
90.0
  0
ARC
  5
179
100
AcDbEntity
  8
LAY-1
  6
CONTINUOUS
 62
     3
100
AcDbCircle
 10
678.835714
 20
509.31
 30
0.0
 40
2.2
100
AcDbArc
 50
207.645523
 51
332.354477
  0
ARC
  5
17A
100
AcDbEntity
  8
LAY-1
  6
CONTINUOUS
 62
     3
100
AcDbCircle
 10
681.050302
 20
508.15
 30
0.0
 40
0.3
100
AcDbArc
 50
90.0
 51
152.354477
  0
LINE
  5
17B
100
AcDbEntity
  8
LAY-1
  6
CONTINUOUS
 62
     3
100
AcDbLine
 10
676.886877
 20
518.1108
 30
0.0
 11
676.886877
 21
508.2892
 31
0.0
  0
LINE
  5
17C
100
AcDbEntity
  8
LAY-1
  6
CONTINUOUS
 62
     3
100
AcDbLine
 10
680.784552
 20
508.2892
 30
0.0
 11
680.784552
 21
518.1108
 31
0.0
  0
LINE
  5
17D
100
AcDbEntity
  8
LAY-1
  6
CONTINUOUS
 62
     3
100
AcDbLine
 10
681.050302
 20
517.95
 30
0.0
 11
683.535714
 21
517.95
 31
0.0
  0
LINE
  5
17E
100
AcDbEntity
  8
LAY-1
  6
CONTINUOUS
 62
     3
100
AcDbLine
 10
683.535714
 20
508.45
 30
0.0
 11
681.050302
 21
508.45
 31
0.0
  0
ARC
  5
17F
100
AcDbEntity
  8
LAY-1
  6
CONTINUOUS
 62
     3
100
AcDbCircle
 10
661.050302
 20
518.25
 30
0.0
 40
0.3
100
AcDbArc
 50
207.645523
 51
270.0
  0
ARC
  5
180
100
AcDbEntity
  8
LAY-1
  6
CONTINUOUS
 62
     3
100
AcDbCircle
 10
658.835714
 20
517.09
 30
0.0
 40
2.2
100
AcDbArc
 50
27.645523
 51
152.354477
  0
ARC
  5
181
100
AcDbEntity
  8
LAY-1
  6
CONTINUOUS
 62
     3
100
AcDbCircle
 10
656.621126
 20
518.25
 30
0.0
 40
0.3
100
AcDbArc
 50
270.0
 51
332.354477
  0
ARC
  5
182
100
AcDbEntity
  8
LAY-1
  6
CONTINUOUS
 62
     3
100
AcDbCircle
 10
656.621126
 20
508.15
 30
0.0
 40
0.3
100
AcDbArc
 50
27.645523
 51
90.0
  0
ARC
  5
183
100
AcDbEntity
  8
LAY-1
  6
CONTINUOUS
 62
     3
100
AcDbCircle
 10
658.835714
 20
509.31
 30
0.0
 40
2.2
100
AcDbArc
 50
207.645523
 51
332.354477
  0
ARC
  5
184
100
AcDbEntity
  8
LAY-1
  6
CONTINUOUS
 62
     3
100
AcDbCircle
 10
661.050302
 20
508.15
 30
0.0
 40
0.3
100
AcDbArc
 50
90.0
 51
152.354477
  0
LINE
  5
185
100
AcDbEntity
  8
LAY-1
  6
CONTINUOUS
 62
     3
100
AcDbLine
 10
656.886877
 20
518.1108
 30
0.0
 11
656.886877
 21
508.2892
 31
0.0
  0
LINE
  5
186
100
AcDbEntity
  8
LAY-1
  6
CONTINUOUS
 62
     3
100
AcDbLine
 10
660.784552
 20
508.2892
 30
0.0
 11
660.784552
 21
518.1108
 31
0.0
  0
LINE
  5
187
100
AcDbEntity
  8
LAY-1
  6
CONTINUOUS
 62
     3
100
AcDbLine
 10
652.335714
 20
521.95
 30
0.0
 11
654.135714
 21
521.95
 31
0.0
  0
LINE
  5
188
100
AcDbEntity
  8
LAY-1
  6
CONTINUOUS
 62
     3
100
AcDbLine
 10
652.335714
 20
504.45
 30
0.0
 11
654.135714
 21
504.45
 31
0.0
  0
LINE
  5
189
100
AcDbEntity
  8
LAY-1
  6
CONTINUOUS
 62
     3
100
AcDbLine
 10
651.335714
 20
518.95
 30
0.0
 11
652.335714
 21
518.95
 31
0.0
  0
LINE
  5
18A
100
AcDbEntity
  8
LAY-1
  6
CONTINUOUS
 62
     3
100
AcDbLine
 10
651.335714
 20
507.45
 30
0.0
 11
652.335714
 21
507.45
 31
0.0
  0
LINE
  5
18B
100
AcDbEntity
  8
LAY-1
  6
CONTINUOUS
 62
     3
100
AcDbLine
 10
651.335714
 20
518.95
 30
0.0
 11
651.335714
 21
507.45
 31
0.0
  0
LINE
  5
18C
100
AcDbEntity
  8
LAY-1
  6
CONTINUOUS
 62
     3
100
AcDbLine
 10
652.335714
 20
521.95
 30
0.0
 11
652.335714
 21
504.45
 31
0.0
  0
LINE
  5
18D
100
AcDbEntity
  8
LAY-1
  6
CONTINUOUS
 62
     3
100
AcDbLine
 10
654.135714
 20
521.95
 30
0.0
 11
654.135714
 21
504.45
 31
0.0
  0
LINE
  5
18E
100
AcDbEntity
  8
LAY-1
  6
CONTINUOUS
 62
     3
100
AcDbLine
 10
654.135714
 20
517.95
 30
0.0
 11
656.886877
 21
517.95
 31
0.0
  0
LINE
  5
18F
100
AcDbEntity
  8
LAY-1
  6
CONTINUOUS
 62
     3
100
AcDbLine
 10
654.135714
 20
508.45
 30
0.0
 11
656.886877
 21
508.45
 31
0.0
  0
LINE
  5
190
100
AcDbEntity
  8
LAY-1
  6
EXLTYPE3
 62
     1
100
AcDbLine
 10
647.9
 20
513.2
 30
0.0
 11
688.4
 21
513.2
 31
0.0
  0
ARC
  5
191
100
AcDbEntity
  8
LAY-1
  6
CONTINUOUS
 62
     3
100
AcDbCircle
 10
671.050302
 20
518.25
 30
0.0
 40
0.3
100
AcDbArc
 50
207.645523
 51
270.0
  0
ARC
  5
192
100
AcDbEntity
  8
LAY-1
  6
CONTINUOUS
 62
     3
100
AcDbCircle
 10
668.835714
 20
517.09
 30
0.0
 40
2.2
100
AcDbArc
 50
27.645523
 51
152.354477
  0
ARC
  5
193
100
AcDbEntity
  8
LAY-1
  6
CONTINUOUS
 62
     3
100
AcDbCircle
 10
666.621126
 20
518.25
 30
0.0
 40
0.3
100
AcDbArc
 50
270.0
 51
332.354477
  0
ARC
  5
194
100
AcDbEntity
  8
LAY-1
  6
CONTINUOUS
 62
     3
100
AcDbCircle
 10
666.621126
 20
508.15
 30
0.0
 40
0.3
100
AcDbArc
 50
27.645523
 51
90.0
  0
ARC
  5
195
100
AcDbEntity
  8
LAY-1
  6
CONTINUOUS
 62
     3
100
AcDbCircle
 10
668.835714
 20
509.31
 30
0.0
 40
2.2
100
AcDbArc
 50
207.645523
 51
332.354477
  0
ARC
  5
196
100
AcDbEntity
  8
LAY-1
  6
CONTINUOUS
 62
     3
100
AcDbCircle
 10
671.050302
 20
508.15
 30
0.0
 40
0.3
100
AcDbArc
 50
90.0
 51
152.354477
  0
LINE
  5
197
100
AcDbEntity
  8
LAY-1
  6
CONTINUOUS
 62
     3
100
AcDbLine
 10
666.886877
 20
518.1108
 30
0.0
 11
666.886877
 21
508.2892
 31
0.0
  0
LINE
  5
198
100
AcDbEntity
  8
LAY-1
  6
CONTINUOUS
 62
     3
100
AcDbLine
 10
670.784552
 20
508.2892
 30
0.0
 11
670.784552
 21
518.1108
 31
0.0
  0
ARC
  5
199
100
AcDbEntity
  8
LAY-1
  6
CONTINUOUS
 62
     3
100
AcDbCircle
 10
671.050302
 20
518.25
 30
0.0
 40
0.3
100
AcDbArc
 50
207.645523
 51
270.0
  0
ARC
  5
19A
100
AcDbEntity
  8
LAY-1
  6
CONTINUOUS
 62
     3
100
AcDbCircle
 10
668.835714
 20
517.09
 30
0.0
 40
2.2
100
AcDbArc
 50
27.645523
 51
152.354477
  0
ARC
  5
19B
100
AcDbEntity
  8
LAY-1
  6
CONTINUOUS
 62
     3
100
AcDbCircle
 10
666.621126
 20
518.25
 30
0.0
 40
0.3
100
AcDbArc
 50
270.0
 51
332.354477
  0
ARC
  5
19C
100
AcDbEntity
  8
LAY-1
  6
CONTINUOUS
 62
     3
100
AcDbCircle
 10
666.621126
 20
508.15
 30
0.0
 40
0.3
100
AcDbArc
 50
27.645523
 51
90.0
  0
ARC
  5
19D
100
AcDbEntity
  8
LAY-1
  6
CONTINUOUS
 62
     3
100
AcDbCircle
 10
668.835714
 20
509.31
 30
0.0
 40
2.2
100
AcDbArc
 50
207.645523
 51
332.354477
  0
ARC
  5
19E
100
AcDbEntity
  8
LAY-1
  6
CONTINUOUS
 62
     3
100
AcDbCircle
 10
671.050302
 20
508.15
 30
0.0
 40
0.3
100
AcDbArc
 50
90.0
 51
152.354477
  0
LINE
  5
19F
100
AcDbEntity
  8
LAY-1
  6
CONTINUOUS
 62
     3
100
AcDbLine
 10
666.886877
 20
518.1108
 30
0.0
 11
666.886877
 21
508.2892
 31
0.0
  0
LINE
  5
1A0
100
AcDbEntity
  8
LAY-1
  6
CONTINUOUS
 62
     3
100
AcDbLine
 10
670.784552
 20
508.2892
 30
0.0
 11
670.784552
 21
518.1108
 31
0.0
  0
LINE
  5
1A1
100
AcDbEntity
  8
LAY-1
  6
CONTINUOUS
 62
     3
100
AcDbLine
 10
661.050302
 20
517.95
 30
0.0
 11
666.621126
 21
517.95
 31
0.0
  0
LINE
  5
1A2
100
AcDbEntity
  8
LAY-1
  6
CONTINUOUS
 62
     3
100
AcDbLine
 10
671.050302
 20
517.95
 30
0.0
 11
676.621126
 21
517.95
 31
0.0
  0
LINE
  5
1A3
100
AcDbEntity
  8
LAY-1
  6
CONTINUOUS
 62
     3
100
AcDbLine
 10
676.621126
 20
508.45
 30
0.0
 11
671.050302
 21
508.45
 31
0.0
  0
LINE
  5
1A4
100
AcDbEntity
  8
LAY-1
  6
CONTINUOUS
 62
     3
100
AcDbLine
 10
666.621126
 20
508.45
 30
0.0
 11
661.050302
 21
508.45
 31
0.0
  0
LINE
  5
1A5
100
AcDbEntity
  8
LAY-1
  6
CONTINUOUS
 62
     3
100
AcDbLine
 10
796.778571
 20
522.45
 30
0.0
 11
794.978571
 21
522.45
 31
0.0
  0
LINE
  5
1A6
100
AcDbEntity
  8
LAY-1
  6
CONTINUOUS
 62
     3
100
AcDbLine
 10
796.778571
 20
503.95
 30
0.0
 11
794.978571
 21
503.95
 31
0.0
  0
LINE
  5
1A7
100
AcDbEntity
  8
LAY-1
  6
CONTINUOUS
 62
     3
100
AcDbLine
 10
797.778571
 20
519.45
 30
0.0
 11
796.778571
 21
519.45
 31
0.0
  0
LINE
  5
1A8
100
AcDbEntity
  8
LAY-1
  6
CONTINUOUS
 62
     3
100
AcDbLine
 10
797.778571
 20
506.95
 30
0.0
 11
796.778571
 21
506.95
 31
0.0
  0
LINE
  5
1A9
100
AcDbEntity
  8
LAY-1
  6
CONTINUOUS
 62
     3
100
AcDbLine
 10
797.778571
 20
519.45
 30
0.0
 11
797.778571
 21
506.95
 31
0.0
  0
LINE
  5
1AA
100
AcDbEntity
  8
LAY-1
  6
CONTINUOUS
 62
     3
100
AcDbLine
 10
796.778571
 20
522.45
 30
0.0
 11
796.778571
 21
503.95
 31
0.0
  0
LINE
  5
1AB
100
AcDbEntity
  8
LAY-1
  6
CONTINUOUS
 62
     3
100
AcDbLine
 10
794.978571
 20
522.45
 30
0.0
 11
794.978571
 21
503.95
 31
0.0
  0
LINE
  5
1AC
100
AcDbEntity
  8
LAY-1
  6
CONTINUOUS
 62
     3
100
AcDbLine
 10
763.778571
 20
522.45
 30
0.0
 11
765.578571
 21
522.45
 31
0.0
  0
LINE
  5
1AD
100
AcDbEntity
  8
LAY-1
  6
CONTINUOUS
 62
     3
100
AcDbLine
 10
763.778571
 20
503.95
 30
0.0
 11
765.578571
 21
503.95
 31
0.0
  0
LINE
  5
1AE
100
AcDbEntity
  8
LAY-1
  6
CONTINUOUS
 62
     3
100
AcDbLine
 10
762.778571
 20
519.45
 30
0.0
 11
763.778571
 21
519.45
 31
0.0
  0
LINE
  5
1AF
100
AcDbEntity
  8
LAY-1
  6
CONTINUOUS
 62
     3
100
AcDbLine
 10
762.778571
 20
506.95
 30
0.0
 11
763.778571
 21
506.95
 31
0.0
  0
LINE
  5
1B0
100
AcDbEntity
  8
LAY-1
  6
CONTINUOUS
 62
     3
100
AcDbLine
 10
762.778571
 20
519.45
 30
0.0
 11
762.778571
 21
506.95
 31
0.0
  0
LINE
  5
1B1
100
AcDbEntity
  8
LAY-1
  6
CONTINUOUS
 62
     3
100
AcDbLine
 10
763.778571
 20
522.45
 30
0.0
 11
763.778571
 21
503.95
 31
0.0
  0
LINE
  5
1B2
100
AcDbEntity
  8
LAY-1
  6
CONTINUOUS
 62
     3
100
AcDbLine
 10
765.578571
 20
522.45
 30
0.0
 11
765.578571
 21
503.95
 31
0.0
  0
ARC
  5
1B3
100
AcDbEntity
  8
LAY-1
  6
CONTINUOUS
 62
     3
100
AcDbCircle
 10
792.493159
 20
518.75
 30
0.0
 40
0.3
100
AcDbArc
 50
207.645523
 51
270.0
  0
ARC
  5
1B4
100
AcDbEntity
  8
LAY-1
  6
CONTINUOUS
 62
     3
100
AcDbCircle
 10
790.278571
 20
517.59
 30
0.0
 40
2.2
100
AcDbArc
 50
27.645523
 51
152.354477
  0
ARC
  5
1B5
100
AcDbEntity
  8
LAY-1
  6
CONTINUOUS
 62
     3
100
AcDbCircle
 10
788.063983
 20
518.75
 30
0.0
 40
0.3
100
AcDbArc
 50
270.0
 51
332.354477
  0
ARC
  5
1B6
100
AcDbEntity
  8
LAY-1
  6
CONTINUOUS
 62
     3
100
AcDbCircle
 10
788.063983
 20
507.65
 30
0.0
 40
0.3
100
AcDbArc
 50
27.645523
 51
90.0
  0
ARC
  5
1B7
100
AcDbEntity
  8
LAY-1
  6
CONTINUOUS
 62
     3
100
AcDbCircle
 10
790.278571
 20
508.81
 30
0.0
 40
2.2
100
AcDbArc
 50
207.645523
 51
332.354477
  0
ARC
  5
1B8
100
AcDbEntity
  8
LAY-1
  6
CONTINUOUS
 62
     3
100
AcDbCircle
 10
792.493159
 20
507.65
 30
0.0
 40
0.3
100
AcDbArc
 50
90.0
 51
152.354477
  0
LINE
  5
1B9
100
AcDbEntity
  8
LAY-1
  6
CONTINUOUS
 62
     3
100
AcDbLine
 10
788.329734
 20
518.6108
 30
0.0
 11
788.329734
 21
507.7892
 31
0.0
  0
LINE
  5
1BA
100
AcDbEntity
  8
LAY-1
  6
CONTINUOUS
 62
     3
100
AcDbLine
 10
792.227409
 20
507.7892
 30
0.0
 11
792.227409
 21
518.6108
 31
0.0
  0
LINE
  5
1BB
100
AcDbEntity
  8
LAY-1
  6
CONTINUOUS
 62
     3
100
AcDbLine
 10
792.493159
 20
518.45
 30
0.0
 11
794.978571
 21
518.45
 31
0.0
  0
LINE
  5
1BC
100
AcDbEntity
  8
LAY-1
  6
CONTINUOUS
 62
     3
100
AcDbLine
 10
794.978571
 20
507.95
 30
0.0
 11
792.493159
 21
507.95
 31
0.0
  0
ARC
  5
1BD
100
AcDbEntity
  8
LAY-1
  6
CONTINUOUS
 62
     3
100
AcDbCircle
 10
772.493159
 20
518.75
 30
0.0
 40
0.3
100
AcDbArc
 50
207.645523
 51
270.0
  0
ARC
  5
1BE
100
AcDbEntity
  8
LAY-1
  6
CONTINUOUS
 62
     3
100
AcDbCircle
 10
770.278571
 20
517.59
 30
0.0
 40
2.2
100
AcDbArc
 50
27.645523
 51
152.354477
  0
ARC
  5
1BF
100
AcDbEntity
  8
LAY-1
  6
CONTINUOUS
 62
     3
100
AcDbCircle
 10
768.063983
 20
518.75
 30
0.0
 40
0.3
100
AcDbArc
 50
270.0
 51
332.354477
  0
ARC
  5
1C0
100
AcDbEntity
  8
LAY-1
  6
CONTINUOUS
 62
     3
100
AcDbCircle
 10
768.063983
 20
507.65
 30
0.0
 40
0.3
100
AcDbArc
 50
27.645523
 51
90.0
  0
ARC
  5
1C1
100
AcDbEntity
  8
LAY-1
  6
CONTINUOUS
 62
     3
100
AcDbCircle
 10
770.278571
 20
508.81
 30
0.0
 40
2.2
100
AcDbArc
 50
207.645523
 51
332.354477
  0
ARC
  5
1C2
100
AcDbEntity
  8
LAY-1
  6
CONTINUOUS
 62
     3
100
AcDbCircle
 10
772.493159
 20
507.65
 30
0.0
 40
0.3
100
AcDbArc
 50
90.0
 51
152.354477
  0
LINE
  5
1C3
100
AcDbEntity
  8
LAY-1
  6
CONTINUOUS
 62
     3
100
AcDbLine
 10
768.329734
 20
518.6108
 30
0.0
 11
768.329734
 21
507.7892
 31
0.0
  0
LINE
  5
1C4
100
AcDbEntity
  8
LAY-1
  6
CONTINUOUS
 62
     3
100
AcDbLine
 10
772.227409
 20
507.7892
 30
0.0
 11
772.227409
 21
518.6108
 31
0.0
  0
LINE
  5
1C5
100
AcDbEntity
  8
LAY-1
  6
CONTINUOUS
 62
     3
100
AcDbLine
 10
765.578571
 20
518.45
 30
0.0
 11
768.329734
 21
518.45
 31
0.0
  0
LINE
  5
1C6
100
AcDbEntity
  8
LAY-1
  6
CONTINUOUS
 62
     3
100
AcDbLine
 10
765.578571
 20
507.95
 30
0.0
 11
768.329734
 21
507.95
 31
0.0
  0
LINE
  5
1C7
100
AcDbEntity
  8
LAY-1
  6
EXLTYPE3
 62
     1
100
AcDbLine
 10
760.4
 20
513.2
 30
0.0
 11
800.6
 21
513.2
 31
0.0
  0
ARC
  5
1C8
100
AcDbEntity
  8
LAY-1
  6
CONTINUOUS
 62
     3
100
AcDbCircle
 10
782.493159
 20
518.75
 30
0.0
 40
0.3
100
AcDbArc
 50
207.645523
 51
270.0
  0
ARC
  5
1C9
100
AcDbEntity
  8
LAY-1
  6
CONTINUOUS
 62
     3
100
AcDbCircle
 10
780.278571
 20
517.59
 30
0.0
 40
2.2
100
AcDbArc
 50
27.645523
 51
152.354477
  0
ARC
  5
1CA
100
AcDbEntity
  8
LAY-1
  6
CONTINUOUS
 62
     3
100
AcDbCircle
 10
778.063983
 20
518.75
 30
0.0
 40
0.3
100
AcDbArc
 50
270.0
 51
332.354477
  0
ARC
  5
1CB
100
AcDbEntity
  8
LAY-1
  6
CONTINUOUS
 62
     3
100
AcDbCircle
 10
778.063983
 20
507.65
 30
0.0
 40
0.3
100
AcDbArc
 50
27.645523
 51
90.0
  0
ARC
  5
1CC
100
AcDbEntity
  8
LAY-1
  6
CONTINUOUS
 62
     3
100
AcDbCircle
 10
780.278571
 20
508.81
 30
0.0
 40
2.2
100
AcDbArc
 50
207.645523
 51
332.354477
  0
ARC
  5
1CD
100
AcDbEntity
  8
LAY-1
  6
CONTINUOUS
 62
     3
100
AcDbCircle
 10
782.493159
 20
507.65
 30
0.0
 40
0.3
100
AcDbArc
 50
90.0
 51
152.354477
  0
LINE
  5
1CE
100
AcDbEntity
  8
LAY-1
  6
CONTINUOUS
 62
     3
100
AcDbLine
 10
778.329734
 20
518.6108
 30
0.0
 11
778.329734
 21
507.7892
 31
0.0
  0
LINE
  5
1CF
100
AcDbEntity
  8
LAY-1
  6
CONTINUOUS
 62
     3
100
AcDbLine
 10
782.227409
 20
507.7892
 30
0.0
 11
782.227409
 21
518.6108
 31
0.0
  0
LINE
  5
1D0
100
AcDbEntity
  8
LAY-1
  6
CONTINUOUS
 62
     3
100
AcDbLine
 10
772.493159
 20
518.45
 30
0.0
 11
778.063983
 21
518.45
 31
0.0
  0
LINE
  5
1D1
100
AcDbEntity
  8
LAY-1
  6
CONTINUOUS
 62
     3
100
AcDbLine
 10
782.493159
 20
518.45
 30
0.0
 11
788.063983
 21
518.45
 31
0.0
  0
LINE
  5
1D2
100
AcDbEntity
  8
LAY-1
  6
CONTINUOUS
 62
     3
100
AcDbLine
 10
788.063983
 20
507.95
 30
0.0
 11
782.493159
 21
507.95
 31
0.0
  0
LINE
  5
1D3
100
AcDbEntity
  8
LAY-1
  6
CONTINUOUS
 62
     3
100
AcDbLine
 10
778.063983
 20
507.95
 30
0.0
 11
772.493159
 21
507.95
 31
0.0
  0
LINE
  5
1D4
100
AcDbEntity
  8
LAY-1
  6
CONTINUOUS
 62
     3
100
AcDbLine
 10
126.321429
 20
448.7
 30
0.0
 11
126.321429
 21
427.7
 31
0.0
  0
LINE
  5
1D5
100
AcDbEntity
  8
LAY-1
  6
CONTINUOUS
 62
     3
100
AcDbLine
 10
128.121429
 20
448.7
 30
0.0
 11
128.121429
 21
427.7
 31
0.0
  0
LINE
  5
1D6
100
AcDbEntity
  8
LAY-1
  6
CONTINUOUS
 62
     3
100
AcDbLine
 10
129.121429
 20
445.7
 30
0.0
 11
129.121429
 21
430.7
 31
0.0
  0
LINE
  5
1D7
100
AcDbEntity
  8
LAY-1
  6
CONTINUOUS
 62
     3
100
AcDbLine
 10
129.121429
 20
430.7
 30
0.0
 11
128.121429
 21
430.7
 31
0.0
  0
LINE
  5
1D8
100
AcDbEntity
  8
LAY-1
  6
CONTINUOUS
 62
     3
100
AcDbLine
 10
129.121429
 20
445.7
 30
0.0
 11
128.121429
 21
445.7
 31
0.0
  0
LINE
  5
1D9
100
AcDbEntity
  8
LAY-1
  6
CONTINUOUS
 62
     3
100
AcDbLine
 10
128.121429
 20
427.7
 30
0.0
 11
126.321429
 21
427.7
 31
0.0
  0
LINE
  5
1DA
100
AcDbEntity
  8
LAY-1
  6
CONTINUOUS
 62
     3
100
AcDbLine
 10
128.121429
 20
448.7
 30
0.0
 11
126.321429
 21
448.7
 31
0.0
  0
ARC
  5
1DB
100
AcDbEntity
  8
LAY-1
  6
CONTINUOUS
 62
     3
100
AcDbCircle
 10
123.836017
 20
445.0
 30
0.0
 40
0.3
100
AcDbArc
 50
207.645523
 51
270.0
  0
ARC
  5
1DC
100
AcDbEntity
  8
LAY-1
  6
CONTINUOUS
 62
     3
100
AcDbCircle
 10
121.621429
 20
443.84
 30
0.0
 40
2.2
100
AcDbArc
 50
27.645523
 51
152.354477
  0
ARC
  5
1DD
100
AcDbEntity
  8
LAY-1
  6
CONTINUOUS
 62
     3
100
AcDbCircle
 10
119.406841
 20
445.0
 30
0.0
 40
0.3
100
AcDbArc
 50
270.0
 51
332.354477
  0
ARC
  5
1DE
100
AcDbEntity
  8
LAY-1
  6
CONTINUOUS
 62
     3
100
AcDbCircle
 10
119.406841
 20
431.4
 30
0.0
 40
0.3
100
AcDbArc
 50
27.645523
 51
90.0
  0
ARC
  5
1DF
100
AcDbEntity
  8
LAY-1
  6
CONTINUOUS
 62
     3
100
AcDbCircle
 10
121.621429
 20
432.56
 30
0.0
 40
2.2
100
AcDbArc
 50
207.645523
 51
332.354477
  0
ARC
  5
1E0
100
AcDbEntity
  8
LAY-1
  6
CONTINUOUS
 62
     3
100
AcDbCircle
 10
123.836017
 20
431.4
 30
0.0
 40
0.3
100
AcDbArc
 50
90.0
 51
152.354477
  0
LINE
  5
1E1
100
AcDbEntity
  8
LAY-1
  6
CONTINUOUS
 62
     3
100
AcDbLine
 10
119.672591
 20
444.8608
 30
0.0
 11
119.672591
 21
431.5392
 31
0.0
  0
LINE
  5
1E2
100
AcDbEntity
  8
LAY-1
  6
CONTINUOUS
 62
     3
100
AcDbLine
 10
123.570266
 20
431.5392
 30
0.0
 11
123.570266
 21
444.8608
 31
0.0
  0
LINE
  5
1E3
100
AcDbEntity
  8
LAY-1
  6
CONTINUOUS
 62
     3
100
AcDbLine
 10
126.321429
 20
431.7
 30
0.0
 11
123.836017
 21
431.7
 31
0.0
  0
LINE
  5
1E4
100
AcDbEntity
  8
LAY-1
  6
CONTINUOUS
 62
     3
100
AcDbLine
 10
123.836017
 20
444.7
 30
0.0
 11
126.321429
 21
444.7
 31
0.0
  0
LINE
  5
1E5
100
AcDbEntity
  8
LAY-1
  6
EXLTYPE3
 62
     1
100
AcDbLine
 10
91.5
 20
438.2
 30
0.0
 11
132.3
 21
438.2
 31
0.0
  0
LINE
  5
1E6
100
AcDbEntity
  8
LAY-1
  6
CONTINUOUS
 62
     3
100
AcDbLine
 10
96.921429
 20
431.7
 30
0.0
 11
99.406841
 21
431.7
 31
0.0
  0
LINE
  5
1E7
100
AcDbEntity
  8
LAY-1
  6
CONTINUOUS
 62
     3
100
AcDbLine
 10
96.921429
 20
444.7
 30
0.0
 11
99.406841
 21
444.7
 31
0.0
  0
LINE
  5
1E8
100
AcDbEntity
  8
LAY-1
  6
CONTINUOUS
 62
     3
100
AcDbLine
 10
103.570266
 20
431.5392
 30
0.0
 11
103.570266
 21
444.8608
 31
0.0
  0
LINE
  5
1E9
100
AcDbEntity
  8
LAY-1
  6
CONTINUOUS
 62
     3
100
AcDbLine
 10
99.672591
 20
444.8608
 30
0.0
 11
99.672591
 21
431.5392
 31
0.0
  0
ARC
  5
1EA
100
AcDbEntity
  8
LAY-1
  6
CONTINUOUS
 62
     3
100
AcDbCircle
 10
103.836017
 20
431.4
 30
0.0
 40
0.3
100
AcDbArc
 50
90.0
 51
152.354477
  0
ARC
  5
1EB
100
AcDbEntity
  8
LAY-1
  6
CONTINUOUS
 62
     3
100
AcDbCircle
 10
101.621429
 20
432.56
 30
0.0
 40
2.2
100
AcDbArc
 50
207.645523
 51
332.354477
  0
ARC
  5
1EC
100
AcDbEntity
  8
LAY-1
  6
CONTINUOUS
 62
     3
100
AcDbCircle
 10
99.406841
 20
431.4
 30
0.0
 40
0.3
100
AcDbArc
 50
27.645523
 51
90.0
  0
ARC
  5
1ED
100
AcDbEntity
  8
LAY-1
  6
CONTINUOUS
 62
     3
100
AcDbCircle
 10
99.406841
 20
445.0
 30
0.0
 40
0.3
100
AcDbArc
 50
270.0
 51
332.354477
  0
ARC
  5
1EE
100
AcDbEntity
  8
LAY-1
  6
CONTINUOUS
 62
     3
100
AcDbCircle
 10
101.621429
 20
443.84
 30
0.0
 40
2.2
100
AcDbArc
 50
27.645523
 51
152.354477
  0
ARC
  5
1EF
100
AcDbEntity
  8
LAY-1
  6
CONTINUOUS
 62
     3
100
AcDbCircle
 10
103.836017
 20
445.0
 30
0.0
 40
0.3
100
AcDbArc
 50
207.645523
 51
270.0
  0
LINE
  5
1F0
100
AcDbEntity
  8
LAY-1
  6
CONTINUOUS
 62
     3
100
AcDbLine
 10
96.921429
 20
448.7
 30
0.0
 11
96.921429
 21
427.7
 31
0.0
  0
LINE
  5
1F1
100
AcDbEntity
  8
LAY-1
  6
CONTINUOUS
 62
     3
100
AcDbLine
 10
95.121429
 20
448.7
 30
0.0
 11
95.121429
 21
427.7
 31
0.0
  0
LINE
  5
1F2
100
AcDbEntity
  8
LAY-1
  6
CONTINUOUS
 62
     3
100
AcDbLine
 10
94.121429
 20
445.7
 30
0.0
 11
94.121429
 21
430.7
 31
0.0
  0
LINE
  5
1F3
100
AcDbEntity
  8
LAY-1
  6
CONTINUOUS
 62
     3
100
AcDbLine
 10
94.121429
 20
430.7
 30
0.0
 11
95.121429
 21
430.7
 31
0.0
  0
LINE
  5
1F4
100
AcDbEntity
  8
LAY-1
  6
CONTINUOUS
 62
     3
100
AcDbLine
 10
94.121429
 20
445.7
 30
0.0
 11
95.121429
 21
445.7
 31
0.0
  0
LINE
  5
1F5
100
AcDbEntity
  8
LAY-1
  6
CONTINUOUS
 62
     3
100
AcDbLine
 10
95.121429
 20
427.7
 30
0.0
 11
96.921429
 21
427.7
 31
0.0
  0
LINE
  5
1F6
100
AcDbEntity
  8
LAY-1
  6
CONTINUOUS
 62
     3
100
AcDbLine
 10
95.121429
 20
448.7
 30
0.0
 11
96.921429
 21
448.7
 31
0.0
  0
LINE
  5
1F7
100
AcDbEntity
  8
LAY-1
  6
CONTINUOUS
 62
     3
100
AcDbLine
 10
113.570266
 20
431.5392
 30
0.0
 11
113.570266
 21
444.8608
 31
0.0
  0
LINE
  5
1F8
100
AcDbEntity
  8
LAY-1
  6
CONTINUOUS
 62
     3
100
AcDbLine
 10
109.672591
 20
444.8608
 30
0.0
 11
109.672591
 21
431.5392
 31
0.0
  0
ARC
  5
1F9
100
AcDbEntity
  8
LAY-1
  6
CONTINUOUS
 62
     3
100
AcDbCircle
 10
113.836017
 20
431.4
 30
0.0
 40
0.3
100
AcDbArc
 50
90.0
 51
152.354477
  0
ARC
  5
1FA
100
AcDbEntity
  8
LAY-1
  6
CONTINUOUS
 62
     3
100
AcDbCircle
 10
111.621429
 20
432.56
 30
0.0
 40
2.2
100
AcDbArc
 50
207.645523
 51
332.354477
  0
ARC
  5
1FB
100
AcDbEntity
  8
LAY-1
  6
CONTINUOUS
 62
     3
100
AcDbCircle
 10
109.406841
 20
431.4
 30
0.0
 40
0.3
100
AcDbArc
 50
27.645523
 51
90.0
  0
ARC
  5
1FC
100
AcDbEntity
  8
LAY-1
  6
CONTINUOUS
 62
     3
100
AcDbCircle
 10
109.406841
 20
445.0
 30
0.0
 40
0.3
100
AcDbArc
 50
270.0
 51
332.354477
  0
ARC
  5
1FD
100
AcDbEntity
  8
LAY-1
  6
CONTINUOUS
 62
     3
100
AcDbCircle
 10
111.621429
 20
443.84
 30
0.0
 40
2.2
100
AcDbArc
 50
27.645523
 51
152.354477
  0
ARC
  5
1FE
100
AcDbEntity
  8
LAY-1
  6
CONTINUOUS
 62
     3
100
AcDbCircle
 10
113.836017
 20
445.0
 30
0.0
 40
0.3
100
AcDbArc
 50
207.645523
 51
270.0
  0
LINE
  5
1FF
100
AcDbEntity
  8
LAY-1
  6
CONTINUOUS
 62
     3
100
AcDbLine
 10
103.836017
 20
444.7
 30
0.0
 11
109.406841
 21
444.7
 31
0.0
  0
LINE
  5
200
100
AcDbEntity
  8
LAY-1
  6
CONTINUOUS
 62
     3
100
AcDbLine
 10
113.836017
 20
444.7
 30
0.0
 11
119.406841
 21
444.7
 31
0.0
  0
LINE
  5
201
100
AcDbEntity
  8
LAY-1
  6
CONTINUOUS
 62
     3
100
AcDbLine
 10
103.836017
 20
431.7
 30
0.0
 11
109.406841
 21
431.7
 31
0.0
  0
LINE
  5
202
100
AcDbEntity
  8
LAY-1
  6
CONTINUOUS
 62
     3
100
AcDbLine
 10
113.836017
 20
431.7
 30
0.0
 11
119.406841
 21
431.7
 31
0.0
  0
LINE
  5
203
100
AcDbEntity
  8
LAY-1
  6
CONTINUOUS
 62
     3
100
AcDbLine
 10
237.764286
 20
450.7
 30
0.0
 11
237.764286
 21
425.7
 31
0.0
  0
LINE
  5
204
100
AcDbEntity
  8
LAY-1
  6
CONTINUOUS
 62
     3
100
AcDbLine
 10
239.564286
 20
450.7
 30
0.0
 11
239.564286
 21
425.7
 31
0.0
  0
LINE
  5
205
100
AcDbEntity
  8
LAY-1
  6
CONTINUOUS
 62
     3
100
AcDbLine
 10
240.564286
 20
447.2
 30
0.0
 11
240.564286
 21
429.2
 31
0.0
  0
LINE
  5
206
100
AcDbEntity
  8
LAY-1
  6
CONTINUOUS
 62
     3
100
AcDbLine
 10
240.564286
 20
429.2
 30
0.0
 11
239.564286
 21
429.2
 31
0.0
  0
LINE
  5
207
100
AcDbEntity
  8
LAY-1
  6
CONTINUOUS
 62
     3
100
AcDbLine
 10
240.564286
 20
447.2
 30
0.0
 11
239.564286
 21
447.2
 31
0.0
  0
LINE
  5
208
100
AcDbEntity
  8
LAY-1
  6
CONTINUOUS
 62
     3
100
AcDbLine
 10
239.564286
 20
425.7
 30
0.0
 11
237.764286
 21
425.7
 31
0.0
  0
LINE
  5
209
100
AcDbEntity
  8
LAY-1
  6
CONTINUOUS
 62
     3
100
AcDbLine
 10
239.564286
 20
450.7
 30
0.0
 11
237.764286
 21
450.7
 31
0.0
  0
LINE
  5
20A
100
AcDbEntity
  8
LAY-1
  6
CONTINUOUS
 62
     3
100
AcDbLine
 10
206.564286
 20
450.7
 30
0.0
 11
208.364286
 21
450.7
 31
0.0
  0
LINE
  5
20B
100
AcDbEntity
  8
LAY-1
  6
CONTINUOUS
 62
     3
100
AcDbLine
 10
206.564286
 20
425.7
 30
0.0
 11
208.364286
 21
425.7
 31
0.0
  0
LINE
  5
20C
100
AcDbEntity
  8
LAY-1
  6
CONTINUOUS
 62
     3
100
AcDbLine
 10
205.564286
 20
447.2
 30
0.0
 11
206.564286
 21
447.2
 31
0.0
  0
LINE
  5
20D
100
AcDbEntity
  8
LAY-1
  6
CONTINUOUS
 62
     3
100
AcDbLine
 10
205.564286
 20
429.2
 30
0.0
 11
206.564286
 21
429.2
 31
0.0
  0
LINE
  5
20E
100
AcDbEntity
  8
LAY-1
  6
CONTINUOUS
 62
     3
100
AcDbLine
 10
205.564286
 20
447.2
 30
0.0
 11
205.564286
 21
429.2
 31
0.0
  0
LINE
  5
20F
100
AcDbEntity
  8
LAY-1
  6
CONTINUOUS
 62
     3
100
AcDbLine
 10
206.564286
 20
450.7
 30
0.0
 11
206.564286
 21
425.7
 31
0.0
  0
LINE
  5
210
100
AcDbEntity
  8
LAY-1
  6
CONTINUOUS
 62
     3
100
AcDbLine
 10
208.364286
 20
450.7
 30
0.0
 11
208.364286
 21
425.7
 31
0.0
  0
ARC
  5
211
100
AcDbEntity
  8
LAY-1
  6
CONTINUOUS
 62
     3
100
AcDbCircle
 10
215.278874
 20
446.5
 30
0.0
 40
0.3
100
AcDbArc
 50
207.645523
 51
270.0
  0
ARC
  5
212
100
AcDbEntity
  8
LAY-1
  6
CONTINUOUS
 62
     3
100
AcDbCircle
 10
213.064286
 20
445.34
 30
0.0
 40
2.2
100
AcDbArc
 50
27.645523
 51
152.354477
  0
ARC
  5
213
100
AcDbEntity
  8
LAY-1
  6
CONTINUOUS
 62
     3
100
AcDbCircle
 10
210.849698
 20
446.5
 30
0.0
 40
0.3
100
AcDbArc
 50
270.0
 51
332.354477
  0
ARC
  5
214
100
AcDbEntity
  8
LAY-1
  6
CONTINUOUS
 62
     3
100
AcDbCircle
 10
210.849698
 20
429.9
 30
0.0
 40
0.3
100
AcDbArc
 50
27.645523
 51
90.0
  0
ARC
  5
215
100
AcDbEntity
  8
LAY-1
  6
CONTINUOUS
 62
     3
100
AcDbCircle
 10
213.064286
 20
431.06
 30
0.0
 40
2.2
100
AcDbArc
 50
207.645523
 51
332.354477
  0
ARC
  5
216
100
AcDbEntity
  8
LAY-1
  6
CONTINUOUS
 62
     3
100
AcDbCircle
 10
215.278874
 20
429.9
 30
0.0
 40
0.3
100
AcDbArc
 50
90.0
 51
152.354477
  0
LINE
  5
217
100
AcDbEntity
  8
LAY-1
  6
CONTINUOUS
 62
     3
100
AcDbLine
 10
211.115448
 20
446.3608
 30
0.0
 11
211.115448
 21
430.0392
 31
0.0
  0
LINE
  5
218
100
AcDbEntity
  8
LAY-1
  6
CONTINUOUS
 62
     3
100
AcDbLine
 10
215.013123
 20
430.0392
 30
0.0
 11
215.013123
 21
446.3608
 31
0.0
  0
LINE
  5
219
100
AcDbEntity
  8
LAY-1
  6
CONTINUOUS
 62
     3
100
AcDbLine
 10
208.364286
 20
446.2
 30
0.0
 11
210.849698
 21
446.2
 31
0.0
  0
LINE
  5
21A
100
AcDbEntity
  8
LAY-1
  6
CONTINUOUS
 62
     3
100
AcDbLine
 10
208.364286
 20
430.2
 30
0.0
 11
210.849698
 21
430.2
 31
0.0
  0
ARC
  5
21B
100
AcDbEntity
  8
LAY-1
  6
CONTINUOUS
 62
     3
100
AcDbCircle
 10
235.278874
 20
446.5
 30
0.0
 40
0.3
100
AcDbArc
 50
207.645523
 51
270.0
  0
ARC
  5
21C
100
AcDbEntity
  8
LAY-1
  6
CONTINUOUS
 62
     3
100
AcDbCircle
 10
233.064286
 20
445.34
 30
0.0
 40
2.2
100
AcDbArc
 50
27.645523
 51
152.354477
  0
ARC
  5
21D
100
AcDbEntity
  8
LAY-1
  6
CONTINUOUS
 62
     3
100
AcDbCircle
 10
230.849698
 20
446.5
 30
0.0
 40
0.3
100
AcDbArc
 50
270.0
 51
332.354477
  0
ARC
  5
21E
100
AcDbEntity
  8
LAY-1
  6
CONTINUOUS
 62
     3
100
AcDbCircle
 10
230.849698
 20
429.9
 30
0.0
 40
0.3
100
AcDbArc
 50
27.645523
 51
90.0
  0
ARC
  5
21F
100
AcDbEntity
  8
LAY-1
  6
CONTINUOUS
 62
     3
100
AcDbCircle
 10
233.064286
 20
431.06
 30
0.0
 40
2.2
100
AcDbArc
 50
207.645523
 51
332.354477
  0
ARC
  5
220
100
AcDbEntity
  8
LAY-1
  6
CONTINUOUS
 62
     3
100
AcDbCircle
 10
235.278874
 20
429.9
 30
0.0
 40
0.3
100
AcDbArc
 50
90.0
 51
152.354477
  0
LINE
  5
221
100
AcDbEntity
  8
LAY-1
  6
CONTINUOUS
 62
     3
100
AcDbLine
 10
231.115448
 20
446.3608
 30
0.0
 11
231.115448
 21
430.0392
 31
0.0
  0
LINE
  5
222
100
AcDbEntity
  8
LAY-1
  6
CONTINUOUS
 62
     3
100
AcDbLine
 10
235.013123
 20
430.0392
 30
0.0
 11
235.013123
 21
446.3608
 31
0.0
  0
LINE
  5
223
100
AcDbEntity
  8
LAY-1
  6
CONTINUOUS
 62
     3
100
AcDbLine
 10
237.764286
 20
430.2
 30
0.0
 11
235.278874
 21
430.2
 31
0.0
  0
LINE
  5
224
100
AcDbEntity
  8
LAY-1
  6
CONTINUOUS
 62
     3
100
AcDbLine
 10
235.278874
 20
446.2
 30
0.0
 11
237.764286
 21
446.2
 31
0.0
  0
LINE
  5
225
100
AcDbEntity
  8
LAY-1
  6
EXLTYPE3
 62
     1
100
AcDbLine
 10
203.1
 20
438.2
 30
0.0
 11
243.6
 21
438.2
 31
0.0
  0
ARC
  5
226
100
AcDbEntity
  8
LAY-1
  6
CONTINUOUS
 62
     3
100
AcDbCircle
 10
225.278874
 20
446.5
 30
0.0
 40
0.3
100
AcDbArc
 50
207.645523
 51
270.0
  0
ARC
  5
227
100
AcDbEntity
  8
LAY-1
  6
CONTINUOUS
 62
     3
100
AcDbCircle
 10
223.064286
 20
445.34
 30
0.0
 40
2.2
100
AcDbArc
 50
27.645523
 51
152.354477
  0
ARC
  5
228
100
AcDbEntity
  8
LAY-1
  6
CONTINUOUS
 62
     3
100
AcDbCircle
 10
220.849698
 20
446.5
 30
0.0
 40
0.3
100
AcDbArc
 50
270.0
 51
332.354477
  0
ARC
  5
229
100
AcDbEntity
  8
LAY-1
  6
CONTINUOUS
 62
     3
100
AcDbCircle
 10
220.849698
 20
429.9
 30
0.0
 40
0.3
100
AcDbArc
 50
27.645523
 51
90.0
  0
ARC
  5
22A
100
AcDbEntity
  8
LAY-1
  6
CONTINUOUS
 62
     3
100
AcDbCircle
 10
223.064286
 20
431.06
 30
0.0
 40
2.2
100
AcDbArc
 50
207.645523
 51
332.354477
  0
ARC
  5
22B
100
AcDbEntity
  8
LAY-1
  6
CONTINUOUS
 62
     3
100
AcDbCircle
 10
225.278874
 20
429.9
 30
0.0
 40
0.3
100
AcDbArc
 50
90.0
 51
152.354477
  0
LINE
  5
22C
100
AcDbEntity
  8
LAY-1
  6
CONTINUOUS
 62
     3
100
AcDbLine
 10
221.115448
 20
446.3608
 30
0.0
 11
221.115448
 21
430.0392
 31
0.0
  0
LINE
  5
22D
100
AcDbEntity
  8
LAY-1
  6
CONTINUOUS
 62
     3
100
AcDbLine
 10
225.013123
 20
430.0392
 30
0.0
 11
225.013123
 21
446.3608
 31
0.0
  0
LINE
  5
22E
100
AcDbEntity
  8
LAY-1
  6
CONTINUOUS
 62
     3
100
AcDbLine
 10
215.278874
 20
446.2
 30
0.0
 11
220.849698
 21
446.2
 31
0.0
  0
LINE
  5
22F
100
AcDbEntity
  8
LAY-1
  6
CONTINUOUS
 62
     3
100
AcDbLine
 10
225.278874
 20
446.2
 30
0.0
 11
230.849698
 21
446.2
 31
0.0
  0
LINE
  5
230
100
AcDbEntity
  8
LAY-1
  6
CONTINUOUS
 62
     3
100
AcDbLine
 10
215.278874
 20
430.2
 30
0.0
 11
220.849698
 21
430.2
 31
0.0
  0
LINE
  5
231
100
AcDbEntity
  8
LAY-1
  6
CONTINUOUS
 62
     3
100
AcDbLine
 10
225.278874
 20
430.2
 30
0.0
 11
230.849698
 21
430.2
 31
0.0
  0
LINE
  5
232
100
AcDbEntity
  8
LAY-1
  6
CONTINUOUS
 62
     3
100
AcDbLine
 10
358.507143
 20
452.2
 30
0.0
 11
356.707143
 21
452.2
 31
0.0
  0
LINE
  5
233
100
AcDbEntity
  8
LAY-1
  6
CONTINUOUS
 62
     3
100
AcDbLine
 10
358.507143
 20
424.2
 30
0.0
 11
356.707143
 21
424.2
 31
0.0
  0
LINE
  5
234
100
AcDbEntity
  8
LAY-1
  6
CONTINUOUS
 62
     3
100
AcDbLine
 10
359.507143
 20
448.7
 30
0.0
 11
358.507143
 21
448.7
 31
0.0
  0
LINE
  5
235
100
AcDbEntity
  8
LAY-1
  6
CONTINUOUS
 62
     3
100
AcDbLine
 10
359.507143
 20
427.7
 30
0.0
 11
358.507143
 21
427.7
 31
0.0
  0
LINE
  5
236
100
AcDbEntity
  8
LAY-1
  6
CONTINUOUS
 62
     3
100
AcDbLine
 10
356.707143
 20
428.7
 30
0.0
 11
356.707143
 21
424.2
 31
0.0
  0
LINE
  5
237
100
AcDbEntity
  8
LAY-1
  6
CONTINUOUS
 62
     3
100
AcDbLine
 10
359.507143
 20
448.7
 30
0.0
 11
359.507143
 21
427.7
 31
0.0
  0
LINE
  5
238
100
AcDbEntity
  8
LAY-1
  6
CONTINUOUS
 62
     3
100
AcDbLine
 10
358.507143
 20
452.2
 30
0.0
 11
358.507143
 21
424.2
 31
0.0
  0
LINE
  5
239
100
AcDbEntity
  8
LAY-1
  6
CONTINUOUS
 62
     3
100
AcDbLine
 10
356.707143
 20
452.2
 30
0.0
 11
356.707143
 21
428.7
 31
0.0
  0
LINE
  5
23A
100
AcDbEntity
  8
LAY-1
  6
CONTINUOUS
 62
     3
100
AcDbLine
 10
310.507143
 20
452.2
 30
0.0
 11
312.307143
 21
452.2
 31
0.0
  0
LINE
  5
23B
100
AcDbEntity
  8
LAY-1
  6
CONTINUOUS
 62
     3
100
AcDbLine
 10
310.507143
 20
424.2
 30
0.0
 11
312.307143
 21
424.2
 31
0.0
  0
LINE
  5
23C
100
AcDbEntity
  8
LAY-1
  6
CONTINUOUS
 62
     3
100
AcDbLine
 10
309.507143
 20
448.7
 30
0.0
 11
310.507143
 21
448.7
 31
0.0
  0
LINE
  5
23D
100
AcDbEntity
  8
LAY-1
  6
CONTINUOUS
 62
     3
100
AcDbLine
 10
309.507143
 20
427.7
 30
0.0
 11
310.507143
 21
427.7
 31
0.0
  0
LINE
  5
23E
100
AcDbEntity
  8
LAY-1
  6
CONTINUOUS
 62
     3
100
AcDbLine
 10
312.307143
 20
428.7
 30
0.0
 11
312.307143
 21
424.2
 31
0.0
  0
LINE
  5
23F
100
AcDbEntity
  8
LAY-1
  6
CONTINUOUS
 62
     3
100
AcDbLine
 10
309.507143
 20
448.7
 30
0.0
 11
309.507143
 21
427.7
 31
0.0
  0
LINE
  5
240
100
AcDbEntity
  8
LAY-1
  6
CONTINUOUS
 62
     3
100
AcDbLine
 10
310.507143
 20
452.2
 30
0.0
 11
310.507143
 21
424.2
 31
0.0
  0
LINE
  5
241
100
AcDbEntity
  8
LAY-1
  6
CONTINUOUS
 62
     3
100
AcDbLine
 10
312.307143
 20
452.2
 30
0.0
 11
312.307143
 21
428.7
 31
0.0
  0
LINE
  5
242
100
AcDbEntity
  8
LAY-1
  6
CONTINUOUS
 62
     3
100
AcDbLine
 10
337.177161
 20
428.482379
 30
0.0
 11
337.177161
 21
447.917621
 31
0.0
  0
LINE
  5
243
100
AcDbEntity
  8
LAY-1
  6
CONTINUOUS
 62
     3
100
AcDbLine
 10
331.837124
 20
447.917621
 30
0.0
 11
331.837124
 21
428.482379
 31
0.0
  0
ARC
  5
244
100
AcDbEntity
  8
LAY-1
  6
CONTINUOUS
 62
     3
100
AcDbCircle
 10
331.481122
 20
428.3
 30
0.0
 40
0.4
100
AcDbArc
 50
27.125984
 51
90.0
  0
ARC
  5
245
100
AcDbEntity
  8
LAY-1
  6
CONTINUOUS
 62
     3
100
AcDbCircle
 10
334.507143
 20
429.850225
 30
0.0
 40
3.0
100
AcDbArc
 50
207.125984
 51
332.874016
  0
ARC
  5
246
100
AcDbEntity
  8
LAY-1
  6
CONTINUOUS
 62
     3
100
AcDbCircle
 10
337.533164
 20
428.3
 30
0.0
 40
0.4
100
AcDbArc
 50
90.0
 51
152.874016
  0
ARC
  5
247
100
AcDbEntity
  8
LAY-1
  6
CONTINUOUS
 62
     3
100
AcDbCircle
 10
337.533164
 20
448.1
 30
0.0
 40
0.4
100
AcDbArc
 50
207.125984
 51
270.0
  0
ARC
  5
248
100
AcDbEntity
  8
LAY-1
  6
CONTINUOUS
 62
     3
100
AcDbCircle
 10
331.481122
 20
448.1
 30
0.0
 40
0.4
100
AcDbArc
 50
270.0
 51
332.874016
  0
ARC
  5
249
100
AcDbEntity
  8
LAY-1
  6
CONTINUOUS
 62
     3
100
AcDbCircle
 10
334.507143
 20
446.549775
 30
0.0
 40
3.0
100
AcDbArc
 50
27.125984
 51
152.874016
  0
LINE
  5
24A
100
AcDbEntity
  8
LAY-1
  6
CONTINUOUS
 62
     3
100
AcDbLine
 10
318.981122
 20
428.7
 30
0.0
 11
312.307143
 21
428.7
 31
0.0
  0
LINE
  5
24B
100
AcDbEntity
  8
LAY-1
  6
CONTINUOUS
 62
     3
100
AcDbLine
 10
318.981122
 20
447.7
 30
0.0
 11
312.307143
 21
447.7
 31
0.0
  0
LINE
  5
24C
100
AcDbEntity
  8
LAY-1
  6
CONTINUOUS
 62
     3
100
AcDbLine
 10
324.677161
 20
428.482379
 30
0.0
 11
324.677161
 21
447.917621
 31
0.0
  0
LINE
  5
24D
100
AcDbEntity
  8
LAY-1
  6
CONTINUOUS
 62
     3
100
AcDbLine
 10
319.337124
 20
447.917621
 30
0.0
 11
319.337124
 21
428.482379
 31
0.0
  0
ARC
  5
24E
100
AcDbEntity
  8
LAY-1
  6
CONTINUOUS
 62
     3
100
AcDbCircle
 10
318.981122
 20
428.3
 30
0.0
 40
0.4
100
AcDbArc
 50
27.125984
 51
90.0
  0
ARC
  5
24F
100
AcDbEntity
  8
LAY-1
  6
CONTINUOUS
 62
     3
100
AcDbCircle
 10
322.007143
 20
429.850225
 30
0.0
 40
3.0
100
AcDbArc
 50
207.125984
 51
332.874016
  0
ARC
  5
250
100
AcDbEntity
  8
LAY-1
  6
CONTINUOUS
 62
     3
100
AcDbCircle
 10
325.033164
 20
428.3
 30
0.0
 40
0.4
100
AcDbArc
 50
90.0
 51
152.874016
  0
ARC
  5
251
100
AcDbEntity
  8
LAY-1
  6
CONTINUOUS
 62
     3
100
AcDbCircle
 10
325.033164
 20
448.1
 30
0.0
 40
0.4
100
AcDbArc
 50
207.125984
 51
270.0
  0
ARC
  5
252
100
AcDbEntity
  8
LAY-1
  6
CONTINUOUS
 62
     3
100
AcDbCircle
 10
318.981122
 20
448.1
 30
0.0
 40
0.4
100
AcDbArc
 50
270.0
 51
332.874016
  0
ARC
  5
253
100
AcDbEntity
  8
LAY-1
  6
CONTINUOUS
 62
     3
100
AcDbCircle
 10
322.007143
 20
446.549775
 30
0.0
 40
3.0
100
AcDbArc
 50
27.125984
 51
152.874016
  0
LINE
  5
254
100
AcDbEntity
  8
LAY-1
  6
CONTINUOUS
 62
     3
100
AcDbLine
 10
325.033164
 20
447.7
 30
0.0
 11
331.481122
 21
447.7
 31
0.0
  0
LINE
  5
255
100
AcDbEntity
  8
LAY-1
  6
CONTINUOUS
 62
     3
100
AcDbLine
 10
331.481122
 20
428.7
 30
0.0
 11
325.033164
 21
428.7
 31
0.0
  0
LINE
  5
256
100
AcDbEntity
  8
LAY-1
  6
CONTINUOUS
 62
     3
100
AcDbLine
 10
349.677161
 20
428.482379
 30
0.0
 11
349.677161
 21
447.917621
 31
0.0
  0
LINE
  5
257
100
AcDbEntity
  8
LAY-1
  6
CONTINUOUS
 62
     3
100
AcDbLine
 10
344.337124
 20
447.917621
 30
0.0
 11
344.337124
 21
428.482379
 31
0.0
  0
ARC
  5
258
100
AcDbEntity
  8
LAY-1
  6
CONTINUOUS
 62
     3
100
AcDbCircle
 10
343.981122
 20
428.3
 30
0.0
 40
0.4
100
AcDbArc
 50
27.125984
 51
90.0
  0
ARC
  5
259
100
AcDbEntity
  8
LAY-1
  6
CONTINUOUS
 62
     3
100
AcDbCircle
 10
347.007143
 20
429.850225
 30
0.0
 40
3.0
100
AcDbArc
 50
207.125984
 51
332.874016
  0
ARC
  5
25A
100
AcDbEntity
  8
LAY-1
  6
CONTINUOUS
 62
     3
100
AcDbCircle
 10
350.033164
 20
428.3
 30
0.0
 40
0.4
100
AcDbArc
 50
90.0
 51
152.874016
  0
ARC
  5
25B
100
AcDbEntity
  8
LAY-1
  6
CONTINUOUS
 62
     3
100
AcDbCircle
 10
350.033164
 20
448.1
 30
0.0
 40
0.4
100
AcDbArc
 50
207.125984
 51
270.0
  0
ARC
  5
25C
100
AcDbEntity
  8
LAY-1
  6
CONTINUOUS
 62
     3
100
AcDbCircle
 10
343.981122
 20
448.1
 30
0.0
 40
0.4
100
AcDbArc
 50
270.0
 51
332.874016
  0
ARC
  5
25D
100
AcDbEntity
  8
LAY-1
  6
CONTINUOUS
 62
     3
100
AcDbCircle
 10
347.007143
 20
446.549775
 30
0.0
 40
3.0
100
AcDbArc
 50
27.125984
 51
152.874016
  0
LINE
  5
25E
100
AcDbEntity
  8
LAY-1
  6
CONTINUOUS
 62
     3
100
AcDbLine
 10
350.033164
 20
447.7
 30
0.0
 11
356.707143
 21
447.7
 31
0.0
  0
LINE
  5
25F
100
AcDbEntity
  8
LAY-1
  6
CONTINUOUS
 62
     3
100
AcDbLine
 10
356.707143
 20
428.7
 30
0.0
 11
350.033164
 21
428.7
 31
0.0
  0
LINE
  5
260
100
AcDbEntity
  8
LAY-1
  6
CONTINUOUS
 62
     3
100
AcDbLine
 10
337.533164
 20
447.7
 30
0.0
 11
343.981122
 21
447.7
 31
0.0
  0
LINE
  5
261
100
AcDbEntity
  8
LAY-1
  6
CONTINUOUS
 62
     3
100
AcDbLine
 10
343.981122
 20
428.7
 30
0.0
 11
337.533164
 21
428.7
 31
0.0
  0
LINE
  5
262
100
AcDbEntity
  8
LAY-1
  6
EXLTYPE3
 62
     1
100
AcDbLine
 10
306.4
 20
438.2
 30
0.0
 11
363.4
 21
438.2
 31
0.0
  0
LINE
  5
263
100
AcDbEntity
  8
LAY-1
  6
CONTINUOUS
 62
     3
100
AcDbLine
 10
467.65
 20
426.35
 30
0.0
 11
468.051779
 21
426.35
 31
0.0
  0
LINE
  5
264
100
AcDbEntity
  8
LAY-1
  6
CONTINUOUS
 62
     3
100
AcDbLine
 10
467.65
 20
454.7
 30
0.0
 11
467.65
 21
421.7
 31
0.0
  0
LINE
  5
265
100
AcDbEntity
  8
LAY-1
  6
CONTINUOUS
 62
     3
100
AcDbLine
 10
469.45
 20
454.7
 30
0.0
 11
469.45
 21
421.7
 31
0.0
  0
LINE
  5
266
100
AcDbEntity
  8
LAY-1
  6
CONTINUOUS
 62
     3
100
AcDbLine
 10
470.95
 20
451.05
 30
0.0
 11
470.95
 21
425.35
 31
0.0
  0
LINE
  5
267
100
AcDbEntity
  8
LAY-1
  6
CONTINUOUS
 62
     3
100
AcDbLine
 10
470.95
 20
425.35
 30
0.0
 11
469.45
 21
425.35
 31
0.0
  0
LINE
  5
268
100
AcDbEntity
  8
LAY-1
  6
CONTINUOUS
 62
     3
100
AcDbLine
 10
470.95
 20
451.05
 30
0.0
 11
469.45
 21
451.05
 31
0.0
  0
LINE
  5
269
100
AcDbEntity
  8
LAY-1
  6
CONTINUOUS
 62
     3
100
AcDbLine
 10
469.45
 20
421.7
 30
0.0
 11
467.65
 21
421.7
 31
0.0
  0
LINE
  5
26A
100
AcDbEntity
  8
LAY-1
  6
CONTINUOUS
 62
     3
100
AcDbLine
 10
469.45
 20
454.7
 30
0.0
 11
467.65
 21
454.7
 31
0.0
  0
LINE
  5
26B
100
AcDbEntity
  8
LAY-1
  6
CONTINUOUS
 62
     3
100
AcDbLine
 10
422.45
 20
454.7
 30
0.0
 11
424.25
 21
454.7
 31
0.0
  0
LINE
  5
26C
100
AcDbEntity
  8
LAY-1
  6
CONTINUOUS
 62
     3
100
AcDbLine
 10
422.45
 20
421.7
 30
0.0
 11
424.25
 21
421.7
 31
0.0
  0
LINE
  5
26D
100
AcDbEntity
  8
LAY-1
  6
CONTINUOUS
 62
     3
100
AcDbLine
 10
420.95
 20
451.05
 30
0.0
 11
422.45
 21
451.05
 31
0.0
  0
LINE
  5
26E
100
AcDbEntity
  8
LAY-1
  6
CONTINUOUS
 62
     3
100
AcDbLine
 10
420.95
 20
425.35
 30
0.0
 11
422.45
 21
425.35
 31
0.0
  0
LINE
  5
26F
100
AcDbEntity
  8
LAY-1
  6
CONTINUOUS
 62
     3
100
AcDbLine
 10
420.95
 20
451.05
 30
0.0
 11
420.95
 21
425.35
 31
0.0
  0
LINE
  5
270
100
AcDbEntity
  8
LAY-1
  6
CONTINUOUS
 62
     3
100
AcDbLine
 10
422.45
 20
454.7
 30
0.0
 11
422.45
 21
421.7
 31
0.0
  0
LINE
  5
271
100
AcDbEntity
  8
LAY-1
  6
CONTINUOUS
 62
     3
100
AcDbLine
 10
424.25
 20
454.7
 30
0.0
 11
424.25
 21
421.7
 31
0.0
  0
LINE
  5
272
100
AcDbEntity
  8
LAY-1
  6
CONTINUOUS
 62
     3
100
AcDbLine
 10
448.620018
 20
426.132379
 30
0.0
 11
448.620018
 21
450.267621
 31
0.0
  0
LINE
  5
273
100
AcDbEntity
  8
LAY-1
  6
CONTINUOUS
 62
     3
100
AcDbLine
 10
443.279982
 20
450.267621
 30
0.0
 11
443.279982
 21
426.132379
 31
0.0
  0
ARC
  5
274
100
AcDbEntity
  8
LAY-1
  6
CONTINUOUS
 62
     3
100
AcDbCircle
 10
442.923979
 20
425.95
 30
0.0
 40
0.4
100
AcDbArc
 50
27.125984
 51
90.0
  0
ARC
  5
275
100
AcDbEntity
  8
LAY-1
  6
CONTINUOUS
 62
     3
100
AcDbCircle
 10
445.95
 20
427.500225
 30
0.0
 40
3.0
100
AcDbArc
 50
207.125984
 51
332.874016
  0
ARC
  5
276
100
AcDbEntity
  8
LAY-1
  6
CONTINUOUS
 62
     3
100
AcDbCircle
 10
448.976021
 20
425.95
 30
0.0
 40
0.4
100
AcDbArc
 50
90.0
 51
152.874016
  0
ARC
  5
277
100
AcDbEntity
  8
LAY-1
  6
CONTINUOUS
 62
     3
100
AcDbCircle
 10
448.976021
 20
450.45
 30
0.0
 40
0.4
100
AcDbArc
 50
207.125984
 51
270.0
  0
ARC
  5
278
100
AcDbEntity
  8
LAY-1
  6
CONTINUOUS
 62
     3
100
AcDbCircle
 10
445.95
 20
448.899775
 30
0.0
 40
3.0
100
AcDbArc
 50
27.125984
 51
152.874016
  0
ARC
  5
279
100
AcDbEntity
  8
LAY-1
  6
CONTINUOUS
 62
     3
100
AcDbCircle
 10
442.923979
 20
450.45
 30
0.0
 40
0.4
100
AcDbArc
 50
270.0
 51
332.874016
  0
LINE
  5
27A
100
AcDbEntity
  8
LAY-1
  6
CONTINUOUS
 62
     3
100
AcDbLine
 10
436.120018
 20
426.132379
 30
0.0
 11
436.120018
 21
450.267621
 31
0.0
  0
LINE
  5
27B
100
AcDbEntity
  8
LAY-1
  6
CONTINUOUS
 62
     3
100
AcDbLine
 10
430.779982
 20
450.267621
 30
0.0
 11
430.779982
 21
426.132379
 31
0.0
  0
ARC
  5
27C
100
AcDbEntity
  8
LAY-1
  6
CONTINUOUS
 62
     3
100
AcDbCircle
 10
430.423979
 20
425.95
 30
0.0
 40
0.4
100
AcDbArc
 50
27.125984
 51
90.0
  0
ARC
  5
27D
100
AcDbEntity
  8
LAY-1
  6
CONTINUOUS
 62
     3
100
AcDbCircle
 10
433.45
 20
427.500225
 30
0.0
 40
3.0
100
AcDbArc
 50
207.125984
 51
332.874016
  0
ARC
  5
27E
100
AcDbEntity
  8
LAY-1
  6
CONTINUOUS
 62
     3
100
AcDbCircle
 10
436.476021
 20
425.95
 30
0.0
 40
0.4
100
AcDbArc
 50
90.0
 51
152.874016
  0
ARC
  5
27F
100
AcDbEntity
  8
LAY-1
  6
CONTINUOUS
 62
     3
100
AcDbCircle
 10
436.476021
 20
450.45
 30
0.0
 40
0.4
100
AcDbArc
 50
207.125984
 51
270.0
  0
ARC
  5
280
100
AcDbEntity
  8
LAY-1
  6
CONTINUOUS
 62
     3
100
AcDbCircle
 10
433.45
 20
448.899775
 30
0.0
 40
3.0
100
AcDbArc
 50
27.125984
 51
152.874016
  0
ARC
  5
281
100
AcDbEntity
  8
LAY-1
  6
CONTINUOUS
 62
     3
100
AcDbCircle
 10
430.423979
 20
450.45
 30
0.0
 40
0.4
100
AcDbArc
 50
270.0
 51
332.874016
  0
LINE
  5
282
100
AcDbEntity
  8
LAY-1
  6
CONTINUOUS
 62
     3
100
AcDbLine
 10
430.423979
 20
426.35
 30
0.0
 11
424.25
 21
426.35
 31
0.0
  0
LINE
  5
283
100
AcDbEntity
  8
LAY-1
  6
CONTINUOUS
 62
     3
100
AcDbLine
 10
424.25
 20
450.05
 30
0.0
 11
430.423979
 21
450.05
 31
0.0
  0
LINE
  5
284
100
AcDbEntity
  8
LAY-1
  6
CONTINUOUS
 62
     3
100
AcDbLine
 10
461.120018
 20
426.132379
 30
0.0
 11
461.120018
 21
450.267621
 31
0.0
  0
LINE
  5
285
100
AcDbEntity
  8
LAY-1
  6
CONTINUOUS
 62
     3
100
AcDbLine
 10
455.779982
 20
450.267621
 30
0.0
 11
455.779982
 21
426.132379
 31
0.0
  0
ARC
  5
286
100
AcDbEntity
  8
LAY-1
  6
CONTINUOUS
 62
     3
100
AcDbCircle
 10
455.423979
 20
425.95
 30
0.0
 40
0.4
100
AcDbArc
 50
27.125984
 51
90.0
  0
ARC
  5
287
100
AcDbEntity
  8
LAY-1
  6
CONTINUOUS
 62
     3
100
AcDbCircle
 10
458.45
 20
427.500225
 30
0.0
 40
3.0
100
AcDbArc
 50
207.125984
 51
332.874016
  0
ARC
  5
288
100
AcDbEntity
  8
LAY-1
  6
CONTINUOUS
 62
     3
100
AcDbCircle
 10
461.476021
 20
425.95
 30
0.0
 40
0.4
100
AcDbArc
 50
90.0
 51
152.874016
  0
ARC
  5
289
100
AcDbEntity
  8
LAY-1
  6
CONTINUOUS
 62
     3
100
AcDbCircle
 10
461.476021
 20
450.45
 30
0.0
 40
0.4
100
AcDbArc
 50
207.125984
 51
270.0
  0
ARC
  5
28A
100
AcDbEntity
  8
LAY-1
  6
CONTINUOUS
 62
     3
100
AcDbCircle
 10
458.45
 20
448.899775
 30
0.0
 40
3.0
100
AcDbArc
 50
27.125984
 51
152.874016
  0
ARC
  5
28B
100
AcDbEntity
  8
LAY-1
  6
CONTINUOUS
 62
     3
100
AcDbCircle
 10
455.423979
 20
450.45
 30
0.0
 40
0.4
100
AcDbArc
 50
270.0
 51
332.874016
  0
LINE
  5
28C
100
AcDbEntity
  8
LAY-1
  6
CONTINUOUS
 62
     3
100
AcDbLine
 10
461.476021
 20
450.05
 30
0.0
 11
467.65
 21
450.05
 31
0.0
  0
LINE
  5
28D
100
AcDbEntity
  8
LAY-1
  6
CONTINUOUS
 62
     3
100
AcDbLine
 10
467.65
 20
426.35
 30
0.0
 11
461.476021
 21
426.35
 31
0.0
  0
LINE
  5
28E
100
AcDbEntity
  8
LAY-1
  6
EXLTYPE3
 62
     1
100
AcDbLine
 10
417.6
 20
438.2
 30
0.0
 11
474.7
 21
438.2
 31
0.0
  0
LINE
  5
28F
100
AcDbEntity
  8
LAY-1
  6
CONTINUOUS
 62
     3
100
AcDbLine
 10
436.476021
 20
450.05
 30
0.0
 11
442.923979
 21
450.05
 31
0.0
  0
LINE
  5
290
100
AcDbEntity
  8
LAY-1
  6
CONTINUOUS
 62
     3
100
AcDbLine
 10
448.976021
 20
450.05
 30
0.0
 11
455.423979
 21
450.05
 31
0.0
  0
LINE
  5
291
100
AcDbEntity
  8
LAY-1
  6
CONTINUOUS
 62
     3
100
AcDbLine
 10
455.423979
 20
426.35
 30
0.0
 11
448.976021
 21
426.35
 31
0.0
  0
LINE
  5
292
100
AcDbEntity
  8
LAY-1
  6
CONTINUOUS
 62
     3
100
AcDbLine
 10
442.923979
 20
426.35
 30
0.0
 11
436.476021
 21
426.35
 31
0.0
  0
LINE
  5
293
100
AcDbEntity
  8
LAY-1
  6
CONTINUOUS
 62
     3
100
AcDbLine
 10
580.892857
 20
458.2
 30
0.0
 11
579.092857
 21
458.2
 31
0.0
  0
LINE
  5
294
100
AcDbEntity
  8
LAY-1
  6
CONTINUOUS
 62
     3
100
AcDbLine
 10
580.892857
 20
418.2
 30
0.0
 11
579.092857
 21
418.2
 31
0.0
  0
LINE
  5
295
100
AcDbEntity
  8
LAY-1
  6
CONTINUOUS
 62
     3
100
AcDbLine
 10
582.392857
 20
454.4
 30
0.0
 11
580.892857
 21
454.4
 31
0.0
  0
LINE
  5
296
100
AcDbEntity
  8
LAY-1
  6
CONTINUOUS
 62
     3
100
AcDbLine
 10
582.392857
 20
422.0
 30
0.0
 11
580.892857
 21
422.0
 31
0.0
  0
LINE
  5
297
100
AcDbEntity
  8
LAY-1
  6
CONTINUOUS
 62
     3
100
AcDbLine
 10
582.392857
 20
454.4
 30
0.0
 11
582.392857
 21
422.0
 31
0.0
  0
LINE
  5
298
100
AcDbEntity
  8
LAY-1
  6
CONTINUOUS
 62
     3
100
AcDbLine
 10
580.892857
 20
458.2
 30
0.0
 11
580.892857
 21
418.2
 31
0.0
  0
LINE
  5
299
100
AcDbEntity
  8
LAY-1
  6
CONTINUOUS
 62
     3
100
AcDbLine
 10
579.092857
 20
458.2
 30
0.0
 11
579.092857
 21
418.2
 31
0.0
  0
LINE
  5
29A
100
AcDbEntity
  8
LAY-1
  6
CONTINUOUS
 62
     3
100
AcDbLine
 10
533.892857
 20
458.2
 30
0.0
 11
535.692857
 21
458.2
 31
0.0
  0
LINE
  5
29B
100
AcDbEntity
  8
LAY-1
  6
CONTINUOUS
 62
     3
100
AcDbLine
 10
533.892857
 20
418.2
 30
0.0
 11
535.692857
 21
418.2
 31
0.0
  0
LINE
  5
29C
100
AcDbEntity
  8
LAY-1
  6
CONTINUOUS
 62
     3
100
AcDbLine
 10
532.392857
 20
454.4
 30
0.0
 11
533.892857
 21
454.4
 31
0.0
  0
LINE
  5
29D
100
AcDbEntity
  8
LAY-1
  6
CONTINUOUS
 62
     3
100
AcDbLine
 10
532.392857
 20
422.0
 30
0.0
 11
533.892857
 21
422.0
 31
0.0
  0
LINE
  5
29E
100
AcDbEntity
  8
LAY-1
  6
CONTINUOUS
 62
     3
100
AcDbLine
 10
532.392857
 20
454.4
 30
0.0
 11
532.392857
 21
422.0
 31
0.0
  0
LINE
  5
29F
100
AcDbEntity
  8
LAY-1
  6
CONTINUOUS
 62
     3
100
AcDbLine
 10
533.892857
 20
458.2
 30
0.0
 11
533.892857
 21
418.2
 31
0.0
  0
LINE
  5
2A0
100
AcDbEntity
  8
LAY-1
  6
CONTINUOUS
 62
     3
100
AcDbLine
 10
535.692857
 20
458.2
 30
0.0
 11
535.692857
 21
418.2
 31
0.0
  0
ARC
  5
2A1
100
AcDbEntity
  8
LAY-1
  6
CONTINUOUS
 62
     3
100
AcDbCircle
 10
554.366836
 20
453.8
 30
0.0
 40
0.4
100
AcDbArc
 50
270.0
 51
332.874016
  0
ARC
  5
2A2
100
AcDbEntity
  8
LAY-1
  6
CONTINUOUS
 62
     3
100
AcDbCircle
 10
557.392857
 20
452.249775
 30
0.0
 40
3.0
100
AcDbArc
 50
27.125984
 51
152.874016
  0
ARC
  5
2A3
100
AcDbEntity
  8
LAY-1
  6
CONTINUOUS
 62
     3
100
AcDbCircle
 10
560.418878
 20
453.8
 30
0.0
 40
0.4
100
AcDbArc
 50
207.125984
 51
270.0
  0
ARC
  5
2A4
100
AcDbEntity
  8
LAY-1
  6
CONTINUOUS
 62
     3
100
AcDbCircle
 10
560.418878
 20
422.6
 30
0.0
 40
0.4
100
AcDbArc
 50
90.0
 51
152.874016
  0
ARC
  5
2A5
100
AcDbEntity
  8
LAY-1
  6
CONTINUOUS
 62
     3
100
AcDbCircle
 10
557.392857
 20
424.150225
 30
0.0
 40
3.0
100
AcDbArc
 50
207.125984
 51
332.874016
  0
ARC
  5
2A6
100
AcDbEntity
  8
LAY-1
  6
CONTINUOUS
 62
     3
100
AcDbCircle
 10
554.366836
 20
422.6
 30
0.0
 40
0.4
100
AcDbArc
 50
27.125984
 51
90.0
  0
LINE
  5
2A7
100
AcDbEntity
  8
LAY-1
  6
CONTINUOUS
 62
     3
100
AcDbLine
 10
554.722839
 20
453.617621
 30
0.0
 11
554.722839
 21
422.782379
 31
0.0
  0
LINE
  5
2A8
100
AcDbEntity
  8
LAY-1
  6
CONTINUOUS
 62
     3
100
AcDbLine
 10
560.062876
 20
422.782379
 30
0.0
 11
560.062876
 21
453.617621
 31
0.0
  0
ARC
  5
2A9
100
AcDbEntity
  8
LAY-1
  6
CONTINUOUS
 62
     3
100
AcDbCircle
 10
541.866836
 20
453.8
 30
0.0
 40
0.4
100
AcDbArc
 50
270.0
 51
332.874016
  0
ARC
  5
2AA
100
AcDbEntity
  8
LAY-1
  6
CONTINUOUS
 62
     3
100
AcDbCircle
 10
544.892857
 20
452.249775
 30
0.0
 40
3.0
100
AcDbArc
 50
27.125984
 51
152.874016
  0
ARC
  5
2AB
100
AcDbEntity
  8
LAY-1
  6
CONTINUOUS
 62
     3
100
AcDbCircle
 10
547.918878
 20
453.8
 30
0.0
 40
0.4
100
AcDbArc
 50
207.125984
 51
270.0
  0
ARC
  5
2AC
100
AcDbEntity
  8
LAY-1
  6
CONTINUOUS
 62
     3
100
AcDbCircle
 10
547.918878
 20
422.6
 30
0.0
 40
0.4
100
AcDbArc
 50
90.0
 51
152.874016
  0
ARC
  5
2AD
100
AcDbEntity
  8
LAY-1
  6
CONTINUOUS
 62
     3
100
AcDbCircle
 10
544.892857
 20
424.150225
 30
0.0
 40
3.0
100
AcDbArc
 50
207.125984
 51
332.874016
  0
ARC
  5
2AE
100
AcDbEntity
  8
LAY-1
  6
CONTINUOUS
 62
     3
100
AcDbCircle
 10
541.866836
 20
422.6
 30
0.0
 40
0.4
100
AcDbArc
 50
27.125984
 51
90.0
  0
LINE
  5
2AF
100
AcDbEntity
  8
LAY-1
  6
CONTINUOUS
 62
     3
100
AcDbLine
 10
542.222839
 20
453.617621
 30
0.0
 11
542.222839
 21
422.782379
 31
0.0
  0
LINE
  5
2B0
100
AcDbEntity
  8
LAY-1
  6
CONTINUOUS
 62
     3
100
AcDbLine
 10
547.562876
 20
422.782379
 30
0.0
 11
547.562876
 21
453.617621
 31
0.0
  0
LINE
  5
2B1
100
AcDbEntity
  8
LAY-1
  6
CONTINUOUS
 62
     3
100
AcDbLine
 10
535.692857
 20
453.4
 30
0.0
 11
541.866836
 21
453.4
 31
0.0
  0
LINE
  5
2B2
100
AcDbEntity
  8
LAY-1
  6
CONTINUOUS
 62
     3
100
AcDbLine
 10
541.866836
 20
423.0
 30
0.0
 11
535.692857
 21
423.0
 31
0.0
  0
ARC
  5
2B3
100
AcDbEntity
  8
LAY-1
  6
CONTINUOUS
 62
     3
100
AcDbCircle
 10
566.866836
 20
453.8
 30
0.0
 40
0.4
100
AcDbArc
 50
270.0
 51
332.874016
  0
ARC
  5
2B4
100
AcDbEntity
  8
LAY-1
  6
CONTINUOUS
 62
     3
100
AcDbCircle
 10
569.892857
 20
452.249775
 30
0.0
 40
3.0
100
AcDbArc
 50
27.125984
 51
152.874016
  0
ARC
  5
2B5
100
AcDbEntity
  8
LAY-1
  6
CONTINUOUS
 62
     3
100
AcDbCircle
 10
572.918878
 20
453.8
 30
0.0
 40
0.4
100
AcDbArc
 50
207.125984
 51
270.0
  0
ARC
  5
2B6
100
AcDbEntity
  8
LAY-1
  6
CONTINUOUS
 62
     3
100
AcDbCircle
 10
572.918878
 20
422.6
 30
0.0
 40
0.4
100
AcDbArc
 50
90.0
 51
152.874016
  0
ARC
  5
2B7
100
AcDbEntity
  8
LAY-1
  6
CONTINUOUS
 62
     3
100
AcDbCircle
 10
569.892857
 20
424.150225
 30
0.0
 40
3.0
100
AcDbArc
 50
207.125984
 51
332.874016
  0
ARC
  5
2B8
100
AcDbEntity
  8
LAY-1
  6
CONTINUOUS
 62
     3
100
AcDbCircle
 10
566.866836
 20
422.6
 30
0.0
 40
0.4
100
AcDbArc
 50
27.125984
 51
90.0
  0
LINE
  5
2B9
100
AcDbEntity
  8
LAY-1
  6
CONTINUOUS
 62
     3
100
AcDbLine
 10
567.222839
 20
453.617621
 30
0.0
 11
567.222839
 21
422.782379
 31
0.0
  0
LINE
  5
2BA
100
AcDbEntity
  8
LAY-1
  6
CONTINUOUS
 62
     3
100
AcDbLine
 10
572.562876
 20
422.782379
 30
0.0
 11
572.562876
 21
453.617621
 31
0.0
  0
LINE
  5
2BB
100
AcDbEntity
  8
LAY-1
  6
CONTINUOUS
 62
     3
100
AcDbLine
 10
572.918878
 20
453.4
 30
0.0
 11
579.092857
 21
453.4
 31
0.0
  0
LINE
  5
2BC
100
AcDbEntity
  8
LAY-1
  6
CONTINUOUS
 62
     3
100
AcDbLine
 10
579.092857
 20
423.0
 30
0.0
 11
572.918878
 21
423.0
 31
0.0
  0
LINE
  5
2BD
100
AcDbEntity
  8
LAY-1
  6
EXLTYPE3
 62
     1
100
AcDbLine
 10
528.1
 20
438.2
 30
0.0
 11
586.9
 21
438.2
 31
0.0
  0
LINE
  5
2BE
100
AcDbEntity
  8
LAY-1
  6
CONTINUOUS
 62
     3
100
AcDbLine
 10
547.918878
 20
453.4
 30
0.0
 11
554.366836
 21
453.4
 31
0.0
  0
LINE
  5
2BF
100
AcDbEntity
  8
LAY-1
  6
CONTINUOUS
 62
     3
100
AcDbLine
 10
560.418878
 20
453.4
 30
0.0
 11
566.866836
 21
453.4
 31
0.0
  0
LINE
  5
2C0
100
AcDbEntity
  8
LAY-1
  6
CONTINUOUS
 62
     3
100
AcDbLine
 10
566.866836
 20
423.0
 30
0.0
 11
560.418878
 21
423.0
 31
0.0
  0
LINE
  5
2C1
100
AcDbEntity
  8
LAY-1
  6
CONTINUOUS
 62
     3
100
AcDbLine
 10
554.366836
 20
423.0
 30
0.0
 11
547.918878
 21
423.0
 31
0.0
  0
LINE
  5
2C2
100
AcDbEntity
  8
LAY-1
  6
CONTINUOUS
 62
     3
100
AcDbLine
 10
692.335714
 20
415.95
 30
0.0
 11
690.335714
 21
415.95
 31
0.0
  0
LINE
  5
2C3
100
AcDbEntity
  8
LAY-1
  6
CONTINUOUS
 62
     3
100
AcDbLine
 10
692.335714
 20
460.45
 30
0.0
 11
690.335714
 21
460.45
 31
0.0
  0
LINE
  5
2C4
100
AcDbEntity
  8
LAY-1
  6
CONTINUOUS
 62
     3
100
AcDbLine
 10
693.835714
 20
456.5
 30
0.0
 11
692.335714
 21
456.5
 31
0.0
  0
LINE
  5
2C5
100
AcDbEntity
  8
LAY-1
  6
CONTINUOUS
 62
     3
100
AcDbLine
 10
693.835714
 20
419.9
 30
0.0
 11
692.335714
 21
419.9
 31
0.0
  0
LINE
  5
2C6
100
AcDbEntity
  8
LAY-1
  6
CONTINUOUS
 62
     3
100
AcDbLine
 10
693.835714
 20
456.5
 30
0.0
 11
693.835714
 21
419.9
 31
0.0
  0
LINE
  5
2C7
100
AcDbEntity
  8
LAY-1
  6
CONTINUOUS
 62
     3
100
AcDbLine
 10
690.335714
 20
460.45
 30
0.0
 11
690.335714
 21
415.95
 31
0.0
  0
LINE
  5
2C8
100
AcDbEntity
  8
LAY-1
  6
CONTINUOUS
 62
     3
100
AcDbLine
 10
692.335714
 20
460.45
 30
0.0
 11
692.335714
 21
415.95
 31
0.0
  0
LINE
  5
2C9
100
AcDbEntity
  8
LAY-1
  6
CONTINUOUS
 62
     3
100
AcDbLine
 10
645.335714
 20
460.45
 30
0.0
 11
647.335714
 21
460.45
 31
0.0
  0
LINE
  5
2CA
100
AcDbEntity
  8
LAY-1
  6
CONTINUOUS
 62
     3
100
AcDbLine
 10
645.335714
 20
415.95
 30
0.0
 11
647.335714
 21
415.95
 31
0.0
  0
LINE
  5
2CB
100
AcDbEntity
  8
LAY-1
  6
CONTINUOUS
 62
     3
100
AcDbLine
 10
643.835714
 20
456.5
 30
0.0
 11
645.335714
 21
456.5
 31
0.0
  0
LINE
  5
2CC
100
AcDbEntity
  8
LAY-1
  6
CONTINUOUS
 62
     3
100
AcDbLine
 10
643.835714
 20
419.9
 30
0.0
 11
645.335714
 21
419.9
 31
0.0
  0
LINE
  5
2CD
100
AcDbEntity
  8
LAY-1
  6
CONTINUOUS
 62
     3
100
AcDbLine
 10
643.835714
 20
456.5
 30
0.0
 11
643.835714
 21
419.9
 31
0.0
  0
LINE
  5
2CE
100
AcDbEntity
  8
LAY-1
  6
CONTINUOUS
 62
     3
100
AcDbLine
 10
645.335714
 20
460.45
 30
0.0
 11
645.335714
 21
415.95
 31
0.0
  0
LINE
  5
2CF
100
AcDbEntity
  8
LAY-1
  6
CONTINUOUS
 62
     3
100
AcDbLine
 10
647.335714
 20
460.45
 30
0.0
 11
647.335714
 21
415.95
 31
0.0
  0
ARC
  5
2D0
100
AcDbEntity
  8
LAY-1
  6
CONTINUOUS
 62
     3
100
AcDbCircle
 10
668.835714
 20
453.849775
 30
0.0
 40
3.25
100
AcDbArc
 50
30.446042
 51
149.553958
  0
ARC
  5
2D1
100
AcDbEntity
  8
LAY-1
  6
CONTINUOUS
 62
     3
100
AcDbCircle
 10
665.602814
 20
455.75
 30
0.0
 40
0.5
100
AcDbArc
 50
270.0
 51
329.553958
  0
ARC
  5
2D2
100
AcDbEntity
  8
LAY-1
  6
CONTINUOUS
 62
     3
100
AcDbCircle
 10
672.068615
 20
455.75
 30
0.0
 40
0.5
100
AcDbArc
 50
210.446042
 51
270.0
  0
ARC
  5
2D3
100
AcDbEntity
  8
LAY-1
  6
CONTINUOUS
 62
     3
100
AcDbCircle
 10
672.068615
 20
420.65
 30
0.0
 40
0.5
100
AcDbArc
 50
90.0
 51
149.553958
  0
ARC
  5
2D4
100
AcDbEntity
  8
LAY-1
  6
CONTINUOUS
 62
     3
100
AcDbCircle
 10
668.835714
 20
422.550225
 30
0.0
 40
3.25
100
AcDbArc
 50
210.446042
 51
329.553958
  0
ARC
  5
2D5
100
AcDbEntity
  8
LAY-1
  6
CONTINUOUS
 62
     3
100
AcDbCircle
 10
665.602814
 20
420.65
 30
0.0
 40
0.5
100
AcDbArc
 50
30.446042
 51
90.0
  0
LINE
  5
2D6
100
AcDbEntity
  8
LAY-1
  6
CONTINUOUS
 62
     3
100
AcDbLine
 10
666.033867
 20
420.903363
 30
0.0
 11
666.033867
 21
455.496637
 31
0.0
  0
LINE
  5
2D7
100
AcDbEntity
  8
LAY-1
  6
CONTINUOUS
 62
     3
100
AcDbLine
 10
671.706922
 20
455.404778
 30
0.0
 11
671.706922
 21
420.903363
 31
0.0
  0
ARC
  5
2D8
100
AcDbEntity
  8
LAY-1
  6
CONTINUOUS
 62
     3
100
AcDbCircle
 10
656.335714
 20
453.849775
 30
0.0
 40
3.25
100
AcDbArc
 50
30.446042
 51
149.553958
  0
ARC
  5
2D9
100
AcDbEntity
  8
LAY-1
  6
CONTINUOUS
 62
     3
100
AcDbCircle
 10
653.102814
 20
455.75
 30
0.0
 40
0.5
100
AcDbArc
 50
270.0
 51
329.553958
  0
ARC
  5
2DA
100
AcDbEntity
  8
LAY-1
  6
CONTINUOUS
 62
     3
100
AcDbCircle
 10
659.568615
 20
455.75
 30
0.0
 40
0.5
100
AcDbArc
 50
210.446042
 51
270.0
  0
ARC
  5
2DB
100
AcDbEntity
  8
LAY-1
  6
CONTINUOUS
 62
     3
100
AcDbCircle
 10
659.568615
 20
420.65
 30
0.0
 40
0.5
100
AcDbArc
 50
90.0
 51
149.553958
  0
ARC
  5
2DC
100
AcDbEntity
  8
LAY-1
  6
CONTINUOUS
 62
     3
100
AcDbCircle
 10
656.335714
 20
422.550225
 30
0.0
 40
3.25
100
AcDbArc
 50
210.446042
 51
329.553958
  0
ARC
  5
2DD
100
AcDbEntity
  8
LAY-1
  6
CONTINUOUS
 62
     3
100
AcDbCircle
 10
653.102814
 20
420.65
 30
0.0
 40
0.5
100
AcDbArc
 50
30.446042
 51
90.0
  0
LINE
  5
2DE
100
AcDbEntity
  8
LAY-1
  6
CONTINUOUS
 62
     3
100
AcDbLine
 10
653.533867
 20
420.903363
 30
0.0
 11
653.533867
 21
455.496637
 31
0.0
  0
LINE
  5
2DF
100
AcDbEntity
  8
LAY-1
  6
CONTINUOUS
 62
     3
100
AcDbLine
 10
659.206922
 20
455.404778
 30
0.0
 11
659.206922
 21
420.903363
 31
0.0
  0
LINE
  5
2E0
100
AcDbEntity
  8
LAY-1
  6
CONTINUOUS
 62
     3
100
AcDbLine
 10
647.335714
 20
455.25
 30
0.0
 11
653.102814
 21
455.25
 31
0.0
  0
LINE
  5
2E1
100
AcDbEntity
  8
LAY-1
  6
CONTINUOUS
 62
     3
100
AcDbLine
 10
653.102814
 20
421.15
 30
0.0
 11
647.335714
 21
421.15
 31
0.0
  0
ARC
  5
2E2
100
AcDbEntity
  8
LAY-1
  6
CONTINUOUS
 62
     3
100
AcDbCircle
 10
681.335714
 20
453.849775
 30
0.0
 40
3.25
100
AcDbArc
 50
30.446042
 51
149.553958
  0
ARC
  5
2E3
100
AcDbEntity
  8
LAY-1
  6
CONTINUOUS
 62
     3
100
AcDbCircle
 10
678.102814
 20
455.75
 30
0.0
 40
0.5
100
AcDbArc
 50
270.0
 51
329.553958
  0
ARC
  5
2E4
100
AcDbEntity
  8
LAY-1
  6
CONTINUOUS
 62
     3
100
AcDbCircle
 10
684.568615
 20
455.75
 30
0.0
 40
0.5
100
AcDbArc
 50
210.446042
 51
270.0
  0
ARC
  5
2E5
100
AcDbEntity
  8
LAY-1
  6
CONTINUOUS
 62
     3
100
AcDbCircle
 10
684.568615
 20
420.65
 30
0.0
 40
0.5
100
AcDbArc
 50
90.0
 51
149.553958
  0
ARC
  5
2E6
100
AcDbEntity
  8
LAY-1
  6
CONTINUOUS
 62
     3
100
AcDbCircle
 10
681.335714
 20
422.550225
 30
0.0
 40
3.25
100
AcDbArc
 50
210.446042
 51
329.553958
  0
ARC
  5
2E7
100
AcDbEntity
  8
LAY-1
  6
CONTINUOUS
 62
     3
100
AcDbCircle
 10
678.102814
 20
420.65
 30
0.0
 40
0.5
100
AcDbArc
 50
30.446042
 51
90.0
  0
LINE
  5
2E8
100
AcDbEntity
  8
LAY-1
  6
CONTINUOUS
 62
     3
100
AcDbLine
 10
678.533867
 20
420.903363
 30
0.0
 11
678.533867
 21
455.496637
 31
0.0
  0
LINE
  5
2E9
100
AcDbEntity
  8
LAY-1
  6
CONTINUOUS
 62
     3
100
AcDbLine
 10
684.206922
 20
455.404778
 30
0.0
 11
684.206922
 21
420.903363
 31
0.0
  0
ARC
  5
2EA
100
AcDbEntity
  8
LAY-1
  6
CONTINUOUS
 62
     3
100
AcDbCircle
 10
681.335714
 20
453.849775
 30
0.0
 40
3.25
100
AcDbArc
 50
30.446042
 51
149.553958
  0
ARC
  5
2EB
100
AcDbEntity
  8
LAY-1
  6
CONTINUOUS
 62
     3
100
AcDbCircle
 10
678.102814
 20
455.75
 30
0.0
 40
0.5
100
AcDbArc
 50
270.0
 51
329.553958
  0
ARC
  5
2EC
100
AcDbEntity
  8
LAY-1
  6
CONTINUOUS
 62
     3
100
AcDbCircle
 10
684.568615
 20
455.75
 30
0.0
 40
0.5
100
AcDbArc
 50
210.446042
 51
270.0
  0
ARC
  5
2ED
100
AcDbEntity
  8
LAY-1
  6
CONTINUOUS
 62
     3
100
AcDbCircle
 10
684.568615
 20
420.65
 30
0.0
 40
0.5
100
AcDbArc
 50
90.0
 51
149.553958
  0
ARC
  5
2EE
100
AcDbEntity
  8
LAY-1
  6
CONTINUOUS
 62
     3
100
AcDbCircle
 10
681.335714
 20
422.550225
 30
0.0
 40
3.25
100
AcDbArc
 50
210.446042
 51
329.553958
  0
ARC
  5
2EF
100
AcDbEntity
  8
LAY-1
  6
CONTINUOUS
 62
     3
100
AcDbCircle
 10
678.102814
 20
420.65
 30
0.0
 40
0.5
100
AcDbArc
 50
30.446042
 51
90.0
  0
LINE
  5
2F0
100
AcDbEntity
  8
LAY-1
  6
CONTINUOUS
 62
     3
100
AcDbLine
 10
678.533867
 20
420.903363
 30
0.0
 11
678.533867
 21
455.496637
 31
0.0
  0
LINE
  5
2F1
100
AcDbEntity
  8
LAY-1
  6
CONTINUOUS
 62
     3
100
AcDbLine
 10
684.206922
 20
455.404778
 30
0.0
 11
684.206922
 21
420.903363
 31
0.0
  0
LINE
  5
2F2
100
AcDbEntity
  8
LAY-1
  6
CONTINUOUS
 62
     3
100
AcDbLine
 10
684.568615
 20
455.25
 30
0.0
 11
690.335714
 21
455.25
 31
0.0
  0
LINE
  5
2F3
100
AcDbEntity
  8
LAY-1
  6
CONTINUOUS
 62
     3
100
AcDbLine
 10
690.335714
 20
421.15
 30
0.0
 11
684.568615
 21
421.15
 31
0.0
  0
LINE
  5
2F4
100
AcDbEntity
  8
LAY-1
  6
EXLTYPE3
 62
     1
100
AcDbLine
 10
640.1
 20
438.2
 30
0.0
 11
698.2
 21
438.2
 31
0.0
  0
LINE
  5
2F5
100
AcDbEntity
  8
LAY-1
  6
CONTINUOUS
 62
     3
100
AcDbLine
 10
659.568615
 20
455.25
 30
0.0
 11
665.602814
 21
455.25
 31
0.0
  0
LINE
  5
2F6
100
AcDbEntity
  8
LAY-1
  6
CONTINUOUS
 62
     3
100
AcDbLine
 10
672.068615
 20
455.25
 30
0.0
 11
678.102814
 21
455.25
 31
0.0
  0
LINE
  5
2F7
100
AcDbEntity
  8
LAY-1
  6
CONTINUOUS
 62
     3
100
AcDbLine
 10
678.102814
 20
421.15
 30
0.0
 11
672.068615
 21
421.15
 31
0.0
  0
LINE
  5
2F8
100
AcDbEntity
  8
LAY-1
  6
CONTINUOUS
 62
     3
100
AcDbLine
 10
665.602814
 20
421.15
 30
0.0
 11
659.568615
 21
421.15
 31
0.0
  0
LINE
  5
2F9
100
AcDbEntity
  8
LAY-1
  6
CONTINUOUS
 62
     3
100
AcDbLine
 10
804.278571
 20
462.7
 30
0.0
 11
804.278571
 21
413.7
 31
0.0
  0
LINE
  5
2FA
100
AcDbEntity
  8
LAY-1
  6
CONTINUOUS
 62
     3
100
AcDbLine
 10
806.278571
 20
462.7
 30
0.0
 11
806.278571
 21
413.7
 31
0.0
  0
LINE
  5
2FB
100
AcDbEntity
  8
LAY-1
  6
CONTINUOUS
 62
     3
100
AcDbLine
 10
807.778571
 20
459.0
 30
0.0
 11
807.778571
 21
417.4
 31
0.0
  0
LINE
  5
2FC
100
AcDbEntity
  8
LAY-1
  6
CONTINUOUS
 62
     3
100
AcDbLine
 10
807.778571
 20
417.4
 30
0.0
 11
806.278571
 21
417.4
 31
0.0
  0
LINE
  5
2FD
100
AcDbEntity
  8
LAY-1
  6
CONTINUOUS
 62
     3
100
AcDbLine
 10
807.778571
 20
459.0
 30
0.0
 11
806.278571
 21
459.0
 31
0.0
  0
LINE
  5
2FE
100
AcDbEntity
  8
LAY-1
  6
CONTINUOUS
 62
     3
100
AcDbLine
 10
806.278571
 20
413.7
 30
0.0
 11
804.278571
 21
413.7
 31
0.0
  0
LINE
  5
2FF
100
AcDbEntity
  8
LAY-1
  6
CONTINUOUS
 62
     3
100
AcDbLine
 10
806.278571
 20
462.7
 30
0.0
 11
804.278571
 21
462.7
 31
0.0
  0
LINE
  5
300
100
AcDbEntity
  8
LAY-1
  6
CONTINUOUS
 62
     3
100
AcDbLine
 10
754.278571
 20
462.7
 30
0.0
 11
756.278571
 21
462.7
 31
0.0
  0
LINE
  5
301
100
AcDbEntity
  8
LAY-1
  6
CONTINUOUS
 62
     3
100
AcDbLine
 10
754.278571
 20
413.7
 30
0.0
 11
756.278571
 21
413.7
 31
0.0
  0
LINE
  5
302
100
AcDbEntity
  8
LAY-1
  6
CONTINUOUS
 62
     3
100
AcDbLine
 10
752.778571
 20
459.0
 30
0.0
 11
754.278571
 21
459.0
 31
0.0
  0
LINE
  5
303
100
AcDbEntity
  8
LAY-1
  6
CONTINUOUS
 62
     3
100
AcDbLine
 10
752.778571
 20
417.4
 30
0.0
 11
754.278571
 21
417.4
 31
0.0
  0
LINE
  5
304
100
AcDbEntity
  8
LAY-1
  6
CONTINUOUS
 62
     3
100
AcDbLine
 10
752.778571
 20
459.0
 30
0.0
 11
752.778571
 21
417.4
 31
0.0
  0
LINE
  5
305
100
AcDbEntity
  8
LAY-1
  6
CONTINUOUS
 62
     3
100
AcDbLine
 10
754.278571
 20
462.7
 30
0.0
 11
754.278571
 21
413.7
 31
0.0
  0
LINE
  5
306
100
AcDbEntity
  8
LAY-1
  6
CONTINUOUS
 62
     3
100
AcDbLine
 10
756.278571
 20
462.7
 30
0.0
 11
756.278571
 21
413.7
 31
0.0
  0
ARC
  5
307
100
AcDbEntity
  8
LAY-1
  6
CONTINUOUS
 62
     3
100
AcDbCircle
 10
777.045671
 20
458.0
 30
0.0
 40
0.5
100
AcDbArc
 50
270.0
 51
329.553958
  0
ARC
  5
308
100
AcDbEntity
  8
LAY-1
  6
CONTINUOUS
 62
     3
100
AcDbCircle
 10
780.278571
 20
456.099775
 30
0.0
 40
3.25
100
AcDbArc
 50
30.446042
 51
149.553958
  0
ARC
  5
309
100
AcDbEntity
  8
LAY-1
  6
CONTINUOUS
 62
     3
100
AcDbCircle
 10
783.511472
 20
458.0
 30
0.0
 40
0.5
100
AcDbArc
 50
210.446042
 51
270.0
  0
ARC
  5
30A
100
AcDbEntity
  8
LAY-1
  6
CONTINUOUS
 62
     3
100
AcDbCircle
 10
783.511472
 20
418.4
 30
0.0
 40
0.5
100
AcDbArc
 50
90.0
 51
149.553958
  0
ARC
  5
30B
100
AcDbEntity
  8
LAY-1
  6
CONTINUOUS
 62
     3
100
AcDbCircle
 10
780.278571
 20
420.300225
 30
0.0
 40
3.25
100
AcDbArc
 50
210.446042
 51
329.553958
  0
ARC
  5
30C
100
AcDbEntity
  8
LAY-1
  6
CONTINUOUS
 62
     3
100
AcDbCircle
 10
777.045671
 20
418.4
 30
0.0
 40
0.5
100
AcDbArc
 50
30.446042
 51
90.0
  0
LINE
  5
30D
100
AcDbEntity
  8
LAY-1
  6
CONTINUOUS
 62
     3
100
AcDbLine
 10
777.476725
 20
418.653363
 30
0.0
 11
777.476725
 21
457.746637
 31
0.0
  0
LINE
  5
30E
100
AcDbEntity
  8
LAY-1
  6
CONTINUOUS
 62
     3
100
AcDbLine
 10
783.149779
 20
457.654778
 30
0.0
 11
783.149779
 21
418.653363
 31
0.0
  0
ARC
  5
30F
100
AcDbEntity
  8
LAY-1
  6
CONTINUOUS
 62
     3
100
AcDbCircle
 10
762.045671
 20
458.0
 30
0.0
 40
0.5
100
AcDbArc
 50
270.0
 51
329.553958
  0
ARC
  5
310
100
AcDbEntity
  8
LAY-1
  6
CONTINUOUS
 62
     3
100
AcDbCircle
 10
765.278571
 20
456.099775
 30
0.0
 40
3.25
100
AcDbArc
 50
30.446042
 51
149.553958
  0
ARC
  5
311
100
AcDbEntity
  8
LAY-1
  6
CONTINUOUS
 62
     3
100
AcDbCircle
 10
768.511472
 20
458.0
 30
0.0
 40
0.5
100
AcDbArc
 50
210.446042
 51
270.0
  0
ARC
  5
312
100
AcDbEntity
  8
LAY-1
  6
CONTINUOUS
 62
     3
100
AcDbCircle
 10
768.511472
 20
418.4
 30
0.0
 40
0.5
100
AcDbArc
 50
90.0
 51
149.553958
  0
ARC
  5
313
100
AcDbEntity
  8
LAY-1
  6
CONTINUOUS
 62
     3
100
AcDbCircle
 10
765.278571
 20
420.300225
 30
0.0
 40
3.25
100
AcDbArc
 50
210.446042
 51
329.553958
  0
ARC
  5
314
100
AcDbEntity
  8
LAY-1
  6
CONTINUOUS
 62
     3
100
AcDbCircle
 10
762.045671
 20
418.4
 30
0.0
 40
0.5
100
AcDbArc
 50
30.446042
 51
90.0
  0
LINE
  5
315
100
AcDbEntity
  8
LAY-1
  6
CONTINUOUS
 62
     3
100
AcDbLine
 10
762.476725
 20
418.653363
 30
0.0
 11
762.476725
 21
457.746637
 31
0.0
  0
LINE
  5
316
100
AcDbEntity
  8
LAY-1
  6
CONTINUOUS
 62
     3
100
AcDbLine
 10
768.149779
 20
457.654778
 30
0.0
 11
768.149779
 21
418.653363
 31
0.0
  0
LINE
  5
317
100
AcDbEntity
  8
LAY-1
  6
CONTINUOUS
 62
     3
100
AcDbLine
 10
762.045671
 20
418.9
 30
0.0
 11
756.278571
 21
418.9
 31
0.0
  0
LINE
  5
318
100
AcDbEntity
  8
LAY-1
  6
CONTINUOUS
 62
     3
100
AcDbLine
 10
756.278571
 20
457.5
 30
0.0
 11
762.045671
 21
457.5
 31
0.0
  0
LINE
  5
319
100
AcDbEntity
  8
LAY-1
  6
CONTINUOUS
 62
     3
100
AcDbLine
 10
768.511472
 20
457.5
 30
0.0
 11
777.045671
 21
457.5
 31
0.0
  0
LINE
  5
31A
100
AcDbEntity
  8
LAY-1
  6
CONTINUOUS
 62
     3
100
AcDbLine
 10
777.045671
 20
418.9
 30
0.0
 11
768.511472
 21
418.9
 31
0.0
  0
LINE
  5
31B
100
AcDbEntity
  8
LAY-1
  6
CONTINUOUS
 62
     3
100
AcDbLine
 10
804.278571
 20
418.9
 30
0.0
 11
798.511472
 21
418.9
 31
0.0
  0
LINE
  5
31C
100
AcDbEntity
  8
LAY-1
  6
CONTINUOUS
 62
     3
100
AcDbLine
 10
798.511472
 20
457.5
 30
0.0
 11
804.278571
 21
457.5
 31
0.0
  0
LINE
  5
31D
100
AcDbEntity
  8
LAY-1
  6
CONTINUOUS
 62
     3
100
AcDbLine
 10
798.149779
 20
457.654778
 30
0.0
 11
798.149779
 21
418.653363
 31
0.0
  0
LINE
  5
31E
100
AcDbEntity
  8
LAY-1
  6
CONTINUOUS
 62
     3
100
AcDbLine
 10
792.476725
 20
418.653363
 30
0.0
 11
792.476725
 21
457.746637
 31
0.0
  0
ARC
  5
31F
100
AcDbEntity
  8
LAY-1
  6
CONTINUOUS
 62
     3
100
AcDbCircle
 10
792.045671
 20
418.4
 30
0.0
 40
0.5
100
AcDbArc
 50
30.446042
 51
90.0
  0
ARC
  5
320
100
AcDbEntity
  8
LAY-1
  6
CONTINUOUS
 62
     3
100
AcDbCircle
 10
795.278571
 20
420.300225
 30
0.0
 40
3.25
100
AcDbArc
 50
210.446042
 51
329.553958
  0
ARC
  5
321
100
AcDbEntity
  8
LAY-1
  6
CONTINUOUS
 62
     3
100
AcDbCircle
 10
798.511472
 20
418.4
 30
0.0
 40
0.5
100
AcDbArc
 50
90.0
 51
149.553958
  0
ARC
  5
322
100
AcDbEntity
  8
LAY-1
  6
CONTINUOUS
 62
     3
100
AcDbCircle
 10
798.511472
 20
458.0
 30
0.0
 40
0.5
100
AcDbArc
 50
210.446042
 51
270.0
  0
ARC
  5
323
100
AcDbEntity
  8
LAY-1
  6
CONTINUOUS
 62
     3
100
AcDbCircle
 10
795.278571
 20
456.099775
 30
0.0
 40
3.25
100
AcDbArc
 50
30.446042
 51
149.553958
  0
ARC
  5
324
100
AcDbEntity
  8
LAY-1
  6
CONTINUOUS
 62
     3
100
AcDbCircle
 10
792.045671
 20
458.0
 30
0.0
 40
0.5
100
AcDbArc
 50
270.0
 51
329.553958
  0
LINE
  5
325
100
AcDbEntity
  8
LAY-1
  6
CONTINUOUS
 62
     3
100
AcDbLine
 10
783.511472
 20
457.5
 30
0.0
 11
792.045671
 21
457.5
 31
0.0
  0
LINE
  5
326
100
AcDbEntity
  8
LAY-1
  6
CONTINUOUS
 62
     3
100
AcDbLine
 10
792.045671
 20
418.9
 30
0.0
 11
783.511472
 21
418.9
 31
0.0
  0
LINE
  5
327
100
AcDbEntity
  8
LAY-1
  6
EXLTYPE3
 62
     1
100
AcDbLine
 10
747.9
 20
438.2
 30
0.0
 11
812.9
 21
438.2
 31
0.0
  0
LINE
  5
328
100
AcDbEntity
  8
LAY-1
  6
CONTINUOUS
 62
     3
100
AcDbLine
 10
137.621429
 20
361.2
 30
0.0
 11
135.621429
 21
361.2
 31
0.0
  0
LINE
  5
329
100
AcDbEntity
  8
LAY-1
  6
CONTINUOUS
 62
     3
100
AcDbLine
 10
137.621429
 20
305.2
 30
0.0
 11
135.621429
 21
305.2
 31
0.0
  0
LINE
  5
32A
100
AcDbEntity
  8
LAY-1
  6
CONTINUOUS
 62
     3
100
AcDbLine
 10
139.121429
 20
357.45
 30
0.0
 11
137.621429
 21
357.45
 31
0.0
  0
LINE
  5
32B
100
AcDbEntity
  8
LAY-1
  6
CONTINUOUS
 62
     3
100
AcDbLine
 10
139.121429
 20
308.95
 30
0.0
 11
137.621429
 21
308.95
 31
0.0
  0
LINE
  5
32C
100
AcDbEntity
  8
LAY-1
  6
CONTINUOUS
 62
     3
100
AcDbLine
 10
139.121429
 20
357.45
 30
0.0
 11
139.121429
 21
308.95
 31
0.0
  0
LINE
  5
32D
100
AcDbEntity
  8
LAY-1
  6
CONTINUOUS
 62
     3
100
AcDbLine
 10
137.621429
 20
361.2
 30
0.0
 11
137.621429
 21
305.2
 31
0.0
  0
LINE
  5
32E
100
AcDbEntity
  8
LAY-1
  6
CONTINUOUS
 62
     3
100
AcDbLine
 10
135.621429
 20
361.2
 30
0.0
 11
135.621429
 21
305.2
 31
0.0
  0
LINE
  5
32F
100
AcDbEntity
  8
LAY-1
  6
CONTINUOUS
 62
     3
100
AcDbLine
 10
85.621429
 20
361.2
 30
0.0
 11
87.621429
 21
361.2
 31
0.0
  0
LINE
  5
330
100
AcDbEntity
  8
LAY-1
  6
CONTINUOUS
 62
     3
100
AcDbLine
 10
85.621429
 20
305.2
 30
0.0
 11
87.621429
 21
305.2
 31
0.0
  0
LINE
  5
331
100
AcDbEntity
  8
LAY-1
  6
CONTINUOUS
 62
     3
100
AcDbLine
 10
84.121429
 20
357.45
 30
0.0
 11
85.621429
 21
357.45
 31
0.0
  0
LINE
  5
332
100
AcDbEntity
  8
LAY-1
  6
CONTINUOUS
 62
     3
100
AcDbLine
 10
84.121429
 20
308.95
 30
0.0
 11
85.621429
 21
308.95
 31
0.0
  0
LINE
  5
333
100
AcDbEntity
  8
LAY-1
  6
CONTINUOUS
 62
     3
100
AcDbLine
 10
84.121429
 20
357.45
 30
0.0
 11
84.121429
 21
308.95
 31
0.0
  0
LINE
  5
334
100
AcDbEntity
  8
LAY-1
  6
CONTINUOUS
 62
     3
100
AcDbLine
 10
85.621429
 20
361.2
 30
0.0
 11
85.621429
 21
305.2
 31
0.0
  0
LINE
  5
335
100
AcDbEntity
  8
LAY-1
  6
CONTINUOUS
 62
     3
100
AcDbLine
 10
87.621429
 20
361.2
 30
0.0
 11
87.621429
 21
305.2
 31
0.0
  0
ARC
  5
336
100
AcDbEntity
  8
LAY-1
  6
CONTINUOUS
 62
     3
100
AcDbCircle
 10
93.388528
 20
356.95
 30
0.0
 40
0.5
100
AcDbArc
 50
270.0
 51
329.553958
  0
ARC
  5
337
100
AcDbEntity
  8
LAY-1
  6
CONTINUOUS
 62
     3
100
AcDbCircle
 10
96.621429
 20
355.049775
 30
0.0
 40
3.25
100
AcDbArc
 50
30.446042
 51
149.553958
  0
ARC
  5
338
100
AcDbEntity
  8
LAY-1
  6
CONTINUOUS
 62
     3
100
AcDbCircle
 10
99.854329
 20
356.95
 30
0.0
 40
0.5
100
AcDbArc
 50
210.446042
 51
270.0
  0
ARC
  5
339
100
AcDbEntity
  8
LAY-1
  6
CONTINUOUS
 62
     3
100
AcDbCircle
 10
99.854329
 20
309.45
 30
0.0
 40
0.5
100
AcDbArc
 50
90.0
 51
149.553958
  0
ARC
  5
33A
100
AcDbEntity
  8
LAY-1
  6
CONTINUOUS
 62
     3
100
AcDbCircle
 10
96.621429
 20
311.350225
 30
0.0
 40
3.25
100
AcDbArc
 50
210.446042
 51
329.553958
  0
ARC
  5
33B
100
AcDbEntity
  8
LAY-1
  6
CONTINUOUS
 62
     3
100
AcDbCircle
 10
93.388528
 20
309.45
 30
0.0
 40
0.5
100
AcDbArc
 50
30.446042
 51
90.0
  0
LINE
  5
33C
100
AcDbEntity
  8
LAY-1
  6
CONTINUOUS
 62
     3
100
AcDbLine
 10
93.819582
 20
309.703363
 30
0.0
 11
93.819582
 21
356.696637
 31
0.0
  0
LINE
  5
33D
100
AcDbEntity
  8
LAY-1
  6
CONTINUOUS
 62
     3
100
AcDbLine
 10
99.492636
 20
356.604778
 30
0.0
 11
99.492636
 21
309.703363
 31
0.0
  0
LINE
  5
33E
100
AcDbEntity
  8
LAY-1
  6
CONTINUOUS
 62
     3
100
AcDbLine
 10
87.621429
 20
356.45
 30
0.0
 11
93.388528
 21
356.45
 31
0.0
  0
LINE
  5
33F
100
AcDbEntity
  8
LAY-1
  6
CONTINUOUS
 62
     3
100
AcDbLine
 10
93.388528
 20
309.95
 30
0.0
 11
87.621429
 21
309.95
 31
0.0
  0
ARC
  5
340
100
AcDbEntity
  8
LAY-1
  6
CONTINUOUS
 62
     3
100
AcDbCircle
 10
123.388528
 20
356.95
 30
0.0
 40
0.5
100
AcDbArc
 50
270.0
 51
329.553958
  0
ARC
  5
341
100
AcDbEntity
  8
LAY-1
  6
CONTINUOUS
 62
     3
100
AcDbCircle
 10
126.621429
 20
355.049775
 30
0.0
 40
3.25
100
AcDbArc
 50
30.446042
 51
149.553958
  0
ARC
  5
342
100
AcDbEntity
  8
LAY-1
  6
CONTINUOUS
 62
     3
100
AcDbCircle
 10
129.854329
 20
356.95
 30
0.0
 40
0.5
100
AcDbArc
 50
210.446042
 51
270.0
  0
ARC
  5
343
100
AcDbEntity
  8
LAY-1
  6
CONTINUOUS
 62
     3
100
AcDbCircle
 10
129.854329
 20
309.45
 30
0.0
 40
0.5
100
AcDbArc
 50
90.0
 51
149.553958
  0
ARC
  5
344
100
AcDbEntity
  8
LAY-1
  6
CONTINUOUS
 62
     3
100
AcDbCircle
 10
126.621429
 20
311.350225
 30
0.0
 40
3.25
100
AcDbArc
 50
210.446042
 51
329.553958
  0
ARC
  5
345
100
AcDbEntity
  8
LAY-1
  6
CONTINUOUS
 62
     3
100
AcDbCircle
 10
123.388528
 20
309.45
 30
0.0
 40
0.5
100
AcDbArc
 50
30.446042
 51
90.0
  0
LINE
  5
346
100
AcDbEntity
  8
LAY-1
  6
CONTINUOUS
 62
     3
100
AcDbLine
 10
123.819582
 20
309.703363
 30
0.0
 11
123.819582
 21
356.696637
 31
0.0
  0
LINE
  5
347
100
AcDbEntity
  8
LAY-1
  6
CONTINUOUS
 62
     3
100
AcDbLine
 10
129.492636
 20
356.604778
 30
0.0
 11
129.492636
 21
309.703363
 31
0.0
  0
LINE
  5
348
100
AcDbEntity
  8
LAY-1
  6
CONTINUOUS
 62
     3
100
AcDbLine
 10
129.854329
 20
356.45
 30
0.0
 11
135.621429
 21
356.45
 31
0.0
  0
LINE
  5
349
100
AcDbEntity
  8
LAY-1
  6
CONTINUOUS
 62
     3
100
AcDbLine
 10
135.621429
 20
309.95
 30
0.0
 11
129.854329
 21
309.95
 31
0.0
  0
LINE
  5
34A
100
AcDbEntity
  8
LAY-1
  6
EXLTYPE3
 62
     1
100
AcDbLine
 10
143.4
 20
333.2
 30
0.0
 11
78.4
 21
333.2
 31
0.0
  0
ARC
  5
34B
100
AcDbEntity
  8
LAY-1
  6
CONTINUOUS
 62
     3
100
AcDbCircle
 10
108.388528
 20
356.95
 30
0.0
 40
0.5
100
AcDbArc
 50
270.0
 51
329.553958
  0
ARC
  5
34C
100
AcDbEntity
  8
LAY-1
  6
CONTINUOUS
 62
     3
100
AcDbCircle
 10
111.621429
 20
355.049775
 30
0.0
 40
3.25
100
AcDbArc
 50
30.446042
 51
149.553958
  0
ARC
  5
34D
100
AcDbEntity
  8
LAY-1
  6
CONTINUOUS
 62
     3
100
AcDbCircle
 10
114.854329
 20
356.95
 30
0.0
 40
0.5
100
AcDbArc
 50
210.446042
 51
270.0
  0
ARC
  5
34E
100
AcDbEntity
  8
LAY-1
  6
CONTINUOUS
 62
     3
100
AcDbCircle
 10
114.854329
 20
309.45
 30
0.0
 40
0.5
100
AcDbArc
 50
90.0
 51
149.553958
  0
ARC
  5
34F
100
AcDbEntity
  8
LAY-1
  6
CONTINUOUS
 62
     3
100
AcDbCircle
 10
111.621429
 20
311.350225
 30
0.0
 40
3.25
100
AcDbArc
 50
210.446042
 51
329.553958
  0
ARC
  5
350
100
AcDbEntity
  8
LAY-1
  6
CONTINUOUS
 62
     3
100
AcDbCircle
 10
108.388528
 20
309.45
 30
0.0
 40
0.5
100
AcDbArc
 50
30.446042
 51
90.0
  0
LINE
  5
351
100
AcDbEntity
  8
LAY-1
  6
CONTINUOUS
 62
     3
100
AcDbLine
 10
108.819582
 20
309.703363
 30
0.0
 11
108.819582
 21
356.696637
 31
0.0
  0
LINE
  5
352
100
AcDbEntity
  8
LAY-1
  6
CONTINUOUS
 62
     3
100
AcDbLine
 10
114.492636
 20
356.604778
 30
0.0
 11
114.492636
 21
309.703363
 31
0.0
  0
LINE
  5
353
100
AcDbEntity
  8
LAY-1
  6
CONTINUOUS
 62
     3
100
AcDbLine
 10
99.854329
 20
356.45
 30
0.0
 11
108.388528
 21
356.45
 31
0.0
  0
LINE
  5
354
100
AcDbEntity
  8
LAY-1
  6
CONTINUOUS
 62
     3
100
AcDbLine
 10
114.854329
 20
356.45
 30
0.0
 11
123.388528
 21
356.45
 31
0.0
  0
LINE
  5
355
100
AcDbEntity
  8
LAY-1
  6
CONTINUOUS
 62
     3
100
AcDbLine
 10
123.388528
 20
309.95
 30
0.0
 11
114.854329
 21
309.95
 31
0.0
  0
LINE
  5
356
100
AcDbEntity
  8
LAY-1
  6
CONTINUOUS
 62
     3
100
AcDbLine
 10
108.388528
 20
309.95
 30
0.0
 11
99.854329
 21
309.95
 31
0.0
  0
LINE
  5
357
100
AcDbEntity
  8
LAY-1
  6
CONTINUOUS
 62
     3
100
AcDbLine
 10
249.064286
 20
364.2
 30
0.0
 11
246.864286
 21
364.2
 31
0.0
  0
LINE
  5
358
100
AcDbEntity
  8
LAY-1
  6
CONTINUOUS
 62
     3
100
AcDbLine
 10
249.064286
 20
302.2
 30
0.0
 11
246.864286
 21
302.2
 31
0.0
  0
LINE
  5
359
100
AcDbEntity
  8
LAY-1
  6
CONTINUOUS
 62
     3
100
AcDbLine
 10
250.564286
 20
359.95
 30
0.0
 11
249.064286
 21
359.95
 31
0.0
  0
LINE
  5
35A
100
AcDbEntity
  8
LAY-1
  6
CONTINUOUS
 62
     3
100
AcDbLine
 10
250.564286
 20
306.45
 30
0.0
 11
249.064286
 21
306.45
 31
0.0
  0
LINE
  5
35B
100
AcDbEntity
  8
LAY-1
  6
CONTINUOUS
 62
     3
100
AcDbLine
 10
250.564286
 20
359.95
 30
0.0
 11
250.564286
 21
306.45
 31
0.0
  0
LINE
  5
35C
100
AcDbEntity
  8
LAY-1
  6
CONTINUOUS
 62
     3
100
AcDbLine
 10
249.064286
 20
364.2
 30
0.0
 11
249.064286
 21
302.2
 31
0.0
  0
LINE
  5
35D
100
AcDbEntity
  8
LAY-1
  6
CONTINUOUS
 62
     3
100
AcDbLine
 10
246.864286
 20
364.2
 30
0.0
 11
246.864286
 21
302.2
 31
0.0
  0
LINE
  5
35E
100
AcDbEntity
  8
LAY-1
  6
CONTINUOUS
 62
     3
100
AcDbLine
 10
197.064286
 20
364.2
 30
0.0
 11
199.264286
 21
364.2
 31
0.0
  0
LINE
  5
35F
100
AcDbEntity
  8
LAY-1
  6
CONTINUOUS
 62
     3
100
AcDbLine
 10
197.064286
 20
302.2
 30
0.0
 11
199.264286
 21
302.2
 31
0.0
  0
LINE
  5
360
100
AcDbEntity
  8
LAY-1
  6
CONTINUOUS
 62
     3
100
AcDbLine
 10
195.564286
 20
359.95
 30
0.0
 11
197.064286
 21
359.95
 31
0.0
  0
LINE
  5
361
100
AcDbEntity
  8
LAY-1
  6
CONTINUOUS
 62
     3
100
AcDbLine
 10
195.564286
 20
306.45
 30
0.0
 11
197.064286
 21
306.45
 31
0.0
  0
LINE
  5
362
100
AcDbEntity
  8
LAY-1
  6
CONTINUOUS
 62
     3
100
AcDbLine
 10
195.564286
 20
359.95
 30
0.0
 11
195.564286
 21
306.45
 31
0.0
  0
LINE
  5
363
100
AcDbEntity
  8
LAY-1
  6
CONTINUOUS
 62
     3
100
AcDbLine
 10
197.064286
 20
364.2
 30
0.0
 11
197.064286
 21
302.2
 31
0.0
  0
LINE
  5
364
100
AcDbEntity
  8
LAY-1
  6
CONTINUOUS
 62
     3
100
AcDbLine
 10
199.264286
 20
364.2
 30
0.0
 11
199.264286
 21
302.2
 31
0.0
  0
ARC
  5
365
100
AcDbEntity
  8
LAY-1
  6
CONTINUOUS
 62
     3
100
AcDbCircle
 10
204.831385
 20
359.45
 30
0.0
 40
0.5
100
AcDbArc
 50
270.0
 51
329.553958
  0
ARC
  5
366
100
AcDbEntity
  8
LAY-1
  6
CONTINUOUS
 62
     3
100
AcDbCircle
 10
208.064286
 20
357.549775
 30
0.0
 40
3.25
100
AcDbArc
 50
30.446042
 51
149.553958
  0
ARC
  5
367
100
AcDbEntity
  8
LAY-1
  6
CONTINUOUS
 62
     3
100
AcDbCircle
 10
211.297186
 20
359.45
 30
0.0
 40
0.5
100
AcDbArc
 50
210.446042
 51
270.0
  0
ARC
  5
368
100
AcDbEntity
  8
LAY-1
  6
CONTINUOUS
 62
     3
100
AcDbCircle
 10
211.297186
 20
306.95
 30
0.0
 40
0.5
100
AcDbArc
 50
90.0
 51
149.553958
  0
ARC
  5
369
100
AcDbEntity
  8
LAY-1
  6
CONTINUOUS
 62
     3
100
AcDbCircle
 10
208.064286
 20
308.850225
 30
0.0
 40
3.25
100
AcDbArc
 50
210.446042
 51
329.553958
  0
ARC
  5
36A
100
AcDbEntity
  8
LAY-1
  6
CONTINUOUS
 62
     3
100
AcDbCircle
 10
204.831385
 20
306.95
 30
0.0
 40
0.5
100
AcDbArc
 50
30.446042
 51
90.0
  0
LINE
  5
36B
100
AcDbEntity
  8
LAY-1
  6
CONTINUOUS
 62
     3
100
AcDbLine
 10
205.262439
 20
307.203363
 30
0.0
 11
205.262439
 21
359.196637
 31
0.0
  0
LINE
  5
36C
100
AcDbEntity
  8
LAY-1
  6
CONTINUOUS
 62
     3
100
AcDbLine
 10
210.935493
 20
359.104778
 30
0.0
 11
210.935493
 21
307.203363
 31
0.0
  0
LINE
  5
36D
100
AcDbEntity
  8
LAY-1
  6
CONTINUOUS
 62
     3
100
AcDbLine
 10
199.264286
 20
358.95
 30
0.0
 11
204.831385
 21
358.95
 31
0.0
  0
LINE
  5
36E
100
AcDbEntity
  8
LAY-1
  6
CONTINUOUS
 62
     3
100
AcDbLine
 10
204.831385
 20
307.45
 30
0.0
 11
199.264286
 21
307.45
 31
0.0
  0
ARC
  5
36F
100
AcDbEntity
  8
LAY-1
  6
CONTINUOUS
 62
     3
100
AcDbCircle
 10
234.831385
 20
359.45
 30
0.0
 40
0.5
100
AcDbArc
 50
270.0
 51
329.553958
  0
ARC
  5
370
100
AcDbEntity
  8
LAY-1
  6
CONTINUOUS
 62
     3
100
AcDbCircle
 10
238.064286
 20
357.549775
 30
0.0
 40
3.25
100
AcDbArc
 50
30.446042
 51
149.553958
  0
ARC
  5
371
100
AcDbEntity
  8
LAY-1
  6
CONTINUOUS
 62
     3
100
AcDbCircle
 10
241.297186
 20
359.45
 30
0.0
 40
0.5
100
AcDbArc
 50
210.446042
 51
270.0
  0
ARC
  5
372
100
AcDbEntity
  8
LAY-1
  6
CONTINUOUS
 62
     3
100
AcDbCircle
 10
241.297186
 20
306.95
 30
0.0
 40
0.5
100
AcDbArc
 50
90.0
 51
149.553958
  0
ARC
  5
373
100
AcDbEntity
  8
LAY-1
  6
CONTINUOUS
 62
     3
100
AcDbCircle
 10
238.064286
 20
308.850225
 30
0.0
 40
3.25
100
AcDbArc
 50
210.446042
 51
329.553958
  0
ARC
  5
374
100
AcDbEntity
  8
LAY-1
  6
CONTINUOUS
 62
     3
100
AcDbCircle
 10
234.831385
 20
306.95
 30
0.0
 40
0.5
100
AcDbArc
 50
30.446042
 51
90.0
  0
LINE
  5
375
100
AcDbEntity
  8
LAY-1
  6
CONTINUOUS
 62
     3
100
AcDbLine
 10
235.262439
 20
307.203363
 30
0.0
 11
235.262439
 21
359.196637
 31
0.0
  0
LINE
  5
376
100
AcDbEntity
  8
LAY-1
  6
CONTINUOUS
 62
     3
100
AcDbLine
 10
240.935493
 20
359.104778
 30
0.0
 11
240.935493
 21
307.203363
 31
0.0
  0
LINE
  5
377
100
AcDbEntity
  8
LAY-1
  6
CONTINUOUS
 62
     3
100
AcDbLine
 10
241.297186
 20
358.95
 30
0.0
 11
246.864286
 21
358.95
 31
0.0
  0
LINE
  5
378
100
AcDbEntity
  8
LAY-1
  6
CONTINUOUS
 62
     3
100
AcDbLine
 10
246.864286
 20
307.45
 30
0.0
 11
241.297186
 21
307.45
 31
0.0
  0
LINE
  5
379
100
AcDbEntity
  8
LAY-1
  6
EXLTYPE3
 62
     1
100
AcDbLine
 10
255.4
 20
333.2
 30
0.0
 11
190.1
 21
333.2
 31
0.0
  0
ARC
  5
37A
100
AcDbEntity
  8
LAY-1
  6
CONTINUOUS
 62
     3
100
AcDbCircle
 10
219.831385
 20
359.45
 30
0.0
 40
0.5
100
AcDbArc
 50
270.0
 51
329.553958
  0
ARC
  5
37B
100
AcDbEntity
  8
LAY-1
  6
CONTINUOUS
 62
     3
100
AcDbCircle
 10
223.064286
 20
357.549775
 30
0.0
 40
3.25
100
AcDbArc
 50
30.446042
 51
149.553958
  0
ARC
  5
37C
100
AcDbEntity
  8
LAY-1
  6
CONTINUOUS
 62
     3
100
AcDbCircle
 10
226.297186
 20
359.45
 30
0.0
 40
0.5
100
AcDbArc
 50
210.446042
 51
270.0
  0
ARC
  5
37D
100
AcDbEntity
  8
LAY-1
  6
CONTINUOUS
 62
     3
100
AcDbCircle
 10
226.297186
 20
306.95
 30
0.0
 40
0.5
100
AcDbArc
 50
90.0
 51
149.553958
  0
ARC
  5
37E
100
AcDbEntity
  8
LAY-1
  6
CONTINUOUS
 62
     3
100
AcDbCircle
 10
223.064286
 20
308.850225
 30
0.0
 40
3.25
100
AcDbArc
 50
210.446042
 51
329.553958
  0
ARC
  5
37F
100
AcDbEntity
  8
LAY-1
  6
CONTINUOUS
 62
     3
100
AcDbCircle
 10
219.831385
 20
306.95
 30
0.0
 40
0.5
100
AcDbArc
 50
30.446042
 51
90.0
  0
LINE
  5
380
100
AcDbEntity
  8
LAY-1
  6
CONTINUOUS
 62
     3
100
AcDbLine
 10
220.262439
 20
307.203363
 30
0.0
 11
220.262439
 21
359.196637
 31
0.0
  0
LINE
  5
381
100
AcDbEntity
  8
LAY-1
  6
CONTINUOUS
 62
     3
100
AcDbLine
 10
225.935493
 20
359.104778
 30
0.0
 11
225.935493
 21
307.203363
 31
0.0
  0
LINE
  5
382
100
AcDbEntity
  8
LAY-1
  6
CONTINUOUS
 62
     3
100
AcDbLine
 10
211.297186
 20
358.95
 30
0.0
 11
219.831385
 21
358.95
 31
0.0
  0
LINE
  5
383
100
AcDbEntity
  8
LAY-1
  6
CONTINUOUS
 62
     3
100
AcDbLine
 10
226.297186
 20
358.95
 30
0.0
 11
234.831385
 21
358.95
 31
0.0
  0
LINE
  5
384
100
AcDbEntity
  8
LAY-1
  6
CONTINUOUS
 62
     3
100
AcDbLine
 10
234.831385
 20
307.45
 30
0.0
 11
226.297186
 21
307.45
 31
0.0
  0
LINE
  5
385
100
AcDbEntity
  8
LAY-1
  6
CONTINUOUS
 62
     3
100
AcDbLine
 10
219.831385
 20
307.45
 30
0.0
 11
211.297186
 21
307.45
 31
0.0
  0
LINE
  5
386
100
AcDbEntity
  8
LAY-1
  6
CONTINUOUS
 62
     3
100
AcDbLine
 10
360.507143
 20
366.95
 30
0.0
 11
358.307143
 21
366.95
 31
0.0
  0
LINE
  5
387
100
AcDbEntity
  8
LAY-1
  6
CONTINUOUS
 62
     3
100
AcDbLine
 10
360.507143
 20
299.45
 30
0.0
 11
358.307143
 21
299.45
 31
0.0
  0
LINE
  5
388
100
AcDbEntity
  8
LAY-1
  6
CONTINUOUS
 62
     3
100
AcDbLine
 10
362.007143
 20
362.45
 30
0.0
 11
360.507143
 21
362.45
 31
0.0
  0
LINE
  5
389
100
AcDbEntity
  8
LAY-1
  6
CONTINUOUS
 62
     3
100
AcDbLine
 10
362.007143
 20
303.95
 30
0.0
 11
360.507143
 21
303.95
 31
0.0
  0
LINE
  5
38A
100
AcDbEntity
  8
LAY-1
  6
CONTINUOUS
 62
     3
100
AcDbLine
 10
362.007143
 20
362.45
 30
0.0
 11
362.007143
 21
303.95
 31
0.0
  0
LINE
  5
38B
100
AcDbEntity
  8
LAY-1
  6
CONTINUOUS
 62
     3
100
AcDbLine
 10
360.507143
 20
366.95
 30
0.0
 11
360.507143
 21
299.45
 31
0.0
  0
LINE
  5
38C
100
AcDbEntity
  8
LAY-1
  6
CONTINUOUS
 62
     3
100
AcDbLine
 10
358.307143
 20
366.95
 30
0.0
 11
358.307143
 21
299.45
 31
0.0
  0
LINE
  5
38D
100
AcDbEntity
  8
LAY-1
  6
CONTINUOUS
 62
     3
100
AcDbLine
 10
308.507143
 20
366.95
 30
0.0
 11
310.707143
 21
366.95
 31
0.0
  0
LINE
  5
38E
100
AcDbEntity
  8
LAY-1
  6
CONTINUOUS
 62
     3
100
AcDbLine
 10
308.507143
 20
299.45
 30
0.0
 11
310.707143
 21
299.45
 31
0.0
  0
LINE
  5
38F
100
AcDbEntity
  8
LAY-1
  6
CONTINUOUS
 62
     3
100
AcDbLine
 10
307.007143
 20
362.45
 30
0.0
 11
308.507143
 21
362.45
 31
0.0
  0
LINE
  5
390
100
AcDbEntity
  8
LAY-1
  6
CONTINUOUS
 62
     3
100
AcDbLine
 10
307.007143
 20
303.95
 30
0.0
 11
308.507143
 21
303.95
 31
0.0
  0
LINE
  5
391
100
AcDbEntity
  8
LAY-1
  6
CONTINUOUS
 62
     3
100
AcDbLine
 10
307.007143
 20
362.45
 30
0.0
 11
307.007143
 21
303.95
 31
0.0
  0
LINE
  5
392
100
AcDbEntity
  8
LAY-1
  6
CONTINUOUS
 62
     3
100
AcDbLine
 10
308.507143
 20
366.95
 30
0.0
 11
308.507143
 21
299.45
 31
0.0
  0
LINE
  5
393
100
AcDbEntity
  8
LAY-1
  6
CONTINUOUS
 62
     3
100
AcDbLine
 10
310.707143
 20
366.95
 30
0.0
 11
310.707143
 21
299.45
 31
0.0
  0
ARC
  5
394
100
AcDbEntity
  8
LAY-1
  6
CONTINUOUS
 62
     3
100
AcDbCircle
 10
316.274243
 20
361.95
 30
0.0
 40
0.5
100
AcDbArc
 50
270.0
 51
329.553958
  0
ARC
  5
395
100
AcDbEntity
  8
LAY-1
  6
CONTINUOUS
 62
     3
100
AcDbCircle
 10
319.507143
 20
360.049775
 30
0.0
 40
3.25
100
AcDbArc
 50
30.446042
 51
149.553958
  0
ARC
  5
396
100
AcDbEntity
  8
LAY-1
  6
CONTINUOUS
 62
     3
100
AcDbCircle
 10
322.740043
 20
361.95
 30
0.0
 40
0.5
100
AcDbArc
 50
210.446042
 51
270.0
  0
ARC
  5
397
100
AcDbEntity
  8
LAY-1
  6
CONTINUOUS
 62
     3
100
AcDbCircle
 10
322.740043
 20
304.45
 30
0.0
 40
0.5
100
AcDbArc
 50
90.0
 51
149.553958
  0
ARC
  5
398
100
AcDbEntity
  8
LAY-1
  6
CONTINUOUS
 62
     3
100
AcDbCircle
 10
319.507143
 20
306.350225
 30
0.0
 40
3.25
100
AcDbArc
 50
210.446042
 51
329.553958
  0
ARC
  5
399
100
AcDbEntity
  8
LAY-1
  6
CONTINUOUS
 62
     3
100
AcDbCircle
 10
316.274243
 20
304.45
 30
0.0
 40
0.5
100
AcDbArc
 50
30.446042
 51
90.0
  0
LINE
  5
39A
100
AcDbEntity
  8
LAY-1
  6
CONTINUOUS
 62
     3
100
AcDbLine
 10
316.705296
 20
304.703363
 30
0.0
 11
316.705296
 21
361.696637
 31
0.0
  0
LINE
  5
39B
100
AcDbEntity
  8
LAY-1
  6
CONTINUOUS
 62
     3
100
AcDbLine
 10
322.378351
 20
361.604778
 30
0.0
 11
322.378351
 21
304.703363
 31
0.0
  0
LINE
  5
39C
100
AcDbEntity
  8
LAY-1
  6
CONTINUOUS
 62
     3
100
AcDbLine
 10
316.274243
 20
304.95
 30
0.0
 11
310.707143
 21
304.95
 31
0.0
  0
LINE
  5
39D
100
AcDbEntity
  8
LAY-1
  6
CONTINUOUS
 62
     3
100
AcDbLine
 10
310.707143
 20
361.45
 30
0.0
 11
316.274243
 21
361.45
 31
0.0
  0
ARC
  5
39E
100
AcDbEntity
  8
LAY-1
  6
CONTINUOUS
 62
     3
100
AcDbCircle
 10
346.274243
 20
361.95
 30
0.0
 40
0.5
100
AcDbArc
 50
270.0
 51
329.553958
  0
ARC
  5
39F
100
AcDbEntity
  8
LAY-1
  6
CONTINUOUS
 62
     3
100
AcDbCircle
 10
349.507143
 20
360.049775
 30
0.0
 40
3.25
100
AcDbArc
 50
30.446042
 51
149.553958
  0
ARC
  5
3A0
100
AcDbEntity
  8
LAY-1
  6
CONTINUOUS
 62
     3
100
AcDbCircle
 10
352.740043
 20
361.95
 30
0.0
 40
0.5
100
AcDbArc
 50
210.446042
 51
270.0
  0
ARC
  5
3A1
100
AcDbEntity
  8
LAY-1
  6
CONTINUOUS
 62
     3
100
AcDbCircle
 10
352.740043
 20
304.45
 30
0.0
 40
0.5
100
AcDbArc
 50
90.0
 51
149.553958
  0
ARC
  5
3A2
100
AcDbEntity
  8
LAY-1
  6
CONTINUOUS
 62
     3
100
AcDbCircle
 10
349.507143
 20
306.350225
 30
0.0
 40
3.25
100
AcDbArc
 50
210.446042
 51
329.553958
  0
ARC
  5
3A3
100
AcDbEntity
  8
LAY-1
  6
CONTINUOUS
 62
     3
100
AcDbCircle
 10
346.274243
 20
304.45
 30
0.0
 40
0.5
100
AcDbArc
 50
30.446042
 51
90.0
  0
LINE
  5
3A4
100
AcDbEntity
  8
LAY-1
  6
CONTINUOUS
 62
     3
100
AcDbLine
 10
346.705296
 20
304.703363
 30
0.0
 11
346.705296
 21
361.696637
 31
0.0
  0
LINE
  5
3A5
100
AcDbEntity
  8
LAY-1
  6
CONTINUOUS
 62
     3
100
AcDbLine
 10
352.378351
 20
361.604778
 30
0.0
 11
352.378351
 21
304.703363
 31
0.0
  0
LINE
  5
3A6
100
AcDbEntity
  8
LAY-1
  6
CONTINUOUS
 62
     3
100
AcDbLine
 10
358.307143
 20
304.95
 30
0.0
 11
352.740043
 21
304.95
 31
0.0
  0
LINE
  5
3A7
100
AcDbEntity
  8
LAY-1
  6
CONTINUOUS
 62
     3
100
AcDbLine
 10
352.740043
 20
361.45
 30
0.0
 11
358.307143
 21
361.45
 31
0.0
  0
LINE
  5
3A8
100
AcDbEntity
  8
LAY-1
  6
EXLTYPE3
 62
     1
100
AcDbLine
 10
366.6
 20
333.2
 30
0.0
 11
302.8
 21
333.2
 31
0.0
  0
ARC
  5
3A9
100
AcDbEntity
  8
LAY-1
  6
CONTINUOUS
 62
     3
100
AcDbCircle
 10
331.274243
 20
361.95
 30
0.0
 40
0.5
100
AcDbArc
 50
270.0
 51
329.553958
  0
ARC
  5
3AA
100
AcDbEntity
  8
LAY-1
  6
CONTINUOUS
 62
     3
100
AcDbCircle
 10
334.507143
 20
360.049775
 30
0.0
 40
3.25
100
AcDbArc
 50
30.446042
 51
149.553958
  0
ARC
  5
3AB
100
AcDbEntity
  8
LAY-1
  6
CONTINUOUS
 62
     3
100
AcDbCircle
 10
337.740043
 20
361.95
 30
0.0
 40
0.5
100
AcDbArc
 50
210.446042
 51
270.0
  0
ARC
  5
3AC
100
AcDbEntity
  8
LAY-1
  6
CONTINUOUS
 62
     3
100
AcDbCircle
 10
337.740043
 20
304.45
 30
0.0
 40
0.5
100
AcDbArc
 50
90.0
 51
149.553958
  0
ARC
  5
3AD
100
AcDbEntity
  8
LAY-1
  6
CONTINUOUS
 62
     3
100
AcDbCircle
 10
334.507143
 20
306.350225
 30
0.0
 40
3.25
100
AcDbArc
 50
210.446042
 51
329.553958
  0
ARC
  5
3AE
100
AcDbEntity
  8
LAY-1
  6
CONTINUOUS
 62
     3
100
AcDbCircle
 10
331.274243
 20
304.45
 30
0.0
 40
0.5
100
AcDbArc
 50
30.446042
 51
90.0
  0
LINE
  5
3AF
100
AcDbEntity
  8
LAY-1
  6
CONTINUOUS
 62
     3
100
AcDbLine
 10
331.705296
 20
304.703363
 30
0.0
 11
331.705296
 21
361.696637
 31
0.0
  0
LINE
  5
3B0
100
AcDbEntity
  8
LAY-1
  6
CONTINUOUS
 62
     3
100
AcDbLine
 10
337.378351
 20
361.604778
 30
0.0
 11
337.378351
 21
304.703363
 31
0.0
  0
LINE
  5
3B1
100
AcDbEntity
  8
LAY-1
  6
CONTINUOUS
 62
     3
100
AcDbLine
 10
322.740043
 20
361.45
 30
0.0
 11
331.274243
 21
361.45
 31
0.0
  0
LINE
  5
3B2
100
AcDbEntity
  8
LAY-1
  6
CONTINUOUS
 62
     3
100
AcDbLine
 10
337.740043
 20
361.45
 30
0.0
 11
346.274243
 21
361.45
 31
0.0
  0
LINE
  5
3B3
100
AcDbEntity
  8
LAY-1
  6
CONTINUOUS
 62
     3
100
AcDbLine
 10
346.274243
 20
304.95
 30
0.0
 11
337.740043
 21
304.95
 31
0.0
  0
LINE
  5
3B4
100
AcDbEntity
  8
LAY-1
  6
CONTINUOUS
 62
     3
100
AcDbLine
 10
331.274243
 20
304.95
 30
0.0
 11
322.740043
 21
304.95
 31
0.0
  0
LINE
  5
3B5
100
AcDbEntity
  8
LAY-1
  6
CONTINUOUS
 62
     3
100
AcDbLine
 10
422.85
 20
372.95
 30
0.0
 11
422.85
 21
293.45
 31
0.0
  0
LINE
  5
3B6
100
AcDbEntity
  8
LAY-1
  6
CONTINUOUS
 62
     3
100
AcDbLine
 10
420.45
 20
372.95
 30
0.0
 11
420.45
 21
293.45
 31
0.0
  0
LINE
  5
3B7
100
AcDbEntity
  8
LAY-1
  6
CONTINUOUS
 62
     3
100
AcDbLine
 10
418.45
 20
367.45
 30
0.0
 11
418.45
 21
298.95
 31
0.0
  0
LINE
  5
3B8
100
AcDbEntity
  8
LAY-1
  6
CONTINUOUS
 62
     3
100
AcDbLine
 10
418.45
 20
298.95
 30
0.0
 11
420.45
 21
298.95
 31
0.0
  0
LINE
  5
3B9
100
AcDbEntity
  8
LAY-1
  6
CONTINUOUS
 62
     3
100
AcDbLine
 10
418.45
 20
367.45
 30
0.0
 11
420.45
 21
367.45
 31
0.0
  0
LINE
  5
3BA
100
AcDbEntity
  8
LAY-1
  6
CONTINUOUS
 62
     3
100
AcDbLine
 10
420.45
 20
372.95
 30
0.0
 11
422.85
 21
372.95
 31
0.0
  0
LINE
  5
3BB
100
AcDbEntity
  8
LAY-1
  6
CONTINUOUS
 62
     3
100
AcDbLine
 10
420.45
 20
293.45
 30
0.0
 11
422.85
 21
293.45
 31
0.0
  0
ARC
  5
3BC
100
AcDbEntity
  8
LAY-1
  6
CONTINUOUS
 62
     3
100
AcDbCircle
 10
427.7171
 20
366.2
 30
0.0
 40
0.5
100
AcDbArc
 50
270.0
 51
329.553958
  0
ARC
  5
3BD
100
AcDbEntity
  8
LAY-1
  6
CONTINUOUS
 62
     3
100
AcDbCircle
 10
430.95
 20
364.299775
 30
0.0
 40
3.25
100
AcDbArc
 50
30.446042
 51
149.553958
  0
ARC
  5
3BE
100
AcDbEntity
  8
LAY-1
  6
CONTINUOUS
 62
     3
100
AcDbCircle
 10
434.1829
 20
366.2
 30
0.0
 40
0.5
100
AcDbArc
 50
210.446042
 51
270.0
  0
ARC
  5
3BF
100
AcDbEntity
  8
LAY-1
  6
CONTINUOUS
 62
     3
100
AcDbCircle
 10
434.1829
 20
300.2
 30
0.0
 40
0.5
100
AcDbArc
 50
90.0
 51
149.553958
  0
ARC
  5
3C0
100
AcDbEntity
  8
LAY-1
  6
CONTINUOUS
 62
     3
100
AcDbCircle
 10
430.95
 20
302.100225
 30
0.0
 40
3.25
100
AcDbArc
 50
210.446042
 51
329.553958
  0
ARC
  5
3C1
100
AcDbEntity
  8
LAY-1
  6
CONTINUOUS
 62
     3
100
AcDbCircle
 10
427.7171
 20
300.2
 30
0.0
 40
0.5
100
AcDbArc
 50
30.446042
 51
90.0
  0
LINE
  5
3C2
100
AcDbEntity
  8
LAY-1
  6
CONTINUOUS
 62
     3
100
AcDbLine
 10
428.017318
 20
300.599836
 30
0.0
 11
428.017318
 21
365.800164
 31
0.0
  0
LINE
  5
3C3
100
AcDbEntity
  8
LAY-1
  6
CONTINUOUS
 62
     3
100
AcDbLine
 10
433.751847
 20
365.946637
 30
0.0
 11
433.751847
 21
300.453363
 31
0.0
  0
LINE
  5
3C4
100
AcDbEntity
  8
LAY-1
  6
CONTINUOUS
 62
     3
100
AcDbLine
 10
422.85
 20
365.7
 30
0.0
 11
427.7171
 21
365.7
 31
0.0
  0
LINE
  5
3C5
100
AcDbEntity
  8
LAY-1
  6
CONTINUOUS
 62
     3
100
AcDbLine
 10
427.7171
 20
300.7
 30
0.0
 11
422.85
 21
300.7
 31
0.0
  0
LINE
  5
3C6
100
AcDbEntity
  8
LAY-1
  6
CONTINUOUS
 62
     3
100
AcDbLine
 10
469.05
 20
372.95
 30
0.0
 11
469.05
 21
293.45
 31
0.0
  0
LINE
  5
3C7
100
AcDbEntity
  8
LAY-1
  6
CONTINUOUS
 62
     3
100
AcDbLine
 10
471.45
 20
372.95
 30
0.0
 11
471.45
 21
293.45
 31
0.0
  0
LINE
  5
3C8
100
AcDbEntity
  8
LAY-1
  6
CONTINUOUS
 62
     3
100
AcDbLine
 10
473.45
 20
367.45
 30
0.0
 11
473.45
 21
298.95
 31
0.0
  0
LINE
  5
3C9
100
AcDbEntity
  8
LAY-1
  6
CONTINUOUS
 62
     3
100
AcDbLine
 10
473.45
 20
298.95
 30
0.0
 11
471.45
 21
298.95
 31
0.0
  0
LINE
  5
3CA
100
AcDbEntity
  8
LAY-1
  6
CONTINUOUS
 62
     3
100
AcDbLine
 10
473.45
 20
367.45
 30
0.0
 11
471.45
 21
367.45
 31
0.0
  0
LINE
  5
3CB
100
AcDbEntity
  8
LAY-1
  6
CONTINUOUS
 62
     3
100
AcDbLine
 10
471.45
 20
372.95
 30
0.0
 11
469.05
 21
372.95
 31
0.0
  0
LINE
  5
3CC
100
AcDbEntity
  8
LAY-1
  6
CONTINUOUS
 62
     3
100
AcDbLine
 10
471.45
 20
293.45
 30
0.0
 11
469.05
 21
293.45
 31
0.0
  0
ARC
  5
3CD
100
AcDbEntity
  8
LAY-1
  6
CONTINUOUS
 62
     3
100
AcDbCircle
 10
457.7171
 20
366.2
 30
0.0
 40
0.5
100
AcDbArc
 50
270.0
 51
329.553958
  0
ARC
  5
3CE
100
AcDbEntity
  8
LAY-1
  6
CONTINUOUS
 62
     3
100
AcDbCircle
 10
460.95
 20
364.299775
 30
0.0
 40
3.25
100
AcDbArc
 50
30.446042
 51
149.553958
  0
ARC
  5
3CF
100
AcDbEntity
  8
LAY-1
  6
CONTINUOUS
 62
     3
100
AcDbCircle
 10
464.1829
 20
366.2
 30
0.0
 40
0.5
100
AcDbArc
 50
210.446042
 51
270.0
  0
ARC
  5
3D0
100
AcDbEntity
  8
LAY-1
  6
CONTINUOUS
 62
     3
100
AcDbCircle
 10
464.1829
 20
300.2
 30
0.0
 40
0.5
100
AcDbArc
 50
90.0
 51
149.553958
  0
ARC
  5
3D1
100
AcDbEntity
  8
LAY-1
  6
CONTINUOUS
 62
     3
100
AcDbCircle
 10
460.95
 20
302.100225
 30
0.0
 40
3.25
100
AcDbArc
 50
210.446042
 51
329.553958
  0
ARC
  5
3D2
100
AcDbEntity
  8
LAY-1
  6
CONTINUOUS
 62
     3
100
AcDbCircle
 10
457.7171
 20
300.2
 30
0.0
 40
0.5
100
AcDbArc
 50
30.446042
 51
90.0
  0
LINE
  5
3D3
100
AcDbEntity
  8
LAY-1
  6
CONTINUOUS
 62
     3
100
AcDbLine
 10
458.017318
 20
300.599836
 30
0.0
 11
458.017318
 21
365.800164
 31
0.0
  0
LINE
  5
3D4
100
AcDbEntity
  8
LAY-1
  6
CONTINUOUS
 62
     3
100
AcDbLine
 10
463.751847
 20
365.946637
 30
0.0
 11
463.751847
 21
300.453363
 31
0.0
  0
LINE
  5
3D5
100
AcDbEntity
  8
LAY-1
  6
CONTINUOUS
 62
     3
100
AcDbLine
 10
464.1829
 20
365.7
 30
0.0
 11
469.05
 21
365.7
 31
0.0
  0
LINE
  5
3D6
100
AcDbEntity
  8
LAY-1
  6
CONTINUOUS
 62
     3
100
AcDbLine
 10
469.05
 20
300.7
 30
0.0
 11
464.1829
 21
300.7
 31
0.0
  0
LINE
  5
3D7
100
AcDbEntity
  8
LAY-1
  6
EXLTYPE3
 62
     1
100
AcDbLine
 10
479.1
 20
333.2
 30
0.0
 11
413.4
 21
333.2
 31
0.0
  0
ARC
  5
3D8
100
AcDbEntity
  8
LAY-1
  6
CONTINUOUS
 62
     3
100
AcDbCircle
 10
442.7171
 20
366.2
 30
0.0
 40
0.5
100
AcDbArc
 50
270.0
 51
329.553958
  0
ARC
  5
3D9
100
AcDbEntity
  8
LAY-1
  6
CONTINUOUS
 62
     3
100
AcDbCircle
 10
445.95
 20
364.299775
 30
0.0
 40
3.25
100
AcDbArc
 50
30.446042
 51
149.553958
  0
ARC
  5
3DA
100
AcDbEntity
  8
LAY-1
  6
CONTINUOUS
 62
     3
100
AcDbCircle
 10
449.1829
 20
366.2
 30
0.0
 40
0.5
100
AcDbArc
 50
210.446042
 51
270.0
  0
ARC
  5
3DB
100
AcDbEntity
  8
LAY-1
  6
CONTINUOUS
 62
     3
100
AcDbCircle
 10
449.1829
 20
300.2
 30
0.0
 40
0.5
100
AcDbArc
 50
90.0
 51
149.553958
  0
ARC
  5
3DC
100
AcDbEntity
  8
LAY-1
  6
CONTINUOUS
 62
     3
100
AcDbCircle
 10
445.95
 20
302.100225
 30
0.0
 40
3.25
100
AcDbArc
 50
210.446042
 51
329.553958
  0
ARC
  5
3DD
100
AcDbEntity
  8
LAY-1
  6
CONTINUOUS
 62
     3
100
AcDbCircle
 10
442.7171
 20
300.2
 30
0.0
 40
0.5
100
AcDbArc
 50
30.446042
 51
90.0
  0
LINE
  5
3DE
100
AcDbEntity
  8
LAY-1
  6
CONTINUOUS
 62
     3
100
AcDbLine
 10
443.017318
 20
300.599836
 30
0.0
 11
443.017318
 21
365.800164
 31
0.0
  0
LINE
  5
3DF
100
AcDbEntity
  8
LAY-1
  6
CONTINUOUS
 62
     3
100
AcDbLine
 10
448.751847
 20
365.946637
 30
0.0
 11
448.751847
 21
300.453363
 31
0.0
  0
LINE
  5
3E0
100
AcDbEntity
  8
LAY-1
  6
CONTINUOUS
 62
     3
100
AcDbLine
 10
434.1829
 20
365.7
 30
0.0
 11
442.7171
 21
365.7
 31
0.0
  0
LINE
  5
3E1
100
AcDbEntity
  8
LAY-1
  6
CONTINUOUS
 62
     3
100
AcDbLine
 10
449.1829
 20
365.7
 30
0.0
 11
457.7171
 21
365.7
 31
0.0
  0
LINE
  5
3E2
100
AcDbEntity
  8
LAY-1
  6
CONTINUOUS
 62
     3
100
AcDbLine
 10
457.7171
 20
300.7
 30
0.0
 11
449.1829
 21
300.7
 31
0.0
  0
LINE
  5
3E3
100
AcDbEntity
  8
LAY-1
  6
CONTINUOUS
 62
     3
100
AcDbLine
 10
442.7171
 20
300.7
 30
0.0
 11
434.1829
 21
300.7
 31
0.0
  0
LINE
  5
3E4
100
AcDbEntity
  8
LAY-1
  6
CONTINUOUS
 62
     3
100
AcDbLine
 10
585.492857
 20
287.95
 30
0.0
 11
587.892857
 21
287.95
 31
0.0
  0
LINE
  5
3E5
100
AcDbEntity
  8
LAY-1
  6
CONTINUOUS
 62
     3
100
AcDbLine
 10
587.892857
 20
378.45
 30
0.0
 11
585.492857
 21
378.45
 31
0.0
  0
LINE
  5
3E6
100
AcDbEntity
  8
LAY-1
  6
CONTINUOUS
 62
     3
100
AcDbLine
 10
587.892857
 20
372.45
 30
0.0
 11
589.892857
 21
372.45
 31
0.0
  0
LINE
  5
3E7
100
AcDbEntity
  8
LAY-1
  6
CONTINUOUS
 62
     3
100
AcDbLine
 10
587.892857
 20
293.95
 30
0.0
 11
589.892857
 21
293.95
 31
0.0
  0
LINE
  5
3E8
100
AcDbEntity
  8
LAY-1
  6
CONTINUOUS
 62
     3
100
AcDbLine
 10
589.892857
 20
372.45
 30
0.0
 11
589.892857
 21
293.95
 31
0.0
  0
LINE
  5
3E9
100
AcDbEntity
  8
LAY-1
  6
CONTINUOUS
 62
     3
100
AcDbLine
 10
587.892857
 20
378.45
 30
0.0
 11
587.892857
 21
287.95
 31
0.0
  0
LINE
  5
3EA
100
AcDbEntity
  8
LAY-1
  6
CONTINUOUS
 62
     3
100
AcDbLine
 10
585.492857
 20
378.45
 30
0.0
 11
585.492857
 21
287.95
 31
0.0
  0
LINE
  5
3EB
100
AcDbEntity
  8
LAY-1
  6
CONTINUOUS
 62
     3
100
AcDbLine
 10
526.892857
 20
287.95
 30
0.0
 11
529.292857
 21
287.95
 31
0.0
  0
LINE
  5
3EC
100
AcDbEntity
  8
LAY-1
  6
CONTINUOUS
 62
     3
100
AcDbLine
 10
526.892857
 20
378.45
 30
0.0
 11
529.292857
 21
378.45
 31
0.0
  0
LINE
  5
3ED
100
AcDbEntity
  8
LAY-1
  6
CONTINUOUS
 62
     3
100
AcDbLine
 10
524.892857
 20
372.45
 30
0.0
 11
526.892857
 21
372.45
 31
0.0
  0
LINE
  5
3EE
100
AcDbEntity
  8
LAY-1
  6
CONTINUOUS
 62
     3
100
AcDbLine
 10
524.892857
 20
293.95
 30
0.0
 11
526.892857
 21
293.95
 31
0.0
  0
LINE
  5
3EF
100
AcDbEntity
  8
LAY-1
  6
CONTINUOUS
 62
     3
100
AcDbLine
 10
524.892857
 20
372.45
 30
0.0
 11
524.892857
 21
293.95
 31
0.0
  0
LINE
  5
3F0
100
AcDbEntity
  8
LAY-1
  6
CONTINUOUS
 62
     3
100
AcDbLine
 10
526.892857
 20
378.45
 30
0.0
 11
526.892857
 21
287.95
 31
0.0
  0
LINE
  5
3F1
100
AcDbEntity
  8
LAY-1
  6
CONTINUOUS
 62
     3
100
AcDbLine
 10
529.292857
 20
378.45
 30
0.0
 11
529.292857
 21
287.95
 31
0.0
  0
ARC
  5
3F2
100
AcDbEntity
  8
LAY-1
  6
CONTINUOUS
 62
     3
100
AcDbCircle
 10
561.55278
 20
372.15
 30
0.0
 40
0.7
100
AcDbArc
 50
223.129446
 51
270.0
  0
ARC
  5
3F3
100
AcDbEntity
  8
LAY-1
  6
CONTINUOUS
 62
     3
100
AcDbCircle
 10
557.392857
 20
368.253201
 30
0.0
 40
5.0
100
AcDbArc
 50
43.129446
 51
136.870554
  0
ARC
  5
3F4
100
AcDbEntity
  8
LAY-1
  6
CONTINUOUS
 62
     3
100
AcDbCircle
 10
553.232934
 20
372.15
 30
0.0
 40
0.7
100
AcDbArc
 50
270.0
 51
316.870554
  0
ARC
  5
3F5
100
AcDbEntity
  8
LAY-1
  6
CONTINUOUS
 62
     3
100
AcDbCircle
 10
553.232934
 20
294.25
 30
0.0
 40
0.7
100
AcDbArc
 50
43.129446
 51
90.0
  0
ARC
  5
3F6
100
AcDbEntity
  8
LAY-1
  6
CONTINUOUS
 62
     3
100
AcDbCircle
 10
557.392857
 20
298.146799
 30
0.0
 40
5.0
100
AcDbArc
 50
223.129446
 51
316.870554
  0
ARC
  5
3F7
100
AcDbEntity
  8
LAY-1
  6
CONTINUOUS
 62
     3
100
AcDbCircle
 10
561.55278
 20
294.25
 30
0.0
 40
0.7
100
AcDbArc
 50
90.0
 51
136.870554
  0
LINE
  5
3F8
100
AcDbEntity
  8
LAY-1
  6
CONTINUOUS
 62
     3
100
AcDbLine
 10
561.041912
 20
294.728554
 30
0.0
 11
561.041912
 21
371.671446
 31
0.0
  0
LINE
  5
3F9
100
AcDbEntity
  8
LAY-1
  6
CONTINUOUS
 62
     3
100
AcDbLine
 10
553.743802
 20
371.671446
 30
0.0
 11
553.743802
 21
294.728554
 31
0.0
  0
ARC
  5
3FA
100
AcDbEntity
  8
LAY-1
  6
CONTINUOUS
 62
     3
100
AcDbCircle
 10
544.05278
 20
372.15
 30
0.0
 40
0.7
100
AcDbArc
 50
223.129446
 51
270.0
  0
ARC
  5
3FB
100
AcDbEntity
  8
LAY-1
  6
CONTINUOUS
 62
     3
100
AcDbCircle
 10
539.892857
 20
368.253201
 30
0.0
 40
5.0
100
AcDbArc
 50
43.129446
 51
136.870554
  0
ARC
  5
3FC
100
AcDbEntity
  8
LAY-1
  6
CONTINUOUS
 62
     3
100
AcDbCircle
 10
535.732934
 20
372.15
 30
0.0
 40
0.7
100
AcDbArc
 50
270.0
 51
316.870554
  0
LINE
  5
3FD
100
AcDbEntity
  8
LAY-1
  6
CONTINUOUS
 62
     3
100
AcDbLine
 10
529.292857
 20
371.45
 30
0.0
 11
535.732934
 21
371.45
 31
0.0
  0
ARC
  5
3FE
100
AcDbEntity
  8
LAY-1
  6
CONTINUOUS
 62
     3
100
AcDbCircle
 10
535.732934
 20
294.25
 30
0.0
 40
0.7
100
AcDbArc
 50
43.129446
 51
90.0
  0
ARC
  5
3FF
100
AcDbEntity
  8
LAY-1
  6
CONTINUOUS
 62
     3
100
AcDbCircle
 10
539.892857
 20
298.146799
 30
0.0
 40
5.0
100
AcDbArc
 50
223.129446
 51
316.870554
  0
ARC
  5
400
100
AcDbEntity
  8
LAY-1
  6
CONTINUOUS
 62
     3
100
AcDbCircle
 10
544.05278
 20
294.25
 30
0.0
 40
0.7
100
AcDbArc
 50
90.0
 51
136.870554
  0
LINE
  5
401
100
AcDbEntity
  8
LAY-1
  6
CONTINUOUS
 62
     3
100
AcDbLine
 10
535.732934
 20
294.95
 30
0.0
 11
529.292857
 21
294.95
 31
0.0
  0
LINE
  5
402
100
AcDbEntity
  8
LAY-1
  6
CONTINUOUS
 62
     3
100
AcDbLine
 10
543.541912
 20
294.728554
 30
0.0
 11
543.541912
 21
371.671446
 31
0.0
  0
LINE
  5
403
100
AcDbEntity
  8
LAY-1
  6
CONTINUOUS
 62
     3
100
AcDbLine
 10
536.243802
 20
371.671446
 30
0.0
 11
536.243802
 21
294.728554
 31
0.0
  0
ARC
  5
404
100
AcDbEntity
  8
LAY-1
  6
CONTINUOUS
 62
     3
100
AcDbCircle
 10
579.05278
 20
372.15
 30
0.0
 40
0.7
100
AcDbArc
 50
223.129446
 51
270.0
  0
ARC
  5
405
100
AcDbEntity
  8
LAY-1
  6
CONTINUOUS
 62
     3
100
AcDbCircle
 10
574.892857
 20
368.253201
 30
0.0
 40
5.0
100
AcDbArc
 50
43.129446
 51
136.870554
  0
ARC
  5
406
100
AcDbEntity
  8
LAY-1
  6
CONTINUOUS
 62
     3
100
AcDbCircle
 10
570.732934
 20
372.15
 30
0.0
 40
0.7
100
AcDbArc
 50
270.0
 51
316.870554
  0
ARC
  5
407
100
AcDbEntity
  8
LAY-1
  6
CONTINUOUS
 62
     3
100
AcDbCircle
 10
570.732934
 20
294.25
 30
0.0
 40
0.7
100
AcDbArc
 50
43.129446
 51
90.0
  0
ARC
  5
408
100
AcDbEntity
  8
LAY-1
  6
CONTINUOUS
 62
     3
100
AcDbCircle
 10
574.892857
 20
298.146799
 30
0.0
 40
5.0
100
AcDbArc
 50
223.129446
 51
316.870554
  0
ARC
  5
409
100
AcDbEntity
  8
LAY-1
  6
CONTINUOUS
 62
     3
100
AcDbCircle
 10
579.05278
 20
294.25
 30
0.0
 40
0.7
100
AcDbArc
 50
90.0
 51
136.870554
  0
LINE
  5
40A
100
AcDbEntity
  8
LAY-1
  6
CONTINUOUS
 62
     3
100
AcDbLine
 10
578.541912
 20
294.728554
 30
0.0
 11
578.541912
 21
371.671446
 31
0.0
  0
LINE
  5
40B
100
AcDbEntity
  8
LAY-1
  6
CONTINUOUS
 62
     3
100
AcDbLine
 10
571.243802
 20
371.671446
 30
0.0
 11
571.243802
 21
294.728554
 31
0.0
  0
LINE
  5
40C
100
AcDbEntity
  8
LAY-1
  6
CONTINUOUS
 62
     3
100
AcDbLine
 10
579.05278
 20
371.45
 30
0.0
 11
585.492857
 21
371.45
 31
0.0
  0
LINE
  5
40D
100
AcDbEntity
  8
LAY-1
  6
CONTINUOUS
 62
     3
100
AcDbLine
 10
585.492857
 20
294.95
 30
0.0
 11
579.05278
 21
294.95
 31
0.0
  0
LINE
  5
40E
100
AcDbEntity
  8
LAY-1
  6
EXLTYPE3
 62
     1
100
AcDbLine
 10
521.313341
 20
333.2
 30
0.0
 11
593.413341
 21
333.2
 31
0.0
  0
LINE
  5
40F
100
AcDbEntity
  8
LAY-1
  6
CONTINUOUS
 62
     3
100
AcDbLine
 10
544.05278
 20
371.45
 30
0.0
 11
553.232934
 21
371.45
 31
0.0
  0
LINE
  5
410
100
AcDbEntity
  8
LAY-1
  6
CONTINUOUS
 62
     3
100
AcDbLine
 10
561.55278
 20
371.45
 30
0.0
 11
570.732934
 21
371.45
 31
0.0
  0
LINE
  5
411
100
AcDbEntity
  8
LAY-1
  6
CONTINUOUS
 62
     3
100
AcDbLine
 10
570.732934
 20
294.95
 30
0.0
 11
561.55278
 21
294.95
 31
0.0
  0
LINE
  5
412
100
AcDbEntity
  8
LAY-1
  6
CONTINUOUS
 62
     3
100
AcDbLine
 10
553.232934
 20
294.95
 30
0.0
 11
544.05278
 21
294.95
 31
0.0
  0
LINE
  5
413
100
AcDbEntity
  8
LAY-1
  6
CONTINUOUS
 62
     3
100
AcDbLine
 10
699.335714
 20
384.2
 30
0.0
 11
696.735714
 21
384.2
 31
0.0
  0
LINE
  5
414
100
AcDbEntity
  8
LAY-1
  6
CONTINUOUS
 62
     3
100
AcDbLine
 10
696.735714
 20
282.2
 30
0.0
 11
699.335714
 21
282.2
 31
0.0
  0
LINE
  5
415
100
AcDbEntity
  8
LAY-1
  6
CONTINUOUS
 62
     3
100
AcDbLine
 10
699.335714
 20
377.7
 30
0.0
 11
701.335714
 21
377.7
 31
0.0
  0
LINE
  5
416
100
AcDbEntity
  8
LAY-1
  6
CONTINUOUS
 62
     3
100
AcDbLine
 10
699.335714
 20
288.7
 30
0.0
 11
701.335714
 21
288.7
 31
0.0
  0
LINE
  5
417
100
AcDbEntity
  8
LAY-1
  6
CONTINUOUS
 62
     3
100
AcDbLine
 10
701.335714
 20
377.7
 30
0.0
 11
701.335714
 21
288.7
 31
0.0
  0
LINE
  5
418
100
AcDbEntity
  8
LAY-1
  6
CONTINUOUS
 62
     3
100
AcDbLine
 10
699.335714
 20
384.2
 30
0.0
 11
699.335714
 21
282.2
 31
0.0
  0
LINE
  5
419
100
AcDbEntity
  8
LAY-1
  6
CONTINUOUS
 62
     3
100
AcDbLine
 10
696.735714
 20
384.2
 30
0.0
 11
696.735714
 21
282.2
 31
0.0
  0
LINE
  5
41A
100
AcDbEntity
  8
LAY-1
  6
CONTINUOUS
 62
     3
100
AcDbLine
 10
638.335714
 20
384.2
 30
0.0
 11
640.935714
 21
384.2
 31
0.0
  0
LINE
  5
41B
100
AcDbEntity
  8
LAY-1
  6
CONTINUOUS
 62
     3
100
AcDbLine
 10
638.335714
 20
282.2
 30
0.0
 11
640.935714
 21
282.2
 31
0.0
  0
LINE
  5
41C
100
AcDbEntity
  8
LAY-1
  6
CONTINUOUS
 62
     3
100
AcDbLine
 10
636.335714
 20
377.7
 30
0.0
 11
638.335714
 21
377.7
 31
0.0
  0
LINE
  5
41D
100
AcDbEntity
  8
LAY-1
  6
CONTINUOUS
 62
     3
100
AcDbLine
 10
636.335714
 20
288.7
 30
0.0
 11
638.335714
 21
288.7
 31
0.0
  0
LINE
  5
41E
100
AcDbEntity
  8
LAY-1
  6
CONTINUOUS
 62
     3
100
AcDbLine
 10
636.335714
 20
377.7
 30
0.0
 11
636.335714
 21
288.7
 31
0.0
  0
LINE
  5
41F
100
AcDbEntity
  8
LAY-1
  6
CONTINUOUS
 62
     3
100
AcDbLine
 10
638.335714
 20
384.2
 30
0.0
 11
638.335714
 21
282.2
 31
0.0
  0
LINE
  5
420
100
AcDbEntity
  8
LAY-1
  6
CONTINUOUS
 62
     3
100
AcDbLine
 10
640.935714
 20
384.2
 30
0.0
 11
640.935714
 21
282.2
 31
0.0
  0
ARC
  5
421
100
AcDbEntity
  8
LAY-1
  6
CONTINUOUS
 62
     3
100
AcDbCircle
 10
668.835714
 20
373.909388
 30
0.0
 40
4.593813
100
AcDbArc
 50
41.252282
 51
138.747718
  0
ARC
  5
422
100
AcDbEntity
  8
LAY-1
  6
CONTINUOUS
 62
     3
100
AcDbCircle
 10
664.855754
 20
377.4
 30
0.0
 40
0.7
100
AcDbArc
 50
270.0
 51
318.747718
  0
ARC
  5
423
100
AcDbEntity
  8
LAY-1
  6
CONTINUOUS
 62
     3
100
AcDbCircle
 10
672.815675
 20
377.4
 30
0.0
 40
0.7
100
AcDbArc
 50
221.252282
 51
270.0
  0
ARC
  5
424
100
AcDbEntity
  8
LAY-1
  6
CONTINUOUS
 62
     3
100
AcDbCircle
 10
672.815675
 20
289.0
 30
0.0
 40
0.7
100
AcDbArc
 50
90.0
 51
138.747718
  0
ARC
  5
425
100
AcDbEntity
  8
LAY-1
  6
CONTINUOUS
 62
     3
100
AcDbCircle
 10
668.835714
 20
292.490612
 30
0.0
 40
4.593813
100
AcDbArc
 50
221.252282
 51
318.747718
  0
ARC
  5
426
100
AcDbEntity
  8
LAY-1
  6
CONTINUOUS
 62
     3
100
AcDbCircle
 10
664.855754
 20
289.0
 30
0.0
 40
0.7
100
AcDbArc
 50
41.252282
 51
90.0
  0
LINE
  5
427
100
AcDbEntity
  8
LAY-1
  6
CONTINUOUS
 62
     3
100
AcDbLine
 10
665.382023
 20
376.938437
 30
0.0
 11
665.382023
 21
289.461563
 31
0.0
  0
LINE
  5
428
100
AcDbEntity
  8
LAY-1
  6
CONTINUOUS
 62
     3
100
AcDbLine
 10
672.289405
 20
376.938437
 30
0.0
 11
672.289405
 21
289.461563
 31
0.0
  0
ARC
  5
429
100
AcDbEntity
  8
LAY-1
  6
CONTINUOUS
 62
     3
100
AcDbCircle
 10
651.335714
 20
373.909388
 30
0.0
 40
4.593813
100
AcDbArc
 50
41.252282
 51
138.747718
  0
ARC
  5
42A
100
AcDbEntity
  8
LAY-1
  6
CONTINUOUS
 62
     3
100
AcDbCircle
 10
647.355754
 20
377.4
 30
0.0
 40
0.7
100
AcDbArc
 50
270.0
 51
318.747718
  0
ARC
  5
42B
100
AcDbEntity
  8
LAY-1
  6
CONTINUOUS
 62
     3
100
AcDbCircle
 10
655.315675
 20
377.4
 30
0.0
 40
0.7
100
AcDbArc
 50
221.252282
 51
270.0
  0
ARC
  5
42C
100
AcDbEntity
  8
LAY-1
  6
CONTINUOUS
 62
     3
100
AcDbCircle
 10
655.315675
 20
289.0
 30
0.0
 40
0.7
100
AcDbArc
 50
90.0
 51
138.747718
  0
ARC
  5
42D
100
AcDbEntity
  8
LAY-1
  6
CONTINUOUS
 62
     3
100
AcDbCircle
 10
651.335714
 20
292.490612
 30
0.0
 40
4.593813
100
AcDbArc
 50
221.252282
 51
318.747718
  0
ARC
  5
42E
100
AcDbEntity
  8
LAY-1
  6
CONTINUOUS
 62
     3
100
AcDbCircle
 10
647.355754
 20
289.0
 30
0.0
 40
0.7
100
AcDbArc
 50
41.252282
 51
90.0
  0
LINE
  5
42F
100
AcDbEntity
  8
LAY-1
  6
CONTINUOUS
 62
     3
100
AcDbLine
 10
647.882023
 20
376.938437
 30
0.0
 11
647.882023
 21
289.461563
 31
0.0
  0
LINE
  5
430
100
AcDbEntity
  8
LAY-1
  6
CONTINUOUS
 62
     3
100
AcDbLine
 10
654.789405
 20
376.938437
 30
0.0
 11
654.789405
 21
289.461563
 31
0.0
  0
LINE
  5
431
100
AcDbEntity
  8
LAY-1
  6
CONTINUOUS
 62
     3
100
AcDbLine
 10
640.935714
 20
376.7
 30
0.0
 11
647.355754
 21
376.7
 31
0.0
  0
LINE
  5
432
100
AcDbEntity
  8
LAY-1
  6
CONTINUOUS
 62
     3
100
AcDbLine
 10
647.355754
 20
289.7
 30
0.0
 11
640.935714
 21
289.7
 31
0.0
  0
LINE
  5
433
100
AcDbEntity
  8
LAY-1
  6
CONTINUOUS
 62
     3
100
AcDbLine
 10
655.315675
 20
376.7
 30
0.0
 11
664.855754
 21
376.7
 31
0.0
  0
LINE
  5
434
100
AcDbEntity
  8
LAY-1
  6
CONTINUOUS
 62
     3
100
AcDbLine
 10
664.855754
 20
289.7
 30
0.0
 11
655.315675
 21
289.7
 31
0.0
  0
ARC
  5
435
100
AcDbEntity
  8
LAY-1
  6
CONTINUOUS
 62
     3
100
AcDbCircle
 10
686.335714
 20
373.909388
 30
0.0
 40
4.593813
100
AcDbArc
 50
41.252282
 51
138.747718
  0
ARC
  5
436
100
AcDbEntity
  8
LAY-1
  6
CONTINUOUS
 62
     3
100
AcDbCircle
 10
682.355754
 20
377.4
 30
0.0
 40
0.7
100
AcDbArc
 50
270.0
 51
318.747718
  0
ARC
  5
437
100
AcDbEntity
  8
LAY-1
  6
CONTINUOUS
 62
     3
100
AcDbCircle
 10
690.315675
 20
377.4
 30
0.0
 40
0.7
100
AcDbArc
 50
221.252282
 51
270.0
  0
ARC
  5
438
100
AcDbEntity
  8
LAY-1
  6
CONTINUOUS
 62
     3
100
AcDbCircle
 10
690.315675
 20
289.0
 30
0.0
 40
0.7
100
AcDbArc
 50
90.0
 51
138.747718
  0
ARC
  5
439
100
AcDbEntity
  8
LAY-1
  6
CONTINUOUS
 62
     3
100
AcDbCircle
 10
686.335714
 20
292.490612
 30
0.0
 40
4.593813
100
AcDbArc
 50
221.252282
 51
318.747718
  0
ARC
  5
43A
100
AcDbEntity
  8
LAY-1
  6
CONTINUOUS
 62
     3
100
AcDbCircle
 10
682.355754
 20
289.0
 30
0.0
 40
0.7
100
AcDbArc
 50
41.252282
 51
90.0
  0
LINE
  5
43B
100
AcDbEntity
  8
LAY-1
  6
CONTINUOUS
 62
     3
100
AcDbLine
 10
682.882023
 20
376.938437
 30
0.0
 11
682.882023
 21
289.461563
 31
0.0
  0
LINE
  5
43C
100
AcDbEntity
  8
LAY-1
  6
CONTINUOUS
 62
     3
100
AcDbLine
 10
689.789405
 20
376.938437
 30
0.0
 11
689.789405
 21
289.461563
 31
0.0
  0
LINE
  5
43D
100
AcDbEntity
  8
LAY-1
  6
CONTINUOUS
 62
     3
100
AcDbLine
 10
690.315675
 20
376.7
 30
0.0
 11
696.735714
 21
376.7
 31
0.0
  0
LINE
  5
43E
100
AcDbEntity
  8
LAY-1
  6
CONTINUOUS
 62
     3
100
AcDbLine
 10
696.735714
 20
289.7
 30
0.0
 11
690.315675
 21
289.7
 31
0.0
  0
LINE
  5
43F
100
AcDbEntity
  8
LAY-1
  6
CONTINUOUS
 62
     3
100
AcDbLine
 10
672.815675
 20
376.7
 30
0.0
 11
682.355754
 21
376.7
 31
0.0
  0
LINE
  5
440
100
AcDbEntity
  8
LAY-1
  6
CONTINUOUS
 62
     3
100
AcDbLine
 10
682.355754
 20
289.7
 30
0.0
 11
672.815675
 21
289.7
 31
0.0
  0
LINE
  5
441
100
AcDbEntity
  8
LAY-1
  6
EXLTYPE3
 62
     1
100
AcDbLine
 10
633.04418
 20
333.2
 30
0.0
 11
705.14418
 21
333.2
 31
0.0
  0
LINE
  5
442
100
AcDbEntity
  8
LAY-1
  6
CONTINUOUS
 62
     3
100
AcDbLine
 10
810.578571
 20
389.2
 30
0.0
 11
807.978571
 21
389.2
 31
0.0
  0
LINE
  5
443
100
AcDbEntity
  8
LAY-1
  6
CONTINUOUS
 62
     3
100
AcDbLine
 10
807.978571
 20
277.2
 30
0.0
 11
810.578571
 21
277.2
 31
0.0
  0
LINE
  5
444
100
AcDbEntity
  8
LAY-1
  6
CONTINUOUS
 62
     3
100
AcDbLine
 10
810.578571
 20
382.7
 30
0.0
 11
812.778571
 21
382.7
 31
0.0
  0
LINE
  5
445
100
AcDbEntity
  8
LAY-1
  6
CONTINUOUS
 62
     3
100
AcDbLine
 10
810.578571
 20
283.7
 30
0.0
 11
812.778571
 21
283.7
 31
0.0
  0
LINE
  5
446
100
AcDbEntity
  8
LAY-1
  6
CONTINUOUS
 62
     3
100
AcDbLine
 10
812.778571
 20
382.7
 30
0.0
 11
812.778571
 21
283.7
 31
0.0
  0
LINE
  5
447
100
AcDbEntity
  8
LAY-1
  6
CONTINUOUS
 62
     3
100
AcDbLine
 10
810.578571
 20
389.2
 30
0.0
 11
810.578571
 21
277.2
 31
0.0
  0
LINE
  5
448
100
AcDbEntity
  8
LAY-1
  6
CONTINUOUS
 62
     3
100
AcDbLine
 10
807.978571
 20
389.2
 30
0.0
 11
807.978571
 21
277.2
 31
0.0
  0
LINE
  5
449
100
AcDbEntity
  8
LAY-1
  6
CONTINUOUS
 62
     3
100
AcDbLine
 10
749.978571
 20
389.2
 30
0.0
 11
752.578571
 21
389.2
 31
0.0
  0
LINE
  5
44A
100
AcDbEntity
  8
LAY-1
  6
CONTINUOUS
 62
     3
100
AcDbLine
 10
749.978571
 20
277.2
 30
0.0
 11
752.578571
 21
277.2
 31
0.0
  0
LINE
  5
44B
100
AcDbEntity
  8
LAY-1
  6
CONTINUOUS
 62
     3
100
AcDbLine
 10
747.778571
 20
382.7
 30
0.0
 11
749.978571
 21
382.7
 31
0.0
  0
LINE
  5
44C
100
AcDbEntity
  8
LAY-1
  6
CONTINUOUS
 62
     3
100
AcDbLine
 10
747.778571
 20
283.7
 30
0.0
 11
749.978571
 21
283.7
 31
0.0
  0
LINE
  5
44D
100
AcDbEntity
  8
LAY-1
  6
CONTINUOUS
 62
     3
100
AcDbLine
 10
747.778571
 20
382.7
 30
0.0
 11
747.778571
 21
283.7
 31
0.0
  0
LINE
  5
44E
100
AcDbEntity
  8
LAY-1
  6
CONTINUOUS
 62
     3
100
AcDbLine
 10
749.978571
 20
389.2
 30
0.0
 11
749.978571
 21
277.2
 31
0.0
  0
LINE
  5
44F
100
AcDbEntity
  8
LAY-1
  6
CONTINUOUS
 62
     3
100
AcDbLine
 10
752.578571
 20
389.2
 30
0.0
 11
752.578571
 21
277.2
 31
0.0
  0
ARC
  5
450
100
AcDbEntity
  8
LAY-1
  6
CONTINUOUS
 62
     3
100
AcDbCircle
 10
776.298611
 20
382.4
 30
0.0
 40
0.7
100
AcDbArc
 50
270.0
 51
318.747718
  0
ARC
  5
451
100
AcDbEntity
  8
LAY-1
  6
CONTINUOUS
 62
     3
100
AcDbCircle
 10
780.278571
 20
378.909388
 30
0.0
 40
4.593813
100
AcDbArc
 50
41.252282
 51
138.747718
  0
ARC
  5
452
100
AcDbEntity
  8
LAY-1
  6
CONTINUOUS
 62
     3
100
AcDbCircle
 10
784.258532
 20
382.4
 30
0.0
 40
0.7
100
AcDbArc
 50
221.252282
 51
270.0
  0
ARC
  5
453
100
AcDbEntity
  8
LAY-1
  6
CONTINUOUS
 62
     3
100
AcDbCircle
 10
784.258532
 20
284.0
 30
0.0
 40
0.7
100
AcDbArc
 50
90.0
 51
138.747718
  0
ARC
  5
454
100
AcDbEntity
  8
LAY-1
  6
CONTINUOUS
 62
     3
100
AcDbCircle
 10
780.278571
 20
287.490612
 30
0.0
 40
4.593813
100
AcDbArc
 50
221.252282
 51
318.747718
  0
ARC
  5
455
100
AcDbEntity
  8
LAY-1
  6
CONTINUOUS
 62
     3
100
AcDbCircle
 10
776.298611
 20
284.0
 30
0.0
 40
0.7
100
AcDbArc
 50
41.252282
 51
90.0
  0
LINE
  5
456
100
AcDbEntity
  8
LAY-1
  6
CONTINUOUS
 62
     3
100
AcDbLine
 10
783.732262
 20
381.938437
 30
0.0
 11
783.732262
 21
284.461563
 31
0.0
  0
LINE
  5
457
100
AcDbEntity
  8
LAY-1
  6
CONTINUOUS
 62
     3
100
AcDbLine
 10
776.824881
 20
381.938437
 30
0.0
 11
776.824881
 21
284.461563
 31
0.0
  0
ARC
  5
458
100
AcDbEntity
  8
LAY-1
  6
CONTINUOUS
 62
     3
100
AcDbCircle
 10
758.798611
 20
382.4
 30
0.0
 40
0.7
100
AcDbArc
 50
270.0
 51
318.747718
  0
ARC
  5
459
100
AcDbEntity
  8
LAY-1
  6
CONTINUOUS
 62
     3
100
AcDbCircle
 10
762.778571
 20
378.909388
 30
0.0
 40
4.593813
100
AcDbArc
 50
41.252282
 51
138.747718
  0
ARC
  5
45A
100
AcDbEntity
  8
LAY-1
  6
CONTINUOUS
 62
     3
100
AcDbCircle
 10
766.758532
 20
382.4
 30
0.0
 40
0.7
100
AcDbArc
 50
221.252282
 51
270.0
  0
LINE
  5
45B
100
AcDbEntity
  8
LAY-1
  6
CONTINUOUS
 62
     3
100
AcDbLine
 10
752.578571
 20
381.7
 30
0.0
 11
758.798611
 21
381.7
 31
0.0
  0
ARC
  5
45C
100
AcDbEntity
  8
LAY-1
  6
CONTINUOUS
 62
     3
100
AcDbCircle
 10
766.758532
 20
284.0
 30
0.0
 40
0.7
100
AcDbArc
 50
90.0
 51
138.747718
  0
ARC
  5
45D
100
AcDbEntity
  8
LAY-1
  6
CONTINUOUS
 62
     3
100
AcDbCircle
 10
762.778571
 20
287.490612
 30
0.0
 40
4.593813
100
AcDbArc
 50
221.252282
 51
318.747718
  0
ARC
  5
45E
100
AcDbEntity
  8
LAY-1
  6
CONTINUOUS
 62
     3
100
AcDbCircle
 10
758.798611
 20
284.0
 30
0.0
 40
0.7
100
AcDbArc
 50
41.252282
 51
90.0
  0
LINE
  5
45F
100
AcDbEntity
  8
LAY-1
  6
CONTINUOUS
 62
     3
100
AcDbLine
 10
758.798611
 20
284.7
 30
0.0
 11
752.578571
 21
284.7
 31
0.0
  0
LINE
  5
460
100
AcDbEntity
  8
LAY-1
  6
CONTINUOUS
 62
     3
100
AcDbLine
 10
766.232262
 20
381.938437
 30
0.0
 11
766.232262
 21
284.461563
 31
0.0
  0
LINE
  5
461
100
AcDbEntity
  8
LAY-1
  6
CONTINUOUS
 62
     3
100
AcDbLine
 10
759.324881
 20
381.938437
 30
0.0
 11
759.324881
 21
284.461563
 31
0.0
  0
LINE
  5
462
100
AcDbEntity
  8
LAY-1
  6
CONTINUOUS
 62
     3
100
AcDbLine
 10
766.758532
 20
381.7
 30
0.0
 11
776.298611
 21
381.7
 31
0.0
  0
LINE
  5
463
100
AcDbEntity
  8
LAY-1
  6
CONTINUOUS
 62
     3
100
AcDbLine
 10
776.298611
 20
284.7
 30
0.0
 11
766.758532
 21
284.7
 31
0.0
  0
ARC
  5
464
100
AcDbEntity
  8
LAY-1
  6
CONTINUOUS
 62
     3
100
AcDbCircle
 10
793.798611
 20
382.4
 30
0.0
 40
0.7
100
AcDbArc
 50
270.0
 51
318.747718
  0
ARC
  5
465
100
AcDbEntity
  8
LAY-1
  6
CONTINUOUS
 62
     3
100
AcDbCircle
 10
797.778571
 20
378.909388
 30
0.0
 40
4.593813
100
AcDbArc
 50
41.252282
 51
138.747718
  0
ARC
  5
466
100
AcDbEntity
  8
LAY-1
  6
CONTINUOUS
 62
     3
100
AcDbCircle
 10
801.758532
 20
382.4
 30
0.0
 40
0.7
100
AcDbArc
 50
221.252282
 51
270.0
  0
ARC
  5
467
100
AcDbEntity
  8
LAY-1
  6
CONTINUOUS
 62
     3
100
AcDbCircle
 10
801.758532
 20
284.0
 30
0.0
 40
0.7
100
AcDbArc
 50
90.0
 51
138.747718
  0
ARC
  5
468
100
AcDbEntity
  8
LAY-1
  6
CONTINUOUS
 62
     3
100
AcDbCircle
 10
797.778571
 20
287.490612
 30
0.0
 40
4.593813
100
AcDbArc
 50
221.252282
 51
318.747718
  0
ARC
  5
469
100
AcDbEntity
  8
LAY-1
  6
CONTINUOUS
 62
     3
100
AcDbCircle
 10
793.798611
 20
284.0
 30
0.0
 40
0.7
100
AcDbArc
 50
41.252282
 51
90.0
  0
LINE
  5
46A
100
AcDbEntity
  8
LAY-1
  6
CONTINUOUS
 62
     3
100
AcDbLine
 10
801.232262
 20
381.938437
 30
0.0
 11
801.232262
 21
284.461563
 31
0.0
  0
LINE
  5
46B
100
AcDbEntity
  8
LAY-1
  6
CONTINUOUS
 62
     3
100
AcDbLine
 10
794.324881
 20
381.938437
 30
0.0
 11
794.324881
 21
284.461563
 31
0.0
  0
LINE
  5
46C
100
AcDbEntity
  8
LAY-1
  6
CONTINUOUS
 62
     3
100
AcDbLine
 10
801.758532
 20
381.7
 30
0.0
 11
807.978571
 21
381.7
 31
0.0
  0
LINE
  5
46D
100
AcDbEntity
  8
LAY-1
  6
CONTINUOUS
 62
     3
100
AcDbLine
 10
807.978571
 20
284.7
 30
0.0
 11
801.758532
 21
284.7
 31
0.0
  0
LINE
  5
46E
100
AcDbEntity
  8
LAY-1
  6
CONTINUOUS
 62
     3
100
AcDbLine
 10
784.258532
 20
381.7
 30
0.0
 11
793.798611
 21
381.7
 31
0.0
  0
LINE
  5
46F
100
AcDbEntity
  8
LAY-1
  6
CONTINUOUS
 62
     3
100
AcDbLine
 10
793.798611
 20
284.7
 30
0.0
 11
784.258532
 21
284.7
 31
0.0
  0
LINE
  5
470
100
AcDbEntity
  8
LAY-1
  6
EXLTYPE3
 62
     1
100
AcDbLine
 10
744.203691
 20
333.2
 30
0.0
 11
818.003691
 21
333.2
 31
0.0
  0
LINE
  5
471
100
AcDbEntity
  8
LAY-1
  6
CONTINUOUS
 62
     3
100
AcDbLine
 10
142.221429
 20
98.95
 30
0.0
 11
144.421429
 21
98.95
 31
0.0
  0
LINE
  5
472
100
AcDbEntity
  8
LAY-1
  6
CONTINUOUS
 62
     3
100
AcDbLine
 10
144.421429
 20
222.45
 30
0.0
 11
142.221429
 21
222.45
 31
0.0
  0
LINE
  5
473
100
AcDbEntity
  8
LAY-1
  6
CONTINUOUS
 62
     3
100
AcDbLine
 10
144.421429
 20
215.7
 30
0.0
 11
146.621429
 21
215.7
 31
0.0
  0
LINE
  5
474
100
AcDbEntity
  8
LAY-1
  6
CONTINUOUS
 62
     3
100
AcDbLine
 10
144.421429
 20
105.7
 30
0.0
 11
146.621429
 21
105.7
 31
0.0
  0
LINE
  5
475
100
AcDbEntity
  8
LAY-1
  6
CONTINUOUS
 62
     3
100
AcDbLine
 10
146.621429
 20
215.7
 30
0.0
 11
146.621429
 21
105.7
 31
0.0
  0
LINE
  5
476
100
AcDbEntity
  8
LAY-1
  6
CONTINUOUS
 62
     3
100
AcDbLine
 10
144.421429
 20
222.45
 30
0.0
 11
144.421429
 21
98.95
 31
0.0
  0
LINE
  5
477
100
AcDbEntity
  8
LAY-1
  6
CONTINUOUS
 62
     3
100
AcDbLine
 10
142.221429
 20
222.45
 30
0.0
 11
142.221429
 21
98.95
 31
0.0
  0
LINE
  5
478
100
AcDbEntity
  8
LAY-1
  6
CONTINUOUS
 62
     3
100
AcDbLine
 10
78.821429
 20
98.95
 30
0.0
 11
81.021429
 21
98.95
 31
0.0
  0
LINE
  5
479
100
AcDbEntity
  8
LAY-1
  6
CONTINUOUS
 62
     3
100
AcDbLine
 10
78.821429
 20
222.45
 30
0.0
 11
81.021429
 21
222.45
 31
0.0
  0
LINE
  5
47A
100
AcDbEntity
  8
LAY-1
  6
CONTINUOUS
 62
     3
100
AcDbLine
 10
76.621429
 20
215.7
 30
0.0
 11
78.821429
 21
215.7
 31
0.0
  0
LINE
  5
47B
100
AcDbEntity
  8
LAY-1
  6
CONTINUOUS
 62
     3
100
AcDbLine
 10
76.621429
 20
105.7
 30
0.0
 11
78.821429
 21
105.7
 31
0.0
  0
LINE
  5
47C
100
AcDbEntity
  8
LAY-1
  6
CONTINUOUS
 62
     3
100
AcDbLine
 10
76.621429
 20
215.7
 30
0.0
 11
76.621429
 21
105.7
 31
0.0
  0
LINE
  5
47D
100
AcDbEntity
  8
LAY-1
  6
CONTINUOUS
 62
     3
100
AcDbLine
 10
78.821429
 20
222.45
 30
0.0
 11
78.821429
 21
98.95
 31
0.0
  0
LINE
  5
47E
100
AcDbEntity
  8
LAY-1
  6
CONTINUOUS
 62
     3
100
AcDbLine
 10
81.021429
 20
222.45
 30
0.0
 11
81.021429
 21
98.95
 31
0.0
  0
ARC
  5
47F
100
AcDbEntity
  8
LAY-1
  6
CONTINUOUS
 62
     3
100
AcDbCircle
 10
107.641468
 20
215.4
 30
0.0
 40
0.7
100
AcDbArc
 50
270.0
 51
318.747718
  0
ARC
  5
480
100
AcDbEntity
  8
LAY-1
  6
CONTINUOUS
 62
     3
100
AcDbCircle
 10
111.621429
 20
211.909388
 30
0.0
 40
4.593813
100
AcDbArc
 50
41.252282
 51
138.747718
  0
ARC
  5
481
100
AcDbEntity
  8
LAY-1
  6
CONTINUOUS
 62
     3
100
AcDbCircle
 10
115.601389
 20
215.4
 30
0.0
 40
0.7
100
AcDbArc
 50
221.252282
 51
270.0
  0
ARC
  5
482
100
AcDbEntity
  8
LAY-1
  6
CONTINUOUS
 62
     3
100
AcDbCircle
 10
115.601389
 20
106.0
 30
0.0
 40
0.7
100
AcDbArc
 50
90.0
 51
138.747718
  0
ARC
  5
483
100
AcDbEntity
  8
LAY-1
  6
CONTINUOUS
 62
     3
100
AcDbCircle
 10
111.621429
 20
109.490612
 30
0.0
 40
4.593813
100
AcDbArc
 50
221.252282
 51
318.747718
  0
ARC
  5
484
100
AcDbEntity
  8
LAY-1
  6
CONTINUOUS
 62
     3
100
AcDbCircle
 10
107.641468
 20
106.0
 30
0.0
 40
0.7
100
AcDbArc
 50
41.252282
 51
90.0
  0
LINE
  5
485
100
AcDbEntity
  8
LAY-1
  6
CONTINUOUS
 62
     3
100
AcDbLine
 10
115.075119
 20
214.938437
 30
0.0
 11
115.075119
 21
106.461563
 31
0.0
  0
LINE
  5
486
100
AcDbEntity
  8
LAY-1
  6
CONTINUOUS
 62
     3
100
AcDbLine
 10
108.167738
 20
214.938437
 30
0.0
 11
108.167738
 21
106.461563
 31
0.0
  0
ARC
  5
487
100
AcDbEntity
  8
LAY-1
  6
CONTINUOUS
 62
     3
100
AcDbCircle
 10
90.141468
 20
215.4
 30
0.0
 40
0.7
100
AcDbArc
 50
270.0
 51
318.747718
  0
ARC
  5
488
100
AcDbEntity
  8
LAY-1
  6
CONTINUOUS
 62
     3
100
AcDbCircle
 10
94.121429
 20
211.909388
 30
0.0
 40
4.593813
100
AcDbArc
 50
41.252282
 51
138.747718
  0
ARC
  5
489
100
AcDbEntity
  8
LAY-1
  6
CONTINUOUS
 62
     3
100
AcDbCircle
 10
98.101389
 20
215.4
 30
0.0
 40
0.7
100
AcDbArc
 50
221.252282
 51
270.0
  0
LINE
  5
48A
100
AcDbEntity
  8
LAY-1
  6
CONTINUOUS
 62
     3
100
AcDbLine
 10
81.021429
 20
214.7
 30
0.0
 11
90.141468
 21
214.7
 31
0.0
  0
ARC
  5
48B
100
AcDbEntity
  8
LAY-1
  6
CONTINUOUS
 62
     3
100
AcDbCircle
 10
98.101389
 20
106.0
 30
0.0
 40
0.7
100
AcDbArc
 50
90.0
 51
138.747718
  0
ARC
  5
48C
100
AcDbEntity
  8
LAY-1
  6
CONTINUOUS
 62
     3
100
AcDbCircle
 10
94.121429
 20
109.490612
 30
0.0
 40
4.593813
100
AcDbArc
 50
221.252282
 51
318.747718
  0
ARC
  5
48D
100
AcDbEntity
  8
LAY-1
  6
CONTINUOUS
 62
     3
100
AcDbCircle
 10
90.141468
 20
106.0
 30
0.0
 40
0.7
100
AcDbArc
 50
41.252282
 51
90.0
  0
LINE
  5
48E
100
AcDbEntity
  8
LAY-1
  6
CONTINUOUS
 62
     3
100
AcDbLine
 10
90.141468
 20
106.7
 30
0.0
 11
81.021429
 21
106.7
 31
0.0
  0
LINE
  5
48F
100
AcDbEntity
  8
LAY-1
  6
CONTINUOUS
 62
     3
100
AcDbLine
 10
97.575119
 20
214.938437
 30
0.0
 11
97.575119
 21
106.461563
 31
0.0
  0
LINE
  5
490
100
AcDbEntity
  8
LAY-1
  6
CONTINUOUS
 62
     3
100
AcDbLine
 10
90.667738
 20
214.938437
 30
0.0
 11
90.667738
 21
106.461563
 31
0.0
  0
LINE
  5
491
100
AcDbEntity
  8
LAY-1
  6
CONTINUOUS
 62
     3
100
AcDbLine
 10
98.101389
 20
214.7
 30
0.0
 11
107.641468
 21
214.7
 31
0.0
  0
LINE
  5
492
100
AcDbEntity
  8
LAY-1
  6
CONTINUOUS
 62
     3
100
AcDbLine
 10
107.641468
 20
106.7
 30
0.0
 11
98.101389
 21
106.7
 31
0.0
  0
ARC
  5
493
100
AcDbEntity
  8
LAY-1
  6
CONTINUOUS
 62
     3
100
AcDbCircle
 10
125.141468
 20
215.4
 30
0.0
 40
0.7
100
AcDbArc
 50
270.0
 51
318.747718
  0
ARC
  5
494
100
AcDbEntity
  8
LAY-1
  6
CONTINUOUS
 62
     3
100
AcDbCircle
 10
129.121429
 20
211.909388
 30
0.0
 40
4.593813
100
AcDbArc
 50
41.252282
 51
138.747718
  0
ARC
  5
495
100
AcDbEntity
  8
LAY-1
  6
CONTINUOUS
 62
     3
100
AcDbCircle
 10
133.101389
 20
215.4
 30
0.0
 40
0.7
100
AcDbArc
 50
221.252282
 51
270.0
  0
ARC
  5
496
100
AcDbEntity
  8
LAY-1
  6
CONTINUOUS
 62
     3
100
AcDbCircle
 10
133.101389
 20
106.0
 30
0.0
 40
0.7
100
AcDbArc
 50
90.0
 51
138.747718
  0
ARC
  5
497
100
AcDbEntity
  8
LAY-1
  6
CONTINUOUS
 62
     3
100
AcDbCircle
 10
129.121429
 20
109.490612
 30
0.0
 40
4.593813
100
AcDbArc
 50
221.252282
 51
318.747718
  0
ARC
  5
498
100
AcDbEntity
  8
LAY-1
  6
CONTINUOUS
 62
     3
100
AcDbCircle
 10
125.141468
 20
106.0
 30
0.0
 40
0.7
100
AcDbArc
 50
41.252282
 51
90.0
  0
LINE
  5
499
100
AcDbEntity
  8
LAY-1
  6
CONTINUOUS
 62
     3
100
AcDbLine
 10
132.575119
 20
214.938437
 30
0.0
 11
132.575119
 21
106.461563
 31
0.0
  0
LINE
  5
49A
100
AcDbEntity
  8
LAY-1
  6
CONTINUOUS
 62
     3
100
AcDbLine
 10
125.667738
 20
214.938437
 30
0.0
 11
125.667738
 21
106.461563
 31
0.0
  0
LINE
  5
49B
100
AcDbEntity
  8
LAY-1
  6
CONTINUOUS
 62
     3
100
AcDbLine
 10
133.101389
 20
214.7
 30
0.0
 11
142.221429
 21
214.7
 31
0.0
  0
LINE
  5
49C
100
AcDbEntity
  8
LAY-1
  6
CONTINUOUS
 62
     3
100
AcDbLine
 10
142.221429
 20
106.7
 30
0.0
 11
133.101389
 21
106.7
 31
0.0
  0
LINE
  5
49D
100
AcDbEntity
  8
LAY-1
  6
CONTINUOUS
 62
     3
100
AcDbLine
 10
115.601389
 20
214.7
 30
0.0
 11
125.141468
 21
214.7
 31
0.0
  0
LINE
  5
49E
100
AcDbEntity
  8
LAY-1
  6
CONTINUOUS
 62
     3
100
AcDbLine
 10
125.141468
 20
106.7
 30
0.0
 11
115.601389
 21
106.7
 31
0.0
  0
LINE
  5
49F
100
AcDbEntity
  8
LAY-1
  6
EXLTYPE3
 62
     1
100
AcDbLine
 10
72.267738
 20
160.7
 30
0.0
 11
152.967738
 21
160.7
 31
0.0
  0
LINE
  5
4A0
100
AcDbEntity
  8
LAY-1
  6
CONTINUOUS
 62
     3
100
AcDbLine
 10
255.864286
 20
227.95
 30
0.0
 11
253.664286
 21
227.95
 31
0.0
  0
LINE
  5
4A1
100
AcDbEntity
  8
LAY-1
  6
CONTINUOUS
 62
     3
100
AcDbLine
 10
253.664286
 20
93.45
 30
0.0
 11
255.864286
 21
93.45
 31
0.0
  0
LINE
  5
4A2
100
AcDbEntity
  8
LAY-1
  6
CONTINUOUS
 62
     3
100
AcDbLine
 10
255.864286
 20
220.7
 30
0.0
 11
258.064286
 21
220.7
 31
0.0
  0
LINE
  5
4A3
100
AcDbEntity
  8
LAY-1
  6
CONTINUOUS
 62
     3
100
AcDbLine
 10
255.864286
 20
100.7
 30
0.0
 11
258.064286
 21
100.7
 31
0.0
  0
LINE
  5
4A4
100
AcDbEntity
  8
LAY-1
  6
CONTINUOUS
 62
     3
100
AcDbLine
 10
258.064286
 20
220.7
 30
0.0
 11
258.064286
 21
100.7
 31
0.0
  0
LINE
  5
4A5
100
AcDbEntity
  8
LAY-1
  6
CONTINUOUS
 62
     3
100
AcDbLine
 10
255.864286
 20
227.95
 30
0.0
 11
255.864286
 21
93.45
 31
0.0
  0
LINE
  5
4A6
100
AcDbEntity
  8
LAY-1
  6
CONTINUOUS
 62
     3
100
AcDbLine
 10
253.664286
 20
227.95
 30
0.0
 11
253.664286
 21
93.45
 31
0.0
  0
LINE
  5
4A7
100
AcDbEntity
  8
LAY-1
  6
CONTINUOUS
 62
     3
100
AcDbLine
 10
190.264286
 20
93.45
 30
0.0
 11
192.464286
 21
93.45
 31
0.0
  0
LINE
  5
4A8
100
AcDbEntity
  8
LAY-1
  6
CONTINUOUS
 62
     3
100
AcDbLine
 10
188.064286
 20
220.7
 30
0.0
 11
190.264286
 21
220.7
 31
0.0
  0
LINE
  5
4A9
100
AcDbEntity
  8
LAY-1
  6
CONTINUOUS
 62
     3
100
AcDbLine
 10
188.064286
 20
100.7
 30
0.0
 11
190.264286
 21
100.7
 31
0.0
  0
LINE
  5
4AA
100
AcDbEntity
  8
LAY-1
  6
CONTINUOUS
 62
     3
100
AcDbLine
 10
188.064286
 20
220.7
 30
0.0
 11
188.064286
 21
100.7
 31
0.0
  0
LINE
  5
4AB
100
AcDbEntity
  8
LAY-1
  6
CONTINUOUS
 62
     3
100
AcDbLine
 10
190.264286
 20
227.95
 30
0.0
 11
190.264286
 21
93.45
 31
0.0
  0
LINE
  5
4AC
100
AcDbEntity
  8
LAY-1
  6
CONTINUOUS
 62
     3
100
AcDbLine
 10
192.464286
 20
227.95
 30
0.0
 11
192.464286
 21
93.45
 31
0.0
  0
LINE
  5
4AD
100
AcDbEntity
  8
LAY-1
  6
CONTINUOUS
 62
     3
100
AcDbLine
 10
190.264286
 20
227.95
 30
0.0
 11
192.464286
 21
227.95
 31
0.0
  0
ARC
  5
4AE
100
AcDbEntity
  8
LAY-1
  6
CONTINUOUS
 62
     3
100
AcDbCircle
 10
219.084325
 20
220.4
 30
0.0
 40
0.7
100
AcDbArc
 50
270.0
 51
318.747718
  0
ARC
  5
4AF
100
AcDbEntity
  8
LAY-1
  6
CONTINUOUS
 62
     3
100
AcDbCircle
 10
223.064286
 20
216.909388
 30
0.0
 40
4.593813
100
AcDbArc
 50
41.252282
 51
138.747718
  0
ARC
  5
4B0
100
AcDbEntity
  8
LAY-1
  6
CONTINUOUS
 62
     3
100
AcDbCircle
 10
227.044246
 20
220.4
 30
0.0
 40
0.7
100
AcDbArc
 50
221.252282
 51
270.0
  0
ARC
  5
4B1
100
AcDbEntity
  8
LAY-1
  6
CONTINUOUS
 62
     3
100
AcDbCircle
 10
227.044246
 20
101.0
 30
0.0
 40
0.7
100
AcDbArc
 50
90.0
 51
138.747718
  0
ARC
  5
4B2
100
AcDbEntity
  8
LAY-1
  6
CONTINUOUS
 62
     3
100
AcDbCircle
 10
223.064286
 20
104.490612
 30
0.0
 40
4.593813
100
AcDbArc
 50
221.252282
 51
318.747718
  0
ARC
  5
4B3
100
AcDbEntity
  8
LAY-1
  6
CONTINUOUS
 62
     3
100
AcDbCircle
 10
219.084325
 20
101.0
 30
0.0
 40
0.7
100
AcDbArc
 50
41.252282
 51
90.0
  0
LINE
  5
4B4
100
AcDbEntity
  8
LAY-1
  6
CONTINUOUS
 62
     3
100
AcDbLine
 10
226.517977
 20
219.938437
 30
0.0
 11
226.517977
 21
101.461563
 31
0.0
  0
LINE
  5
4B5
100
AcDbEntity
  8
LAY-1
  6
CONTINUOUS
 62
     3
100
AcDbLine
 10
219.610595
 20
219.938437
 30
0.0
 11
219.610595
 21
101.461563
 31
0.0
  0
ARC
  5
4B6
100
AcDbEntity
  8
LAY-1
  6
CONTINUOUS
 62
     3
100
AcDbCircle
 10
201.584325
 20
220.4
 30
0.0
 40
0.7
100
AcDbArc
 50
270.0
 51
318.747718
  0
ARC
  5
4B7
100
AcDbEntity
  8
LAY-1
  6
CONTINUOUS
 62
     3
100
AcDbCircle
 10
205.564286
 20
216.909388
 30
0.0
 40
4.593813
100
AcDbArc
 50
41.252282
 51
138.747718
  0
ARC
  5
4B8
100
AcDbEntity
  8
LAY-1
  6
CONTINUOUS
 62
     3
100
AcDbCircle
 10
209.544246
 20
220.4
 30
0.0
 40
0.7
100
AcDbArc
 50
221.252282
 51
270.0
  0
ARC
  5
4B9
100
AcDbEntity
  8
LAY-1
  6
CONTINUOUS
 62
     3
100
AcDbCircle
 10
209.544246
 20
101.0
 30
0.0
 40
0.7
100
AcDbArc
 50
90.0
 51
138.747718
  0
ARC
  5
4BA
100
AcDbEntity
  8
LAY-1
  6
CONTINUOUS
 62
     3
100
AcDbCircle
 10
205.564286
 20
104.490612
 30
0.0
 40
4.593813
100
AcDbArc
 50
221.252282
 51
318.747718
  0
ARC
  5
4BB
100
AcDbEntity
  8
LAY-1
  6
CONTINUOUS
 62
     3
100
AcDbCircle
 10
201.584325
 20
101.0
 30
0.0
 40
0.7
100
AcDbArc
 50
41.252282
 51
90.0
  0
LINE
  5
4BC
100
AcDbEntity
  8
LAY-1
  6
CONTINUOUS
 62
     3
100
AcDbLine
 10
209.017977
 20
219.938437
 30
0.0
 11
209.017977
 21
101.461563
 31
0.0
  0
LINE
  5
4BD
100
AcDbEntity
  8
LAY-1
  6
CONTINUOUS
 62
     3
100
AcDbLine
 10
202.110595
 20
219.938437
 30
0.0
 11
202.110595
 21
101.461563
 31
0.0
  0
LINE
  5
4BE
100
AcDbEntity
  8
LAY-1
  6
CONTINUOUS
 62
     3
100
AcDbLine
 10
192.464286
 20
219.7
 30
0.0
 11
201.584325
 21
219.7
 31
0.0
  0
LINE
  5
4BF
100
AcDbEntity
  8
LAY-1
  6
CONTINUOUS
 62
     3
100
AcDbLine
 10
201.584325
 20
101.7
 30
0.0
 11
192.464286
 21
101.7
 31
0.0
  0
LINE
  5
4C0
100
AcDbEntity
  8
LAY-1
  6
CONTINUOUS
 62
     3
100
AcDbLine
 10
209.544246
 20
219.7
 30
0.0
 11
219.084325
 21
219.7
 31
0.0
  0
LINE
  5
4C1
100
AcDbEntity
  8
LAY-1
  6
CONTINUOUS
 62
     3
100
AcDbLine
 10
219.084325
 20
101.7
 30
0.0
 11
209.544246
 21
101.7
 31
0.0
  0
ARC
  5
4C2
100
AcDbEntity
  8
LAY-1
  6
CONTINUOUS
 62
     3
100
AcDbCircle
 10
236.584325
 20
220.4
 30
0.0
 40
0.7
100
AcDbArc
 50
270.0
 51
318.747718
  0
ARC
  5
4C3
100
AcDbEntity
  8
LAY-1
  6
CONTINUOUS
 62
     3
100
AcDbCircle
 10
240.564286
 20
216.909388
 30
0.0
 40
4.593813
100
AcDbArc
 50
41.252282
 51
138.747718
  0
ARC
  5
4C4
100
AcDbEntity
  8
LAY-1
  6
CONTINUOUS
 62
     3
100
AcDbCircle
 10
244.544246
 20
220.4
 30
0.0
 40
0.7
100
AcDbArc
 50
221.252282
 51
270.0
  0
LINE
  5
4C5
100
AcDbEntity
  8
LAY-1
  6
CONTINUOUS
 62
     3
100
AcDbLine
 10
244.544246
 20
219.7
 30
0.0
 11
253.664286
 21
219.7
 31
0.0
  0
ARC
  5
4C6
100
AcDbEntity
  8
LAY-1
  6
CONTINUOUS
 62
     3
100
AcDbCircle
 10
244.544246
 20
101.0
 30
0.0
 40
0.7
100
AcDbArc
 50
90.0
 51
138.747718
  0
ARC
  5
4C7
100
AcDbEntity
  8
LAY-1
  6
CONTINUOUS
 62
     3
100
AcDbCircle
 10
240.564286
 20
104.490612
 30
0.0
 40
4.593813
100
AcDbArc
 50
221.252282
 51
318.747718
  0
ARC
  5
4C8
100
AcDbEntity
  8
LAY-1
  6
CONTINUOUS
 62
     3
100
AcDbCircle
 10
236.584325
 20
101.0
 30
0.0
 40
0.7
100
AcDbArc
 50
41.252282
 51
90.0
  0
LINE
  5
4C9
100
AcDbEntity
  8
LAY-1
  6
CONTINUOUS
 62
     3
100
AcDbLine
 10
253.664286
 20
101.7
 30
0.0
 11
244.544246
 21
101.7
 31
0.0
  0
LINE
  5
4CA
100
AcDbEntity
  8
LAY-1
  6
CONTINUOUS
 62
     3
100
AcDbLine
 10
244.017977
 20
219.938437
 30
0.0
 11
244.017977
 21
101.461563
 31
0.0
  0
LINE
  5
4CB
100
AcDbEntity
  8
LAY-1
  6
CONTINUOUS
 62
     3
100
AcDbLine
 10
237.110595
 20
219.938437
 30
0.0
 11
237.110595
 21
101.461563
 31
0.0
  0
LINE
  5
4CC
100
AcDbEntity
  8
LAY-1
  6
CONTINUOUS
 62
     3
100
AcDbLine
 10
227.044246
 20
219.7
 30
0.0
 11
236.584325
 21
219.7
 31
0.0
  0
LINE
  5
4CD
100
AcDbEntity
  8
LAY-1
  6
CONTINUOUS
 62
     3
100
AcDbLine
 10
236.584325
 20
101.7
 30
0.0
 11
227.044246
 21
101.7
 31
0.0
  0
LINE
  5
4CE
100
AcDbEntity
  8
LAY-1
  6
EXLTYPE3
 62
     1
100
AcDbLine
 10
184.546309
 20
160.7
 30
0.0
 11
260.746309
 21
160.7
 31
0.0
  0
LINE
  5
4CF
100
AcDbEntity
  8
LAY-1
  6
CONTINUOUS
 62
     3
100
AcDbLine
 10
365.107143
 20
233.95
 30
0.0
 11
365.107143
 21
87.45
 31
0.0
  0
LINE
  5
4D0
100
AcDbEntity
  8
LAY-1
  6
CONTINUOUS
 62
     3
100
AcDbLine
 10
367.307143
 20
233.95
 30
0.0
 11
367.307143
 21
87.45
 31
0.0
  0
LINE
  5
4D1
100
AcDbEntity
  8
LAY-1
  6
CONTINUOUS
 62
     3
100
AcDbLine
 10
369.507143
 20
225.7
 30
0.0
 11
369.507143
 21
95.7
 31
0.0
  0
LINE
  5
4D2
100
AcDbEntity
  8
LAY-1
  6
CONTINUOUS
 62
     3
100
AcDbLine
 10
367.307143
 20
95.7
 30
0.0
 11
369.507143
 21
95.7
 31
0.0
  0
LINE
  5
4D3
100
AcDbEntity
  8
LAY-1
  6
CONTINUOUS
 62
     3
100
AcDbLine
 10
367.307143
 20
225.7
 30
0.0
 11
369.507143
 21
225.7
 31
0.0
  0
LINE
  5
4D4
100
AcDbEntity
  8
LAY-1
  6
CONTINUOUS
 62
     3
100
AcDbLine
 10
365.107143
 20
87.45
 30
0.0
 11
367.307143
 21
87.45
 31
0.0
  0
LINE
  5
4D5
100
AcDbEntity
  8
LAY-1
  6
CONTINUOUS
 62
     3
100
AcDbLine
 10
367.307143
 20
233.95
 30
0.0
 11
365.107143
 21
233.95
 31
0.0
  0
LINE
  5
4D6
100
AcDbEntity
  8
LAY-1
  6
CONTINUOUS
 62
     3
100
AcDbLine
 10
303.907143
 20
233.95
 30
0.0
 11
303.907143
 21
87.45
 31
0.0
  0
LINE
  5
4D7
100
AcDbEntity
  8
LAY-1
  6
CONTINUOUS
 62
     3
100
AcDbLine
 10
301.707143
 20
233.95
 30
0.0
 11
301.707143
 21
87.45
 31
0.0
  0
LINE
  5
4D8
100
AcDbEntity
  8
LAY-1
  6
CONTINUOUS
 62
     3
100
AcDbLine
 10
299.507143
 20
225.7
 30
0.0
 11
299.507143
 21
95.7
 31
0.0
  0
LINE
  5
4D9
100
AcDbEntity
  8
LAY-1
  6
CONTINUOUS
 62
     3
100
AcDbLine
 10
299.507143
 20
95.7
 30
0.0
 11
301.707143
 21
95.7
 31
0.0
  0
LINE
  5
4DA
100
AcDbEntity
  8
LAY-1
  6
CONTINUOUS
 62
     3
100
AcDbLine
 10
299.507143
 20
225.7
 30
0.0
 11
301.707143
 21
225.7
 31
0.0
  0
LINE
  5
4DB
100
AcDbEntity
  8
LAY-1
  6
CONTINUOUS
 62
     3
100
AcDbLine
 10
301.707143
 20
87.45
 30
0.0
 11
303.907143
 21
87.45
 31
0.0
  0
LINE
  5
4DC
100
AcDbEntity
  8
LAY-1
  6
CONTINUOUS
 62
     3
100
AcDbLine
 10
301.707143
 20
233.95
 30
0.0
 11
303.907143
 21
233.95
 31
0.0
  0
LINE
  5
4DD
100
AcDbEntity
  8
LAY-1
  6
CONTINUOUS
 62
     3
100
AcDbLine
 10
331.053452
 20
224.938437
 30
0.0
 11
331.053452
 21
96.461563
 31
0.0
  0
LINE
  5
4DE
100
AcDbEntity
  8
LAY-1
  6
CONTINUOUS
 62
     3
100
AcDbLine
 10
337.960834
 20
224.938437
 30
0.0
 11
337.960834
 21
96.461563
 31
0.0
  0
ARC
  5
4DF
100
AcDbEntity
  8
LAY-1
  6
CONTINUOUS
 62
     3
100
AcDbCircle
 10
330.527182
 20
96.0
 30
0.0
 40
0.7
100
AcDbArc
 50
41.252282
 51
90.0
  0
ARC
  5
4E0
100
AcDbEntity
  8
LAY-1
  6
CONTINUOUS
 62
     3
100
AcDbCircle
 10
334.507143
 20
99.490612
 30
0.0
 40
4.593813
100
AcDbArc
 50
221.252282
 51
318.747718
  0
ARC
  5
4E1
100
AcDbEntity
  8
LAY-1
  6
CONTINUOUS
 62
     3
100
AcDbCircle
 10
338.487103
 20
96.0
 30
0.0
 40
0.7
100
AcDbArc
 50
90.0
 51
138.747718
  0
ARC
  5
4E2
100
AcDbEntity
  8
LAY-1
  6
CONTINUOUS
 62
     3
100
AcDbCircle
 10
338.487103
 20
225.4
 30
0.0
 40
0.7
100
AcDbArc
 50
221.252282
 51
270.0
  0
ARC
  5
4E3
100
AcDbEntity
  8
LAY-1
  6
CONTINUOUS
 62
     3
100
AcDbCircle
 10
334.507143
 20
221.909388
 30
0.0
 40
4.593813
100
AcDbArc
 50
41.252282
 51
138.747718
  0
ARC
  5
4E4
100
AcDbEntity
  8
LAY-1
  6
CONTINUOUS
 62
     3
100
AcDbCircle
 10
330.527182
 20
225.4
 30
0.0
 40
0.7
100
AcDbArc
 50
270.0
 51
318.747718
  0
LINE
  5
4E5
100
AcDbEntity
  8
LAY-1
  6
CONTINUOUS
 62
     3
100
AcDbLine
 10
476.55
 20
242.2
 30
0.0
 11
476.55
 21
79.2
 31
0.0
  0
LINE
  5
4E6
100
AcDbEntity
  8
LAY-1
  6
CONTINUOUS
 62
     3
100
AcDbLine
 10
478.75
 20
242.2
 30
0.0
 11
478.75
 21
79.2
 31
0.0
  0
LINE
  5
4E7
100
AcDbEntity
  8
LAY-1
  6
CONTINUOUS
 62
     3
100
AcDbLine
 10
480.95
 20
233.2
 30
0.0
 11
480.95
 21
88.2
 31
0.0
  0
LINE
  5
4E8
100
AcDbEntity
  8
LAY-1
  6
CONTINUOUS
 62
     3
100
AcDbLine
 10
478.75
 20
88.2
 30
0.0
 11
480.95
 21
88.2
 31
0.0
  0
LINE
  5
4E9
100
AcDbEntity
  8
LAY-1
  6
CONTINUOUS
 62
     3
100
AcDbLine
 10
478.75
 20
233.2
 30
0.0
 11
480.95
 21
233.2
 31
0.0
  0
LINE
  5
4EA
100
AcDbEntity
  8
LAY-1
  6
CONTINUOUS
 62
     3
100
AcDbLine
 10
476.55
 20
79.2
 30
0.0
 11
478.75
 21
79.2
 31
0.0
  0
LINE
  5
4EB
100
AcDbEntity
  8
LAY-1
  6
CONTINUOUS
 62
     3
100
AcDbLine
 10
478.75
 20
242.2
 30
0.0
 11
476.55
 21
242.2
 31
0.0
  0
LINE
  5
4EC
100
AcDbEntity
  8
LAY-1
  6
CONTINUOUS
 62
     3
100
AcDbLine
 10
415.35
 20
242.2
 30
0.0
 11
415.35
 21
79.2
 31
0.0
  0
LINE
  5
4ED
100
AcDbEntity
  8
LAY-1
  6
CONTINUOUS
 62
     3
100
AcDbLine
 10
413.15
 20
242.2
 30
0.0
 11
413.15
 21
79.2
 31
0.0
  0
LINE
  5
4EE
100
AcDbEntity
  8
LAY-1
  6
CONTINUOUS
 62
     3
100
AcDbLine
 10
410.95
 20
233.2
 30
0.0
 11
410.95
 21
88.2
 31
0.0
  0
LINE
  5
4EF
100
AcDbEntity
  8
LAY-1
  6
CONTINUOUS
 62
     3
100
AcDbLine
 10
410.95
 20
88.2
 30
0.0
 11
413.15
 21
88.2
 31
0.0
  0
LINE
  5
4F0
100
AcDbEntity
  8
LAY-1
  6
CONTINUOUS
 62
     3
100
AcDbLine
 10
410.95
 20
233.2
 30
0.0
 11
413.15
 21
233.2
 31
0.0
  0
LINE
  5
4F1
100
AcDbEntity
  8
LAY-1
  6
CONTINUOUS
 62
     3
100
AcDbLine
 10
413.15
 20
79.2
 30
0.0
 11
415.35
 21
79.2
 31
0.0
  0
LINE
  5
4F2
100
AcDbEntity
  8
LAY-1
  6
CONTINUOUS
 62
     3
100
AcDbLine
 10
413.15
 20
242.2
 30
0.0
 11
415.35
 21
242.2
 31
0.0
  0
LINE
  5
4F3
100
AcDbEntity
  8
LAY-1
  6
CONTINUOUS
 62
     3
100
AcDbLine
 10
442.496309
 20
232.438437
 30
0.0
 11
442.496309
 21
88.961563
 31
0.0
  0
LINE
  5
4F4
100
AcDbEntity
  8
LAY-1
  6
CONTINUOUS
 62
     3
100
AcDbLine
 10
449.403691
 20
232.438437
 30
0.0
 11
449.403691
 21
88.961563
 31
0.0
  0
ARC
  5
4F5
100
AcDbEntity
  8
LAY-1
  6
CONTINUOUS
 62
     3
100
AcDbCircle
 10
441.97004
 20
88.5
 30
0.0
 40
0.7
100
AcDbArc
 50
41.252282
 51
90.0
  0
ARC
  5
4F6
100
AcDbEntity
  8
LAY-1
  6
CONTINUOUS
 62
     3
100
AcDbCircle
 10
445.95
 20
91.990612
 30
0.0
 40
4.593813
100
AcDbArc
 50
221.252282
 51
318.747718
  0
ARC
  5
4F7
100
AcDbEntity
  8
LAY-1
  6
CONTINUOUS
 62
     3
100
AcDbCircle
 10
449.92996
 20
88.5
 30
0.0
 40
0.7
100
AcDbArc
 50
90.0
 51
138.747718
  0
ARC
  5
4F8
100
AcDbEntity
  8
LAY-1
  6
CONTINUOUS
 62
     3
100
AcDbCircle
 10
449.92996
 20
232.9
 30
0.0
 40
0.7
100
AcDbArc
 50
221.252282
 51
270.0
  0
ARC
  5
4F9
100
AcDbEntity
  8
LAY-1
  6
CONTINUOUS
 62
     3
100
AcDbCircle
 10
445.95
 20
229.409388
 30
0.0
 40
4.593813
100
AcDbArc
 50
41.252282
 51
138.747718
  0
ARC
  5
4FA
100
AcDbEntity
  8
LAY-1
  6
CONTINUOUS
 62
     3
100
AcDbCircle
 10
441.97004
 20
232.9
 30
0.0
 40
0.7
100
AcDbArc
 50
270.0
 51
318.747718
  0
LINE
  5
4FB
100
AcDbEntity
  8
LAY-1
  6
CONTINUOUS
 62
     3
100
AcDbLine
 10
424.996309
 20
232.438437
 30
0.0
 11
424.996309
 21
88.961563
 31
0.0
  0
LINE
  5
4FC
100
AcDbEntity
  8
LAY-1
  6
CONTINUOUS
 62
     3
100
AcDbLine
 10
431.903691
 20
232.438437
 30
0.0
 11
431.903691
 21
88.961563
 31
0.0
  0
LINE
  5
4FD
100
AcDbEntity
  8
LAY-1
  6
CONTINUOUS
 62
     3
100
AcDbLine
 10
424.47004
 20
89.2
 30
0.0
 11
415.35
 21
89.2
 31
0.0
  0
ARC
  5
4FE
100
AcDbEntity
  8
LAY-1
  6
CONTINUOUS
 62
     3
100
AcDbCircle
 10
424.47004
 20
88.5
 30
0.0
 40
0.7
100
AcDbArc
 50
41.252282
 51
90.0
  0
ARC
  5
4FF
100
AcDbEntity
  8
LAY-1
  6
CONTINUOUS
 62
     3
100
AcDbCircle
 10
428.45
 20
91.990612
 30
0.0
 40
4.593813
100
AcDbArc
 50
221.252282
 51
318.747718
  0
ARC
  5
500
100
AcDbEntity
  8
LAY-1
  6
CONTINUOUS
 62
     3
100
AcDbCircle
 10
432.42996
 20
88.5
 30
0.0
 40
0.7
100
AcDbArc
 50
90.0
 51
138.747718
  0
LINE
  5
501
100
AcDbEntity
  8
LAY-1
  6
CONTINUOUS
 62
     3
100
AcDbLine
 10
415.35
 20
232.2
 30
0.0
 11
424.47004
 21
232.2
 31
0.0
  0
ARC
  5
502
100
AcDbEntity
  8
LAY-1
  6
CONTINUOUS
 62
     3
100
AcDbCircle
 10
432.42996
 20
232.9
 30
0.0
 40
0.7
100
AcDbArc
 50
221.252282
 51
270.0
  0
ARC
  5
503
100
AcDbEntity
  8
LAY-1
  6
CONTINUOUS
 62
     3
100
AcDbCircle
 10
428.45
 20
229.409388
 30
0.0
 40
4.593813
100
AcDbArc
 50
41.252282
 51
138.747718
  0
ARC
  5
504
100
AcDbEntity
  8
LAY-1
  6
CONTINUOUS
 62
     3
100
AcDbCircle
 10
424.47004
 20
232.9
 30
0.0
 40
0.7
100
AcDbArc
 50
270.0
 51
318.747718
  0
LINE
  5
505
100
AcDbEntity
  8
LAY-1
  6
CONTINUOUS
 62
     3
100
AcDbLine
 10
432.42996
 20
232.2
 30
0.0
 11
441.97004
 21
232.2
 31
0.0
  0
LINE
  5
506
100
AcDbEntity
  8
LAY-1
  6
CONTINUOUS
 62
     3
100
AcDbLine
 10
441.97004
 20
89.2
 30
0.0
 11
432.42996
 21
89.2
 31
0.0
  0
LINE
  5
507
100
AcDbEntity
  8
LAY-1
  6
CONTINUOUS
 62
     3
100
AcDbLine
 10
459.996309
 20
232.438437
 30
0.0
 11
459.996309
 21
88.961563
 31
0.0
  0
LINE
  5
508
100
AcDbEntity
  8
LAY-1
  6
CONTINUOUS
 62
     3
100
AcDbLine
 10
466.903691
 20
232.438437
 30
0.0
 11
466.903691
 21
88.961563
 31
0.0
  0
ARC
  5
509
100
AcDbEntity
  8
LAY-1
  6
CONTINUOUS
 62
     3
100
AcDbCircle
 10
459.47004
 20
88.5
 30
0.0
 40
0.7
100
AcDbArc
 50
41.252282
 51
90.0
  0
ARC
  5
50A
100
AcDbEntity
  8
LAY-1
  6
CONTINUOUS
 62
     3
100
AcDbCircle
 10
463.45
 20
91.990612
 30
0.0
 40
4.593813
100
AcDbArc
 50
221.252282
 51
318.747718
  0
ARC
  5
50B
100
AcDbEntity
  8
LAY-1
  6
CONTINUOUS
 62
     3
100
AcDbCircle
 10
467.42996
 20
88.5
 30
0.0
 40
0.7
100
AcDbArc
 50
90.0
 51
138.747718
  0
ARC
  5
50C
100
AcDbEntity
  8
LAY-1
  6
CONTINUOUS
 62
     3
100
AcDbCircle
 10
467.42996
 20
232.9
 30
0.0
 40
0.7
100
AcDbArc
 50
221.252282
 51
270.0
  0
ARC
  5
50D
100
AcDbEntity
  8
LAY-1
  6
CONTINUOUS
 62
     3
100
AcDbCircle
 10
463.45
 20
229.409388
 30
0.0
 40
4.593813
100
AcDbArc
 50
41.252282
 51
138.747718
  0
ARC
  5
50E
100
AcDbEntity
  8
LAY-1
  6
CONTINUOUS
 62
     3
100
AcDbCircle
 10
459.47004
 20
232.9
 30
0.0
 40
0.7
100
AcDbArc
 50
270.0
 51
318.747718
  0
LINE
  5
50F
100
AcDbEntity
  8
LAY-1
  6
CONTINUOUS
 62
     3
100
AcDbLine
 10
467.42996
 20
232.2
 30
0.0
 11
476.55
 21
232.2
 31
0.0
  0
LINE
  5
510
100
AcDbEntity
  8
LAY-1
  6
CONTINUOUS
 62
     3
100
AcDbLine
 10
476.55
 20
89.2
 30
0.0
 11
467.42996
 21
89.2
 31
0.0
  0
LINE
  5
511
100
AcDbEntity
  8
LAY-1
  6
CONTINUOUS
 62
     3
100
AcDbLine
 10
449.92996
 20
232.2
 30
0.0
 11
459.47004
 21
232.2
 31
0.0
  0
LINE
  5
512
100
AcDbEntity
  8
LAY-1
  6
CONTINUOUS
 62
     3
100
AcDbLine
 10
459.47004
 20
89.2
 30
0.0
 11
449.92996
 21
89.2
 31
0.0
  0
LINE
  5
513
100
AcDbEntity
  8
LAY-1
  6
EXLTYPE3
 62
     1
100
AcDbLine
 10
408.439166
 20
160.7
 30
0.0
 11
484.939166
 21
160.7
 31
0.0
  0
LINE
  5
514
100
AcDbEntity
  8
LAY-1
  6
CONTINUOUS
 62
     3
100
AcDbLine
 10
313.553452
 20
224.938437
 30
0.0
 11
313.553452
 21
96.461563
 31
0.0
  0
LINE
  5
515
100
AcDbEntity
  8
LAY-1
  6
CONTINUOUS
 62
     3
100
AcDbLine
 10
320.460834
 20
224.938437
 30
0.0
 11
320.460834
 21
96.461563
 31
0.0
  0
ARC
  5
516
100
AcDbEntity
  8
LAY-1
  6
CONTINUOUS
 62
     3
100
AcDbCircle
 10
313.027182
 20
96.0
 30
0.0
 40
0.7
100
AcDbArc
 50
41.252282
 51
90.0
  0
ARC
  5
517
100
AcDbEntity
  8
LAY-1
  6
CONTINUOUS
 62
     3
100
AcDbCircle
 10
317.007143
 20
99.490612
 30
0.0
 40
4.593813
100
AcDbArc
 50
221.252282
 51
318.747718
  0
ARC
  5
518
100
AcDbEntity
  8
LAY-1
  6
CONTINUOUS
 62
     3
100
AcDbCircle
 10
320.987103
 20
96.0
 30
0.0
 40
0.7
100
AcDbArc
 50
90.0
 51
138.747718
  0
ARC
  5
519
100
AcDbEntity
  8
LAY-1
  6
CONTINUOUS
 62
     3
100
AcDbCircle
 10
320.987103
 20
225.4
 30
0.0
 40
0.7
100
AcDbArc
 50
221.252282
 51
270.0
  0
ARC
  5
51A
100
AcDbEntity
  8
LAY-1
  6
CONTINUOUS
 62
     3
100
AcDbCircle
 10
317.007143
 20
221.909388
 30
0.0
 40
4.593813
100
AcDbArc
 50
41.252282
 51
138.747718
  0
ARC
  5
51B
100
AcDbEntity
  8
LAY-1
  6
CONTINUOUS
 62
     3
100
AcDbCircle
 10
313.027182
 20
225.4
 30
0.0
 40
0.7
100
AcDbArc
 50
270.0
 51
318.747718
  0
LINE
  5
51C
100
AcDbEntity
  8
LAY-1
  6
CONTINUOUS
 62
     3
100
AcDbLine
 10
303.907143
 20
224.7
 30
0.0
 11
313.027182
 21
224.7
 31
0.0
  0
LINE
  5
51D
100
AcDbEntity
  8
LAY-1
  6
CONTINUOUS
 62
     3
100
AcDbLine
 10
313.027182
 20
96.7
 30
0.0
 11
303.907143
 21
96.7
 31
0.0
  0
LINE
  5
51E
100
AcDbEntity
  8
LAY-1
  6
CONTINUOUS
 62
     3
100
AcDbLine
 10
320.987103
 20
224.7
 30
0.0
 11
330.527182
 21
224.7
 31
0.0
  0
LINE
  5
51F
100
AcDbEntity
  8
LAY-1
  6
CONTINUOUS
 62
     3
100
AcDbLine
 10
330.527182
 20
96.7
 30
0.0
 11
320.987103
 21
96.7
 31
0.0
  0
LINE
  5
520
100
AcDbEntity
  8
LAY-1
  6
CONTINUOUS
 62
     3
100
AcDbLine
 10
348.553452
 20
224.938437
 30
0.0
 11
348.553452
 21
96.461563
 31
0.0
  0
LINE
  5
521
100
AcDbEntity
  8
LAY-1
  6
CONTINUOUS
 62
     3
100
AcDbLine
 10
355.460834
 20
224.938437
 30
0.0
 11
355.460834
 21
96.461563
 31
0.0
  0
LINE
  5
522
100
AcDbEntity
  8
LAY-1
  6
CONTINUOUS
 62
     3
100
AcDbLine
 10
365.107143
 20
96.7
 30
0.0
 11
355.987103
 21
96.7
 31
0.0
  0
ARC
  5
523
100
AcDbEntity
  8
LAY-1
  6
CONTINUOUS
 62
     3
100
AcDbCircle
 10
348.027182
 20
96.0
 30
0.0
 40
0.7
100
AcDbArc
 50
41.252282
 51
90.0
  0
ARC
  5
524
100
AcDbEntity
  8
LAY-1
  6
CONTINUOUS
 62
     3
100
AcDbCircle
 10
352.007143
 20
99.490612
 30
0.0
 40
4.593813
100
AcDbArc
 50
221.252282
 51
318.747718
  0
ARC
  5
525
100
AcDbEntity
  8
LAY-1
  6
CONTINUOUS
 62
     3
100
AcDbCircle
 10
355.987103
 20
96.0
 30
0.0
 40
0.7
100
AcDbArc
 50
90.0
 51
138.747718
  0
LINE
  5
526
100
AcDbEntity
  8
LAY-1
  6
CONTINUOUS
 62
     3
100
AcDbLine
 10
355.987103
 20
224.7
 30
0.0
 11
365.107143
 21
224.7
 31
0.0
  0
ARC
  5
527
100
AcDbEntity
  8
LAY-1
  6
CONTINUOUS
 62
     3
100
AcDbCircle
 10
355.987103
 20
225.4
 30
0.0
 40
0.7
100
AcDbArc
 50
221.252282
 51
270.0
  0
ARC
  5
528
100
AcDbEntity
  8
LAY-1
  6
CONTINUOUS
 62
     3
100
AcDbCircle
 10
352.007143
 20
221.909388
 30
0.0
 40
4.593813
100
AcDbArc
 50
41.252282
 51
138.747718
  0
ARC
  5
529
100
AcDbEntity
  8
LAY-1
  6
CONTINUOUS
 62
     3
100
AcDbCircle
 10
348.027182
 20
225.4
 30
0.0
 40
0.7
100
AcDbArc
 50
270.0
 51
318.747718
  0
LINE
  5
52A
100
AcDbEntity
  8
LAY-1
  6
CONTINUOUS
 62
     3
100
AcDbLine
 10
338.487103
 20
224.7
 30
0.0
 11
348.027182
 21
224.7
 31
0.0
  0
LINE
  5
52B
100
AcDbEntity
  8
LAY-1
  6
CONTINUOUS
 62
     3
100
AcDbLine
 10
348.027182
 20
96.7
 30
0.0
 11
338.487103
 21
96.7
 31
0.0
  0
LINE
  5
52C
100
AcDbEntity
  8
LAY-1
  6
EXLTYPE3
 62
     1
100
AcDbLine
 10
294.446309
 20
160.7
 30
0.0
 11
373.546309
 21
160.7
 31
0.0
  0
LINE
  5
52D
100
AcDbEntity
  8
LAY-1
  6
CONTINUOUS
 62
     3
100
AcDbLine
 10
590.492857
 20
250.45
 30
0.0
 11
590.492857
 21
70.95
 31
0.0
  0
LINE
  5
52E
100
AcDbEntity
  8
LAY-1
  6
CONTINUOUS
 62
     3
100
AcDbLine
 10
592.692857
 20
250.45
 30
0.0
 11
592.692857
 21
70.95
 31
0.0
  0
LINE
  5
52F
100
AcDbEntity
  8
LAY-1
  6
CONTINUOUS
 62
     3
100
AcDbLine
 10
594.892857
 20
242.2
 30
0.0
 11
594.892857
 21
79.2
 31
0.0
  0
LINE
  5
530
100
AcDbEntity
  8
LAY-1
  6
CONTINUOUS
 62
     3
100
AcDbLine
 10
592.692857
 20
79.2
 30
0.0
 11
594.892857
 21
79.2
 31
0.0
  0
LINE
  5
531
100
AcDbEntity
  8
LAY-1
  6
CONTINUOUS
 62
     3
100
AcDbLine
 10
592.692857
 20
242.2
 30
0.0
 11
594.892857
 21
242.2
 31
0.0
  0
LINE
  5
532
100
AcDbEntity
  8
LAY-1
  6
CONTINUOUS
 62
     3
100
AcDbLine
 10
590.492857
 20
70.95
 30
0.0
 11
592.692857
 21
70.95
 31
0.0
  0
LINE
  5
533
100
AcDbEntity
  8
LAY-1
  6
CONTINUOUS
 62
     3
100
AcDbLine
 10
592.692857
 20
250.45
 30
0.0
 11
590.492857
 21
250.45
 31
0.0
  0
LINE
  5
534
100
AcDbEntity
  8
LAY-1
  6
CONTINUOUS
 62
     3
100
AcDbLine
 10
524.292857
 20
250.45
 30
0.0
 11
524.292857
 21
70.95
 31
0.0
  0
LINE
  5
535
100
AcDbEntity
  8
LAY-1
  6
CONTINUOUS
 62
     3
100
AcDbLine
 10
522.092857
 20
250.45
 30
0.0
 11
522.092857
 21
70.95
 31
0.0
  0
LINE
  5
536
100
AcDbEntity
  8
LAY-1
  6
CONTINUOUS
 62
     3
100
AcDbLine
 10
519.892857
 20
242.2
 30
0.0
 11
519.892857
 21
79.2
 31
0.0
  0
LINE
  5
537
100
AcDbEntity
  8
LAY-1
  6
CONTINUOUS
 62
     3
100
AcDbLine
 10
519.892857
 20
79.2
 30
0.0
 11
522.092857
 21
79.2
 31
0.0
  0
LINE
  5
538
100
AcDbEntity
  8
LAY-1
  6
CONTINUOUS
 62
     3
100
AcDbLine
 10
519.892857
 20
242.2
 30
0.0
 11
522.092857
 21
242.2
 31
0.0
  0
LINE
  5
539
100
AcDbEntity
  8
LAY-1
  6
CONTINUOUS
 62
     3
100
AcDbLine
 10
522.092857
 20
70.95
 30
0.0
 11
524.292857
 21
70.95
 31
0.0
  0
LINE
  5
53A
100
AcDbEntity
  8
LAY-1
  6
CONTINUOUS
 62
     3
100
AcDbLine
 10
522.092857
 20
250.45
 30
0.0
 11
524.292857
 21
250.45
 31
0.0
  0
LINE
  5
53B
100
AcDbEntity
  8
LAY-1
  6
CONTINUOUS
 62
     3
100
AcDbLine
 10
561.180298
 20
241.445067
 30
0.0
 11
561.180298
 21
79.915302
 31
0.0
  0
LINE
  5
53C
100
AcDbEntity
  8
LAY-1
  6
CONTINUOUS
 62
     3
100
AcDbLine
 10
553.64617
 20
241.484574
 30
0.0
 11
553.64617
 21
79.94272
 31
0.0
  0
ARC
  5
53D
100
AcDbEntity
  8
LAY-1
  6
CONTINUOUS
 62
     3
100
AcDbCircle
 10
553.028995
 20
79.3
 30
0.0
 40
0.9
100
AcDbArc
 50
45.572186
 51
90.0
  0
ARC
  5
53E
100
AcDbEntity
  8
LAY-1
  6
CONTINUOUS
 62
     3
100
AcDbCircle
 10
557.433739
 20
83.793611
 30
0.0
 40
5.392401
100
AcDbArc
 50
225.572186
 51
314.011984
  0
ARC
  5
53F
100
AcDbEntity
  8
LAY-1
  6
CONTINUOUS
 62
     3
100
AcDbCircle
 10
561.805755
 20
79.268151
 30
0.0
 40
0.9
100
AcDbArc
 50
91.86379
 51
134.011984
  0
ARC
  5
540
100
AcDbEntity
  8
LAY-1
  6
CONTINUOUS
 62
     3
100
AcDbCircle
 10
561.797601
 20
242.1
 30
0.0
 40
0.9
100
AcDbArc
 50
225.572186
 51
270.0
  0
ARC
  5
541
100
AcDbEntity
  8
LAY-1
  6
CONTINUOUS
 62
     3
100
AcDbCircle
 10
553.020842
 20
242.131849
 30
0.0
 40
0.9
100
AcDbArc
 50
271.86379
 51
314.011984
  0
ARC
  5
542
100
AcDbEntity
  8
LAY-1
  6
CONTINUOUS
 62
     3
100
AcDbCircle
 10
557.392857
 20
237.606389
 30
0.0
 40
5.392401
100
AcDbArc
 50
45.572186
 51
134.011984
  0
ARC
  5
543
100
AcDbEntity
  8
LAY-1
  6
CONTINUOUS
 62
     3
100
AcDbCircle
 10
551.055363
 20
302.5324
 30
0.0
 40
61.332521
100
AcDbArc
 50
269.886006
 51
271.86379
  0
LINE
  5
544
100
AcDbEntity
  8
LAY-1
  6
CONTINUOUS
 62
     3
100
AcDbLine
 10
541.180298
 20
241.445067
 30
0.0
 11
541.180298
 21
79.915302
 31
0.0
  0
LINE
  5
545
100
AcDbEntity
  8
LAY-1
  6
CONTINUOUS
 62
     3
100
AcDbLine
 10
533.64617
 20
241.484574
 30
0.0
 11
533.64617
 21
79.94272
 31
0.0
  0
LINE
  5
546
100
AcDbEntity
  8
LAY-1
  6
CONTINUOUS
 62
     3
100
AcDbLine
 10
533.028995
 20
80.2
 30
0.0
 11
524.292857
 21
80.2
 31
0.0
  0
ARC
  5
547
100
AcDbEntity
  8
LAY-1
  6
CONTINUOUS
 62
     3
100
AcDbCircle
 10
533.028995
 20
79.3
 30
0.0
 40
0.9
100
AcDbArc
 50
45.572186
 51
90.0
  0
ARC
  5
548
100
AcDbEntity
  8
LAY-1
  6
CONTINUOUS
 62
     3
100
AcDbCircle
 10
537.433739
 20
83.793611
 30
0.0
 40
5.392401
100
AcDbArc
 50
225.572186
 51
314.011984
  0
ARC
  5
549
100
AcDbEntity
  8
LAY-1
  6
CONTINUOUS
 62
     3
100
AcDbCircle
 10
541.805755
 20
79.268151
 30
0.0
 40
0.9
100
AcDbArc
 50
91.86379
 51
134.011984
  0
LINE
  5
54A
100
AcDbEntity
  8
LAY-1
  6
CONTINUOUS
 62
     3
100
AcDbLine
 10
524.292857
 20
241.2
 30
0.0
 11
530.933338
 21
241.2
 31
0.0
  0
ARC
  5
54B
100
AcDbEntity
  8
LAY-1
  6
CONTINUOUS
 62
     3
100
AcDbCircle
 10
541.797601
 20
242.1
 30
0.0
 40
0.9
100
AcDbArc
 50
225.572186
 51
270.0
  0
ARC
  5
54C
100
AcDbEntity
  8
LAY-1
  6
CONTINUOUS
 62
     3
100
AcDbCircle
 10
533.020842
 20
242.131849
 30
0.0
 40
0.9
100
AcDbArc
 50
271.86379
 51
314.011984
  0
ARC
  5
54D
100
AcDbEntity
  8
LAY-1
  6
CONTINUOUS
 62
     3
100
AcDbCircle
 10
537.392857
 20
237.606389
 30
0.0
 40
5.392401
100
AcDbArc
 50
45.572186
 51
134.011984
  0
ARC
  5
54E
100
AcDbEntity
  8
LAY-1
  6
CONTINUOUS
 62
     3
100
AcDbCircle
 10
531.055363
 20
302.5324
 30
0.0
 40
61.332521
100
AcDbArc
 50
269.886006
 51
271.86379
  0
LINE
  5
54F
100
AcDbEntity
  8
LAY-1
  6
CONTINUOUS
 62
     3
100
AcDbLine
 10
541.797601
 20
241.2
 30
0.0
 11
550.933338
 21
241.2
 31
0.0
  0
LINE
  5
550
100
AcDbEntity
  8
LAY-1
  6
CONTINUOUS
 62
     3
100
AcDbLine
 10
553.028995
 20
80.2
 30
0.0
 11
541.776484
 21
80.2
 31
0.0
  0
LINE
  5
551
100
AcDbEntity
  8
LAY-1
  6
CONTINUOUS
 62
     3
100
AcDbLine
 10
581.180298
 20
241.445067
 30
0.0
 11
581.180298
 21
79.915302
 31
0.0
  0
LINE
  5
552
100
AcDbEntity
  8
LAY-1
  6
CONTINUOUS
 62
     3
100
AcDbLine
 10
573.64617
 20
241.484574
 30
0.0
 11
573.64617
 21
79.94272
 31
0.0
  0
ARC
  5
553
100
AcDbEntity
  8
LAY-1
  6
CONTINUOUS
 62
     3
100
AcDbCircle
 10
573.028995
 20
79.3
 30
0.0
 40
0.9
100
AcDbArc
 50
45.572186
 51
90.0
  0
ARC
  5
554
100
AcDbEntity
  8
LAY-1
  6
CONTINUOUS
 62
     3
100
AcDbCircle
 10
577.433739
 20
83.793611
 30
0.0
 40
5.392401
100
AcDbArc
 50
225.572186
 51
314.011984
  0
ARC
  5
555
100
AcDbEntity
  8
LAY-1
  6
CONTINUOUS
 62
     3
100
AcDbCircle
 10
581.805755
 20
79.268151
 30
0.0
 40
0.9
100
AcDbArc
 50
91.86379
 51
134.011984
  0
ARC
  5
556
100
AcDbEntity
  8
LAY-1
  6
CONTINUOUS
 62
     3
100
AcDbCircle
 10
581.797601
 20
242.1
 30
0.0
 40
0.9
100
AcDbArc
 50
225.572186
 51
270.0
  0
ARC
  5
557
100
AcDbEntity
  8
LAY-1
  6
CONTINUOUS
 62
     3
100
AcDbCircle
 10
573.020842
 20
242.131849
 30
0.0
 40
0.9
100
AcDbArc
 50
271.86379
 51
314.011984
  0
ARC
  5
558
100
AcDbEntity
  8
LAY-1
  6
CONTINUOUS
 62
     3
100
AcDbCircle
 10
577.392857
 20
237.606389
 30
0.0
 40
5.392401
100
AcDbArc
 50
45.572186
 51
134.011984
  0
LINE
  5
559
100
AcDbEntity
  8
LAY-1
  6
CONTINUOUS
 62
     3
100
AcDbLine
 10
581.797601
 20
241.2
 30
0.0
 11
590.492857
 21
241.2
 31
0.0
  0
LINE
  5
55A
100
AcDbEntity
  8
LAY-1
  6
CONTINUOUS
 62
     3
100
AcDbLine
 10
590.492857
 20
80.2
 30
0.0
 11
581.776484
 21
80.2
 31
0.0
  0
LINE
  5
55B
100
AcDbEntity
  8
LAY-1
  6
CONTINUOUS
 62
     3
100
AcDbLine
 10
561.797601
 20
241.2
 30
0.0
 11
573.050113
 21
241.2
 31
0.0
  0
LINE
  5
55C
100
AcDbEntity
  8
LAY-1
  6
CONTINUOUS
 62
     3
100
AcDbLine
 10
573.028995
 20
80.2
 30
0.0
 11
561.776484
 21
80.2
 31
0.0
  0
LINE
  5
55D
100
AcDbEntity
  8
LAY-1
  6
EXLTYPE3
 62
     1
100
AcDbLine
 10
514.0
 20
160.7
 30
0.0
 11
600.0
 21
160.7
 31
0.0
  0
LINE
  5
55E
100
AcDbEntity
  8
LAY-2
  6
CONTINUOUS
 62
     2
100
AcDbLine
 10
201.910562
 20
579.475
 30
0.0
 11
204.089438
 21
579.475
 31
0.0
  0
LINE
  5
55F
100
AcDbEntity
  8
LAY-2
  6
CONTINUOUS
 62
     2
100
AcDbLine
 10
200.363241
 20
579.1
 30
0.0
 11
205.636759
 21
579.1
 31
0.0
  0
LINE
  5
560
100
AcDbEntity
  8
LAY-2
  6
CONTINUOUS
 62
     2
100
AcDbLine
 10
199.473405
 20
578.725
 30
0.0
 11
206.526595
 21
578.725
 31
0.0
  0
LINE
  5
561
100
AcDbEntity
  8
LAY-2
  6
CONTINUOUS
 62
     2
100
AcDbLine
 10
198.8
 20
578.35
 30
0.0
 11
207.2
 21
578.35
 31
0.0
  0
LINE
  5
562
100
AcDbEntity
  8
LAY-2
  6
CONTINUOUS
 62
     2
100
AcDbLine
 10
198.250066
 20
577.975
 30
0.0
 11
207.749934
 21
577.975
 31
0.0
  0
LINE
  5
563
100
AcDbEntity
  8
LAY-2
  6
CONTINUOUS
 62
     2
100
AcDbLine
 10
197.784398
 20
577.6
 30
0.0
 11
208.215602
 21
577.6
 31
0.0
  0
LINE
  5
564
100
AcDbEntity
  8
LAY-2
  6
CONTINUOUS
 62
     2
100
AcDbLine
 10
184.25
 20
577.225
 30
0.0
 11
196.333635
 21
577.225
 31
0.0
  0
LINE
  5
565
100
AcDbEntity
  8
LAY-2
  6
CONTINUOUS
 62
     2
100
AcDbLine
 10
197.382004
 20
577.225
 30
0.0
 11
208.617996
 21
577.225
 31
0.0
  0
LINE
  5
566
100
AcDbEntity
  8
LAY-2
  6
CONTINUOUS
 62
     2
100
AcDbLine
 10
209.666365
 20
577.225
 30
0.0
 11
218.75
 21
577.225
 31
0.0
  0
LINE
  5
567
100
AcDbEntity
  8
LAY-2
  6
CONTINUOUS
 62
     2
100
AcDbLine
 10
220.025
 20
577.225
 30
0.0
 11
230.075
 21
577.225
 31
0.0
  0
LINE
  5
568
100
AcDbEntity
  8
LAY-2
  6
CONTINUOUS
 62
     2
100
AcDbLine
 10
231.2
 20
577.225
 30
0.0
 11
233.75
 21
577.225
 31
0.0
  0
LINE
  5
569
100
AcDbEntity
  8
LAY-2
  6
CONTINUOUS
 62
     2
100
AcDbLine
 10
239.0
 20
577.225
 30
0.0
 11
241.55
 21
577.225
 31
0.0
  0
LINE
  5
56A
100
AcDbEntity
  8
LAY-2
  6
CONTINUOUS
 62
     2
100
AcDbLine
 10
184.25
 20
576.85
 30
0.0
 11
196.034474
 21
576.85
 31
0.0
  0
LINE
  5
56B
100
AcDbEntity
  8
LAY-2
  6
CONTINUOUS
 62
     2
100
AcDbLine
 10
197.030075
 20
576.85
 30
0.0
 11
208.969925
 21
576.85
 31
0.0
  0
LINE
  5
56C
100
AcDbEntity
  8
LAY-2
  6
CONTINUOUS
 62
     2
100
AcDbLine
 10
209.965526
 20
576.85
 30
0.0
 11
218.75
 21
576.85
 31
0.0
  0
LINE
  5
56D
100
AcDbEntity
  8
LAY-2
  6
CONTINUOUS
 62
     2
100
AcDbLine
 10
220.025
 20
576.85
 30
0.0
 11
230.075
 21
576.85
 31
0.0
  0
LINE
  5
56E
100
AcDbEntity
  8
LAY-2
  6
CONTINUOUS
 62
     2
100
AcDbLine
 10
231.2
 20
576.85
 30
0.0
 11
233.996783
 21
576.85
 31
0.0
  0
LINE
  5
56F
100
AcDbEntity
  8
LAY-2
  6
CONTINUOUS
 62
     2
100
AcDbLine
 10
239.0
 20
576.85
 30
0.0
 11
241.55
 21
576.85
 31
0.0
  0
LINE
  5
570
100
AcDbEntity
  8
LAY-2
  6
CONTINUOUS
 62
     2
100
AcDbLine
 10
184.25
 20
576.475
 30
0.0
 11
195.76706
 21
576.475
 31
0.0
  0
LINE
  5
571
100
AcDbEntity
  8
LAY-2
  6
CONTINUOUS
 62
     2
100
AcDbLine
 10
196.720121
 20
576.475
 30
0.0
 11
201.051443
 21
576.475
 31
0.0
  0
LINE
  5
572
100
AcDbEntity
  8
LAY-2
  6
CONTINUOUS
 62
     2
100
AcDbLine
 10
204.948557
 20
576.475
 30
0.0
 11
209.279879
 21
576.475
 31
0.0
  0
LINE
  5
573
100
AcDbEntity
  8
LAY-2
  6
CONTINUOUS
 62
     2
100
AcDbLine
 10
210.23294
 20
576.475
 30
0.0
 11
218.75
 21
576.475
 31
0.0
  0
LINE
  5
574
100
AcDbEntity
  8
LAY-2
  6
CONTINUOUS
 62
     2
100
AcDbLine
 10
220.025
 20
576.475
 30
0.0
 11
230.075
 21
576.475
 31
0.0
  0
LINE
  5
575
100
AcDbEntity
  8
LAY-2
  6
CONTINUOUS
 62
     2
100
AcDbLine
 10
231.2
 20
576.475
 30
0.0
 11
234.243566
 21
576.475
 31
0.0
  0
LINE
  5
576
100
AcDbEntity
  8
LAY-2
  6
CONTINUOUS
 62
     2
100
AcDbLine
 10
239.0
 20
576.475
 30
0.0
 11
241.55
 21
576.475
 31
0.0
  0
LINE
  5
577
100
AcDbEntity
  8
LAY-2
  6
CONTINUOUS
 62
     2
100
AcDbLine
 10
184.25
 20
576.1
 30
0.0
 11
195.527982
 21
576.1
 31
0.0
  0
LINE
  5
578
100
AcDbEntity
  8
LAY-2
  6
CONTINUOUS
 62
     2
100
AcDbLine
 10
196.446184
 20
576.1
 30
0.0
 11
200.295837
 21
576.1
 31
0.0
  0
LINE
  5
579
100
AcDbEntity
  8
LAY-2
  6
CONTINUOUS
 62
     2
100
AcDbLine
 10
205.704163
 20
576.1
 30
0.0
 11
209.553816
 21
576.1
 31
0.0
  0
LINE
  5
57A
100
AcDbEntity
  8
LAY-2
  6
CONTINUOUS
 62
     2
100
AcDbLine
 10
210.472018
 20
576.1
 30
0.0
 11
218.75
 21
576.1
 31
0.0
  0
LINE
  5
57B
100
AcDbEntity
  8
LAY-2
  6
CONTINUOUS
 62
     2
100
AcDbLine
 10
220.025
 20
576.1
 30
0.0
 11
230.075
 21
576.1
 31
0.0
  0
LINE
  5
57C
100
AcDbEntity
  8
LAY-2
  6
CONTINUOUS
 62
     2
100
AcDbLine
 10
231.2
 20
576.1
 30
0.0
 11
234.490349
 21
576.1
 31
0.0
  0
LINE
  5
57D
100
AcDbEntity
  8
LAY-2
  6
CONTINUOUS
 62
     2
100
AcDbLine
 10
239.0
 20
576.1
 30
0.0
 11
241.55
 21
576.1
 31
0.0
  0
LINE
  5
57E
100
AcDbEntity
  8
LAY-2
  6
CONTINUOUS
 62
     2
100
AcDbLine
 10
184.25
 20
575.725
 30
0.0
 11
195.314597
 21
575.725
 31
0.0
  0
LINE
  5
57F
100
AcDbEntity
  8
LAY-2
  6
CONTINUOUS
 62
     2
100
AcDbLine
 10
196.203907
 20
575.725
 30
0.0
 11
199.752405
 21
575.725
 31
0.0
  0
LINE
  5
580
100
AcDbEntity
  8
LAY-2
  6
CONTINUOUS
 62
     2
100
AcDbLine
 10
206.247595
 20
575.725
 30
0.0
 11
209.796093
 21
575.725
 31
0.0
  0
LINE
  5
581
100
AcDbEntity
  8
LAY-2
  6
CONTINUOUS
 62
     2
100
AcDbLine
 10
210.685403
 20
575.725
 30
0.0
 11
218.75
 21
575.725
 31
0.0
  0
LINE
  5
582
100
AcDbEntity
  8
LAY-2
  6
CONTINUOUS
 62
     2
100
AcDbLine
 10
220.025
 20
575.725
 30
0.0
 11
230.075
 21
575.725
 31
0.0
  0
LINE
  5
583
100
AcDbEntity
  8
LAY-2
  6
CONTINUOUS
 62
     2
100
AcDbLine
 10
231.2
 20
575.725
 30
0.0
 11
234.737132
 21
575.725
 31
0.0
  0
LINE
  5
584
100
AcDbEntity
  8
LAY-2
  6
CONTINUOUS
 62
     2
100
AcDbLine
 10
239.0
 20
575.725
 30
0.0
 11
241.55
 21
575.725
 31
0.0
  0
LINE
  5
585
100
AcDbEntity
  8
LAY-2
  6
CONTINUOUS
 62
     2
100
AcDbLine
 10
184.25
 20
575.35
 30
0.0
 11
195.124814
 21
575.35
 31
0.0
  0
LINE
  5
586
100
AcDbEntity
  8
LAY-2
  6
CONTINUOUS
 62
     2
100
AcDbLine
 10
195.990007
 20
575.35
 30
0.0
 11
199.325765
 21
575.35
 31
0.0
  0
LINE
  5
587
100
AcDbEntity
  8
LAY-2
  6
CONTINUOUS
 62
     2
100
AcDbLine
 10
201.68162
 20
575.35
 30
0.0
 11
204.31838
 21
575.35
 31
0.0
  0
LINE
  5
588
100
AcDbEntity
  8
LAY-2
  6
CONTINUOUS
 62
     2
100
AcDbLine
 10
206.674235
 20
575.35
 30
0.0
 11
210.009993
 21
575.35
 31
0.0
  0
LINE
  5
589
100
AcDbEntity
  8
LAY-2
  6
CONTINUOUS
 62
     2
100
AcDbLine
 10
210.875186
 20
575.35
 30
0.0
 11
218.75
 21
575.35
 31
0.0
  0
LINE
  5
58A
100
AcDbEntity
  8
LAY-2
  6
CONTINUOUS
 62
     2
100
AcDbLine
 10
220.025
 20
575.35
 30
0.0
 11
230.075
 21
575.35
 31
0.0
  0
LINE
  5
58B
100
AcDbEntity
  8
LAY-2
  6
CONTINUOUS
 62
     2
100
AcDbLine
 10
231.2
 20
575.35
 30
0.0
 11
234.983915
 21
575.35
 31
0.0
  0
LINE
  5
58C
100
AcDbEntity
  8
LAY-2
  6
CONTINUOUS
 62
     2
100
AcDbLine
 10
239.0
 20
575.35
 30
0.0
 11
241.55
 21
575.35
 31
0.0
  0
LINE
  5
58D
100
AcDbEntity
  8
LAY-2
  6
CONTINUOUS
 62
     2
100
AcDbLine
 10
184.25
 20
574.975
 30
0.0
 11
194.956964
 21
574.975
 31
0.0
  0
LINE
  5
58E
100
AcDbEntity
  8
LAY-2
  6
CONTINUOUS
 62
     2
100
AcDbLine
 10
195.801953
 20
574.975
 30
0.0
 11
198.978573
 21
574.975
 31
0.0
  0
LINE
  5
58F
100
AcDbEntity
  8
LAY-2
  6
CONTINUOUS
 62
     2
100
AcDbLine
 10
200.9
 20
574.975
 30
0.0
 11
205.1
 21
574.975
 31
0.0
  0
LINE
  5
590
100
AcDbEntity
  8
LAY-2
  6
CONTINUOUS
 62
     2
100
AcDbLine
 10
207.021427
 20
574.975
 30
0.0
 11
210.198047
 21
574.975
 31
0.0
  0
LINE
  5
591
100
AcDbEntity
  8
LAY-2
  6
CONTINUOUS
 62
     2
100
AcDbLine
 10
211.043036
 20
574.975
 30
0.0
 11
218.75
 21
574.975
 31
0.0
  0
LINE
  5
592
100
AcDbEntity
  8
LAY-2
  6
CONTINUOUS
 62
     2
100
AcDbLine
 10
220.025
 20
574.975
 30
0.0
 11
230.075
 21
574.975
 31
0.0
  0
LINE
  5
593
100
AcDbEntity
  8
LAY-2
  6
CONTINUOUS
 62
     2
100
AcDbLine
 10
231.2
 20
574.975
 30
0.0
 11
235.230699
 21
574.975
 31
0.0
  0
LINE
  5
594
100
AcDbEntity
  8
LAY-2
  6
CONTINUOUS
 62
     2
100
AcDbLine
 10
239.0
 20
574.975
 30
0.0
 11
241.55
 21
574.975
 31
0.0
  0
LINE
  5
595
100
AcDbEntity
  8
LAY-2
  6
CONTINUOUS
 62
     2
100
AcDbLine
 10
189.5
 20
574.6
 30
0.0
 11
192.125
 21
574.6
 31
0.0
  0
LINE
  5
596
100
AcDbEntity
  8
LAY-2
  6
CONTINUOUS
 62
     2
100
AcDbLine
 10
195.637765
 20
574.6
 30
0.0
 11
198.691578
 21
574.6
 31
0.0
  0
LINE
  5
597
100
AcDbEntity
  8
LAY-2
  6
CONTINUOUS
 62
     2
100
AcDbLine
 10
200.392199
 20
574.6
 30
0.0
 11
205.607801
 21
574.6
 31
0.0
  0
LINE
  5
598
100
AcDbEntity
  8
LAY-2
  6
CONTINUOUS
 62
     2
100
AcDbLine
 10
207.308422
 20
574.6
 30
0.0
 11
210.362235
 21
574.6
 31
0.0
  0
LINE
  5
599
100
AcDbEntity
  8
LAY-2
  6
CONTINUOUS
 62
     2
100
AcDbLine
 10
215.857281
 20
574.6
 30
0.0
 11
218.75
 21
574.6
 31
0.0
  0
LINE
  5
59A
100
AcDbEntity
  8
LAY-2
  6
CONTINUOUS
 62
     2
100
AcDbLine
 10
220.025
 20
574.6
 30
0.0
 11
222.65
 21
574.6
 31
0.0
  0
LINE
  5
59B
100
AcDbEntity
  8
LAY-2
  6
CONTINUOUS
 62
     2
100
AcDbLine
 10
231.2
 20
574.6
 30
0.0
 11
235.477482
 21
574.6
 31
0.0
  0
LINE
  5
59C
100
AcDbEntity
  8
LAY-2
  6
CONTINUOUS
 62
     2
100
AcDbLine
 10
239.0
 20
574.6
 30
0.0
 11
241.55
 21
574.6
 31
0.0
  0
LINE
  5
59D
100
AcDbEntity
  8
LAY-2
  6
CONTINUOUS
 62
     2
100
AcDbLine
 10
189.5
 20
574.225
 30
0.0
 11
192.125
 21
574.225
 31
0.0
  0
LINE
  5
59E
100
AcDbEntity
  8
LAY-2
  6
CONTINUOUS
 62
     2
100
AcDbLine
 10
195.495876
 20
574.225
 30
0.0
 11
198.453367
 21
574.225
 31
0.0
  0
LINE
  5
59F
100
AcDbEntity
  8
LAY-2
  6
CONTINUOUS
 62
     2
100
AcDbLine
 10
200.015038
 20
574.225
 30
0.0
 11
205.984962
 21
574.225
 31
0.0
  0
LINE
  5
5A0
100
AcDbEntity
  8
LAY-2
  6
CONTINUOUS
 62
     2
100
AcDbLine
 10
207.546633
 20
574.225
 30
0.0
 11
210.504124
 21
574.225
 31
0.0
  0
LINE
  5
5A1
100
AcDbEntity
  8
LAY-2
  6
CONTINUOUS
 62
     2
100
AcDbLine
 10
215.519218
 20
574.225
 30
0.0
 11
218.411938
 21
574.225
 31
0.0
  0
LINE
  5
5A2
100
AcDbEntity
  8
LAY-2
  6
CONTINUOUS
 62
     2
100
AcDbLine
 10
220.025
 20
574.225
 30
0.0
 11
222.65
 21
574.225
 31
0.0
  0
LINE
  5
5A3
100
AcDbEntity
  8
LAY-2
  6
CONTINUOUS
 62
     2
100
AcDbLine
 10
231.2
 20
574.225
 30
0.0
 11
235.724265
 21
574.225
 31
0.0
  0
LINE
  5
5A4
100
AcDbEntity
  8
LAY-2
  6
CONTINUOUS
 62
     2
100
AcDbLine
 10
239.0
 20
574.225
 30
0.0
 11
241.55
 21
574.225
 31
0.0
  0
LINE
  5
5A5
100
AcDbEntity
  8
LAY-2
  6
CONTINUOUS
 62
     2
100
AcDbLine
 10
189.5
 20
573.85
 30
0.0
 11
192.125
 21
573.85
 31
0.0
  0
LINE
  5
5A6
100
AcDbEntity
  8
LAY-2
  6
CONTINUOUS
 62
     2
100
AcDbLine
 10
195.375041
 20
573.85
 30
0.0
 11
198.256584
 21
573.85
 31
0.0
  0
LINE
  5
5A7
100
AcDbEntity
  8
LAY-2
  6
CONTINUOUS
 62
     2
100
AcDbLine
 10
199.723092
 20
573.85
 30
0.0
 11
206.276908
 21
573.85
 31
0.0
  0
LINE
  5
5A8
100
AcDbEntity
  8
LAY-2
  6
CONTINUOUS
 62
     2
100
AcDbLine
 10
207.743416
 20
573.85
 30
0.0
 11
210.624959
 21
573.85
 31
0.0
  0
LINE
  5
5A9
100
AcDbEntity
  8
LAY-2
  6
CONTINUOUS
 62
     2
100
AcDbLine
 10
215.181156
 20
573.85
 30
0.0
 11
218.073876
 21
573.85
 31
0.0
  0
LINE
  5
5AA
100
AcDbEntity
  8
LAY-2
  6
CONTINUOUS
 62
     2
100
AcDbLine
 10
220.025
 20
573.85
 30
0.0
 11
222.65
 21
573.85
 31
0.0
  0
LINE
  5
5AB
100
AcDbEntity
  8
LAY-2
  6
CONTINUOUS
 62
     2
100
AcDbLine
 10
231.2
 20
573.85
 30
0.0
 11
233.75
 21
573.85
 31
0.0
  0
LINE
  5
5AC
100
AcDbEntity
  8
LAY-2
  6
CONTINUOUS
 62
     2
100
AcDbLine
 10
233.817555
 20
573.85
 30
0.0
 11
235.971048
 21
573.85
 31
0.0
  0
LINE
  5
5AD
100
AcDbEntity
  8
LAY-2
  6
CONTINUOUS
 62
     2
100
AcDbLine
 10
239.0
 20
573.85
 30
0.0
 11
241.55
 21
573.85
 31
0.0
  0
LINE
  5
5AE
100
AcDbEntity
  8
LAY-2
  6
CONTINUOUS
 62
     2
100
AcDbLine
 10
189.5
 20
573.475
 30
0.0
 11
192.125
 21
573.475
 31
0.0
  0
LINE
  5
5AF
100
AcDbEntity
  8
LAY-2
  6
CONTINUOUS
 62
     2
100
AcDbLine
 10
195.274272
 20
573.475
 30
0.0
 11
198.096239
 21
573.475
 31
0.0
  0
LINE
  5
5B0
100
AcDbEntity
  8
LAY-2
  6
CONTINUOUS
 62
     2
100
AcDbLine
 10
199.495004
 20
573.475
 30
0.0
 11
206.504996
 21
573.475
 31
0.0
  0
LINE
  5
5B1
100
AcDbEntity
  8
LAY-2
  6
CONTINUOUS
 62
     2
100
AcDbLine
 10
207.903761
 20
573.475
 30
0.0
 11
210.725728
 21
573.475
 31
0.0
  0
LINE
  5
5B2
100
AcDbEntity
  8
LAY-2
  6
CONTINUOUS
 62
     2
100
AcDbLine
 10
214.843094
 20
573.475
 30
0.0
 11
217.735814
 21
573.475
 31
0.0
  0
LINE
  5
5B3
100
AcDbEntity
  8
LAY-2
  6
CONTINUOUS
 62
     2
100
AcDbLine
 10
220.025
 20
573.475
 30
0.0
 11
222.65
 21
573.475
 31
0.0
  0
LINE
  5
5B4
100
AcDbEntity
  8
LAY-2
  6
CONTINUOUS
 62
     2
100
AcDbLine
 10
231.2
 20
573.475
 30
0.0
 11
233.75
 21
573.475
 31
0.0
  0
LINE
  5
5B5
100
AcDbEntity
  8
LAY-2
  6
CONTINUOUS
 62
     2
100
AcDbLine
 10
234.064338
 20
573.475
 30
0.0
 11
236.217831
 21
573.475
 31
0.0
  0
LINE
  5
5B6
100
AcDbEntity
  8
LAY-2
  6
CONTINUOUS
 62
     2
100
AcDbLine
 10
239.0
 20
573.475
 30
0.0
 11
241.55
 21
573.475
 31
0.0
  0
LINE
  5
5B7
100
AcDbEntity
  8
LAY-2
  6
CONTINUOUS
 62
     2
100
AcDbLine
 10
189.5
 20
573.1
 30
0.0
 11
192.125
 21
573.1
 31
0.0
  0
LINE
  5
5B8
100
AcDbEntity
  8
LAY-2
  6
CONTINUOUS
 62
     2
100
AcDbLine
 10
195.192792
 20
573.1
 30
0.0
 11
197.968847
 21
573.1
 31
0.0
  0
LINE
  5
5B9
100
AcDbEntity
  8
LAY-2
  6
CONTINUOUS
 62
     2
100
AcDbLine
 10
199.318883
 20
573.1
 30
0.0
 11
206.681117
 21
573.1
 31
0.0
  0
LINE
  5
5BA
100
AcDbEntity
  8
LAY-2
  6
CONTINUOUS
 62
     2
100
AcDbLine
 10
208.031153
 20
573.1
 30
0.0
 11
210.807208
 21
573.1
 31
0.0
  0
LINE
  5
5BB
100
AcDbEntity
  8
LAY-2
  6
CONTINUOUS
 62
     2
100
AcDbLine
 10
214.505032
 20
573.1
 30
0.0
 11
217.397752
 21
573.1
 31
0.0
  0
LINE
  5
5BC
100
AcDbEntity
  8
LAY-2
  6
CONTINUOUS
 62
     2
100
AcDbLine
 10
220.025
 20
573.1
 30
0.0
 11
222.65
 21
573.1
 31
0.0
  0
LINE
  5
5BD
100
AcDbEntity
  8
LAY-2
  6
CONTINUOUS
 62
     2
100
AcDbLine
 10
231.2
 20
573.1
 30
0.0
 11
233.75
 21
573.1
 31
0.0
  0
LINE
  5
5BE
100
AcDbEntity
  8
LAY-2
  6
CONTINUOUS
 62
     2
100
AcDbLine
 10
234.311121
 20
573.1
 30
0.0
 11
236.464614
 21
573.1
 31
0.0
  0
LINE
  5
5BF
100
AcDbEntity
  8
LAY-2
  6
CONTINUOUS
 62
     2
100
AcDbLine
 10
239.0
 20
573.1
 30
0.0
 11
241.55
 21
573.1
 31
0.0
  0
LINE
  5
5C0
100
AcDbEntity
  8
LAY-2
  6
CONTINUOUS
 62
     2
100
AcDbLine
 10
189.5
 20
572.725
 30
0.0
 11
192.125
 21
572.725
 31
0.0
  0
LINE
  5
5C1
100
AcDbEntity
  8
LAY-2
  6
CONTINUOUS
 62
     2
100
AcDbLine
 10
195.130002
 20
572.725
 30
0.0
 11
197.871952
 21
572.725
 31
0.0
  0
LINE
  5
5C2
100
AcDbEntity
  8
LAY-2
  6
CONTINUOUS
 62
     2
100
AcDbLine
 10
199.18752
 20
572.725
 30
0.0
 11
206.81248
 21
572.725
 31
0.0
  0
LINE
  5
5C3
100
AcDbEntity
  8
LAY-2
  6
CONTINUOUS
 62
     2
100
AcDbLine
 10
208.128048
 20
572.725
 30
0.0
 11
210.869998
 21
572.725
 31
0.0
  0
LINE
  5
5C4
100
AcDbEntity
  8
LAY-2
  6
CONTINUOUS
 62
     2
100
AcDbLine
 10
214.16697
 20
572.725
 30
0.0
 11
217.05969
 21
572.725
 31
0.0
  0
LINE
  5
5C5
100
AcDbEntity
  8
LAY-2
  6
CONTINUOUS
 62
     2
100
AcDbLine
 10
220.025
 20
572.725
 30
0.0
 11
230.075
 21
572.725
 31
0.0
  0
LINE
  5
5C6
100
AcDbEntity
  8
LAY-2
  6
CONTINUOUS
 62
     2
100
AcDbLine
 10
231.2
 20
572.725
 30
0.0
 11
233.75
 21
572.725
 31
0.0
  0
LINE
  5
5C7
100
AcDbEntity
  8
LAY-2
  6
CONTINUOUS
 62
     2
100
AcDbLine
 10
234.557904
 20
572.725
 30
0.0
 11
236.711397
 21
572.725
 31
0.0
  0
LINE
  5
5C8
100
AcDbEntity
  8
LAY-2
  6
CONTINUOUS
 62
     2
100
AcDbLine
 10
239.0
 20
572.725
 30
0.0
 11
241.55
 21
572.725
 31
0.0
  0
LINE
  5
5C9
100
AcDbEntity
  8
LAY-2
  6
CONTINUOUS
 62
     2
100
AcDbLine
 10
189.5
 20
572.35
 30
0.0
 11
192.125
 21
572.35
 31
0.0
  0
LINE
  5
5CA
100
AcDbEntity
  8
LAY-2
  6
CONTINUOUS
 62
     2
100
AcDbLine
 10
195.085456
 20
572.35
 30
0.0
 11
197.803848
 21
572.35
 31
0.0
  0
LINE
  5
5CB
100
AcDbEntity
  8
LAY-2
  6
CONTINUOUS
 62
     2
100
AcDbLine
 10
199.096396
 20
572.35
 30
0.0
 11
206.903604
 21
572.35
 31
0.0
  0
LINE
  5
5CC
100
AcDbEntity
  8
LAY-2
  6
CONTINUOUS
 62
     2
100
AcDbLine
 10
208.196152
 20
572.35
 30
0.0
 11
210.914544
 21
572.35
 31
0.0
  0
LINE
  5
5CD
100
AcDbEntity
  8
LAY-2
  6
CONTINUOUS
 62
     2
100
AcDbLine
 10
213.828908
 20
572.35
 30
0.0
 11
216.721627
 21
572.35
 31
0.0
  0
LINE
  5
5CE
100
AcDbEntity
  8
LAY-2
  6
CONTINUOUS
 62
     2
100
AcDbLine
 10
220.025
 20
572.35
 30
0.0
 11
230.075
 21
572.35
 31
0.0
  0
LINE
  5
5CF
100
AcDbEntity
  8
LAY-2
  6
CONTINUOUS
 62
     2
100
AcDbLine
 10
231.2
 20
572.35
 30
0.0
 11
233.75
 21
572.35
 31
0.0
  0
LINE
  5
5D0
100
AcDbEntity
  8
LAY-2
  6
CONTINUOUS
 62
     2
100
AcDbLine
 10
234.804687
 20
572.35
 30
0.0
 11
236.95818
 21
572.35
 31
0.0
  0
LINE
  5
5D1
100
AcDbEntity
  8
LAY-2
  6
CONTINUOUS
 62
     2
100
AcDbLine
 10
239.0
 20
572.35
 30
0.0
 11
241.55
 21
572.35
 31
0.0
  0
LINE
  5
5D2
100
AcDbEntity
  8
LAY-2
  6
CONTINUOUS
 62
     2
100
AcDbLine
 10
189.5
 20
571.975
 30
0.0
 11
192.125
 21
571.975
 31
0.0
  0
LINE
  5
5D3
100
AcDbEntity
  8
LAY-2
  6
CONTINUOUS
 62
     2
100
AcDbLine
 10
195.058849
 20
571.975
 30
0.0
 11
197.76341
 21
571.975
 31
0.0
  0
LINE
  5
5D4
100
AcDbEntity
  8
LAY-2
  6
CONTINUOUS
 62
     2
100
AcDbLine
 10
199.042728
 20
571.975
 30
0.0
 11
206.957272
 21
571.975
 31
0.0
  0
LINE
  5
5D5
100
AcDbEntity
  8
LAY-2
  6
CONTINUOUS
 62
     2
100
AcDbLine
 10
208.23659
 20
571.975
 30
0.0
 11
210.941151
 21
571.975
 31
0.0
  0
LINE
  5
5D6
100
AcDbEntity
  8
LAY-2
  6
CONTINUOUS
 62
     2
100
AcDbLine
 10
213.490846
 20
571.975
 30
0.0
 11
216.383565
 21
571.975
 31
0.0
  0
LINE
  5
5D7
100
AcDbEntity
  8
LAY-2
  6
CONTINUOUS
 62
     2
100
AcDbLine
 10
220.025
 20
571.975
 30
0.0
 11
230.075
 21
571.975
 31
0.0
  0
LINE
  5
5D8
100
AcDbEntity
  8
LAY-2
  6
CONTINUOUS
 62
     2
100
AcDbLine
 10
231.2
 20
571.975
 30
0.0
 11
233.75
 21
571.975
 31
0.0
  0
LINE
  5
5D9
100
AcDbEntity
  8
LAY-2
  6
CONTINUOUS
 62
     2
100
AcDbLine
 10
235.051471
 20
571.975
 30
0.0
 11
237.204963
 21
571.975
 31
0.0
  0
LINE
  5
5DA
100
AcDbEntity
  8
LAY-2
  6
CONTINUOUS
 62
     2
100
AcDbLine
 10
239.0
 20
571.975
 30
0.0
 11
241.55
 21
571.975
 31
0.0
  0
LINE
  5
5DB
100
AcDbEntity
  8
LAY-2
  6
CONTINUOUS
 62
     2
100
AcDbLine
 10
189.5
 20
571.6
 30
0.0
 11
192.125
 21
571.6
 31
0.0
  0
LINE
  5
5DC
100
AcDbEntity
  8
LAY-2
  6
CONTINUOUS
 62
     2
100
AcDbLine
 10
195.05
 20
571.6
 30
0.0
 11
197.75
 21
571.6
 31
0.0
  0
LINE
  5
5DD
100
AcDbEntity
  8
LAY-2
  6
CONTINUOUS
 62
     2
100
AcDbLine
 10
199.025
 20
571.6
 30
0.0
 11
206.975
 21
571.6
 31
0.0
  0
LINE
  5
5DE
100
AcDbEntity
  8
LAY-2
  6
CONTINUOUS
 62
     2
100
AcDbLine
 10
208.25
 20
571.6
 30
0.0
 11
210.95
 21
571.6
 31
0.0
  0
LINE
  5
5DF
100
AcDbEntity
  8
LAY-2
  6
CONTINUOUS
 62
     2
100
AcDbLine
 10
213.152784
 20
571.6
 30
0.0
 11
216.045503
 21
571.6
 31
0.0
  0
LINE
  5
5E0
100
AcDbEntity
  8
LAY-2
  6
CONTINUOUS
 62
     2
100
AcDbLine
 10
220.025
 20
571.6
 30
0.0
 11
230.075
 21
571.6
 31
0.0
  0
LINE
  5
5E1
100
AcDbEntity
  8
LAY-2
  6
CONTINUOUS
 62
     2
100
AcDbLine
 10
231.2
 20
571.6
 30
0.0
 11
233.75
 21
571.6
 31
0.0
  0
LINE
  5
5E2
100
AcDbEntity
  8
LAY-2
  6
CONTINUOUS
 62
     2
100
AcDbLine
 10
235.298254
 20
571.6
 30
0.0
 11
237.451746
 21
571.6
 31
0.0
  0
LINE
  5
5E3
100
AcDbEntity
  8
LAY-2
  6
CONTINUOUS
 62
     2
100
AcDbLine
 10
239.0
 20
571.6
 30
0.0
 11
241.55
 21
571.6
 31
0.0
  0
LINE
  5
5E4
100
AcDbEntity
  8
LAY-2
  6
CONTINUOUS
 62
     2
100
AcDbLine
 10
189.5
 20
571.225
 30
0.0
 11
192.125
 21
571.225
 31
0.0
  0
LINE
  5
5E5
100
AcDbEntity
  8
LAY-2
  6
CONTINUOUS
 62
     2
100
AcDbLine
 10
195.058849
 20
571.225
 30
0.0
 11
197.76341
 21
571.225
 31
0.0
  0
LINE
  5
5E6
100
AcDbEntity
  8
LAY-2
  6
CONTINUOUS
 62
     2
100
AcDbLine
 10
199.042728
 20
571.225
 30
0.0
 11
206.957272
 21
571.225
 31
0.0
  0
LINE
  5
5E7
100
AcDbEntity
  8
LAY-2
  6
CONTINUOUS
 62
     2
100
AcDbLine
 10
208.23659
 20
571.225
 30
0.0
 11
210.941151
 21
571.225
 31
0.0
  0
LINE
  5
5E8
100
AcDbEntity
  8
LAY-2
  6
CONTINUOUS
 62
     2
100
AcDbLine
 10
212.814722
 20
571.225
 30
0.0
 11
215.707441
 21
571.225
 31
0.0
  0
LINE
  5
5E9
100
AcDbEntity
  8
LAY-2
  6
CONTINUOUS
 62
     2
100
AcDbLine
 10
220.025
 20
571.225
 30
0.0
 11
230.075
 21
571.225
 31
0.0
  0
LINE
  5
5EA
100
AcDbEntity
  8
LAY-2
  6
CONTINUOUS
 62
     2
100
AcDbLine
 10
231.2
 20
571.225
 30
0.0
 11
233.75
 21
571.225
 31
0.0
  0
LINE
  5
5EB
100
AcDbEntity
  8
LAY-2
  6
CONTINUOUS
 62
     2
100
AcDbLine
 10
235.545037
 20
571.225
 30
0.0
 11
237.698529
 21
571.225
 31
0.0
  0
LINE
  5
5EC
100
AcDbEntity
  8
LAY-2
  6
CONTINUOUS
 62
     2
100
AcDbLine
 10
239.0
 20
571.225
 30
0.0
 11
241.55
 21
571.225
 31
0.0
  0
LINE
  5
5ED
100
AcDbEntity
  8
LAY-2
  6
CONTINUOUS
 62
     2
100
AcDbLine
 10
189.5
 20
570.85
 30
0.0
 11
192.125
 21
570.85
 31
0.0
  0
LINE
  5
5EE
100
AcDbEntity
  8
LAY-2
  6
CONTINUOUS
 62
     2
100
AcDbLine
 10
195.085456
 20
570.85
 30
0.0
 11
197.803848
 21
570.85
 31
0.0
  0
LINE
  5
5EF
100
AcDbEntity
  8
LAY-2
  6
CONTINUOUS
 62
     2
100
AcDbLine
 10
199.096396
 20
570.85
 30
0.0
 11
206.903604
 21
570.85
 31
0.0
  0
LINE
  5
5F0
100
AcDbEntity
  8
LAY-2
  6
CONTINUOUS
 62
     2
100
AcDbLine
 10
208.196152
 20
570.85
 30
0.0
 11
210.914544
 21
570.85
 31
0.0
  0
LINE
  5
5F1
100
AcDbEntity
  8
LAY-2
  6
CONTINUOUS
 62
     2
100
AcDbLine
 10
212.47666
 20
570.85
 30
0.0
 11
215.369379
 21
570.85
 31
0.0
  0
LINE
  5
5F2
100
AcDbEntity
  8
LAY-2
  6
CONTINUOUS
 62
     2
100
AcDbLine
 10
220.025
 20
570.85
 30
0.0
 11
230.075
 21
570.85
 31
0.0
  0
LINE
  5
5F3
100
AcDbEntity
  8
LAY-2
  6
CONTINUOUS
 62
     2
100
AcDbLine
 10
231.2
 20
570.85
 30
0.0
 11
233.75
 21
570.85
 31
0.0
  0
LINE
  5
5F4
100
AcDbEntity
  8
LAY-2
  6
CONTINUOUS
 62
     2
100
AcDbLine
 10
235.79182
 20
570.85
 30
0.0
 11
237.945312
 21
570.85
 31
0.0
  0
LINE
  5
5F5
100
AcDbEntity
  8
LAY-2
  6
CONTINUOUS
 62
     2
100
AcDbLine
 10
239.0
 20
570.85
 30
0.0
 11
241.55
 21
570.85
 31
0.0
  0
LINE
  5
5F6
100
AcDbEntity
  8
LAY-2
  6
CONTINUOUS
 62
     2
100
AcDbLine
 10
189.5
 20
570.475
 30
0.0
 11
192.125
 21
570.475
 31
0.0
  0
LINE
  5
5F7
100
AcDbEntity
  8
LAY-2
  6
CONTINUOUS
 62
     2
100
AcDbLine
 10
195.130002
 20
570.475
 30
0.0
 11
197.871952
 21
570.475
 31
0.0
  0
LINE
  5
5F8
100
AcDbEntity
  8
LAY-2
  6
CONTINUOUS
 62
     2
100
AcDbLine
 10
199.18752
 20
570.475
 30
0.0
 11
206.81248
 21
570.475
 31
0.0
  0
LINE
  5
5F9
100
AcDbEntity
  8
LAY-2
  6
CONTINUOUS
 62
     2
100
AcDbLine
 10
208.128048
 20
570.475
 30
0.0
 11
210.869998
 21
570.475
 31
0.0
  0
LINE
  5
5FA
100
AcDbEntity
  8
LAY-2
  6
CONTINUOUS
 62
     2
100
AcDbLine
 10
212.138597
 20
570.475
 30
0.0
 11
215.031317
 21
570.475
 31
0.0
  0
LINE
  5
5FB
100
AcDbEntity
  8
LAY-2
  6
CONTINUOUS
 62
     2
100
AcDbLine
 10
220.025
 20
570.475
 30
0.0
 11
222.65
 21
570.475
 31
0.0
  0
LINE
  5
5FC
100
AcDbEntity
  8
LAY-2
  6
CONTINUOUS
 62
     2
100
AcDbLine
 10
231.2
 20
570.475
 30
0.0
 11
233.75
 21
570.475
 31
0.0
  0
LINE
  5
5FD
100
AcDbEntity
  8
LAY-2
  6
CONTINUOUS
 62
     2
100
AcDbLine
 10
236.038603
 20
570.475
 30
0.0
 11
238.192096
 21
570.475
 31
0.0
  0
LINE
  5
5FE
100
AcDbEntity
  8
LAY-2
  6
CONTINUOUS
 62
     2
100
AcDbLine
 10
239.0
 20
570.475
 30
0.0
 11
241.55
 21
570.475
 31
0.0
  0
LINE
  5
5FF
100
AcDbEntity
  8
LAY-2
  6
CONTINUOUS
 62
     2
100
AcDbLine
 10
189.5
 20
570.1
 30
0.0
 11
192.125
 21
570.1
 31
0.0
  0
LINE
  5
600
100
AcDbEntity
  8
LAY-2
  6
CONTINUOUS
 62
     2
100
AcDbLine
 10
195.192792
 20
570.1
 30
0.0
 11
197.968847
 21
570.1
 31
0.0
  0
LINE
  5
601
100
AcDbEntity
  8
LAY-2
  6
CONTINUOUS
 62
     2
100
AcDbLine
 10
199.318883
 20
570.1
 30
0.0
 11
206.681117
 21
570.1
 31
0.0
  0
LINE
  5
602
100
AcDbEntity
  8
LAY-2
  6
CONTINUOUS
 62
     2
100
AcDbLine
 10
208.031153
 20
570.1
 30
0.0
 11
210.807208
 21
570.1
 31
0.0
  0
LINE
  5
603
100
AcDbEntity
  8
LAY-2
  6
CONTINUOUS
 62
     2
100
AcDbLine
 10
211.800535
 20
570.1
 30
0.0
 11
214.693255
 21
570.1
 31
0.0
  0
LINE
  5
604
100
AcDbEntity
  8
LAY-2
  6
CONTINUOUS
 62
     2
100
AcDbLine
 10
220.025
 20
570.1
 30
0.0
 11
222.65
 21
570.1
 31
0.0
  0
LINE
  5
605
100
AcDbEntity
  8
LAY-2
  6
CONTINUOUS
 62
     2
100
AcDbLine
 10
231.2
 20
570.1
 30
0.0
 11
233.75
 21
570.1
 31
0.0
  0
LINE
  5
606
100
AcDbEntity
  8
LAY-2
  6
CONTINUOUS
 62
     2
100
AcDbLine
 10
236.285386
 20
570.1
 30
0.0
 11
238.438879
 21
570.1
 31
0.0
  0
LINE
  5
607
100
AcDbEntity
  8
LAY-2
  6
CONTINUOUS
 62
     2
100
AcDbLine
 10
239.0
 20
570.1
 30
0.0
 11
241.55
 21
570.1
 31
0.0
  0
LINE
  5
608
100
AcDbEntity
  8
LAY-2
  6
CONTINUOUS
 62
     2
100
AcDbLine
 10
189.5
 20
569.725
 30
0.0
 11
192.125
 21
569.725
 31
0.0
  0
LINE
  5
609
100
AcDbEntity
  8
LAY-2
  6
CONTINUOUS
 62
     2
100
AcDbLine
 10
195.274272
 20
569.725
 30
0.0
 11
198.096239
 21
569.725
 31
0.0
  0
LINE
  5
60A
100
AcDbEntity
  8
LAY-2
  6
CONTINUOUS
 62
     2
100
AcDbLine
 10
199.495004
 20
569.725
 30
0.0
 11
206.504996
 21
569.725
 31
0.0
  0
LINE
  5
60B
100
AcDbEntity
  8
LAY-2
  6
CONTINUOUS
 62
     2
100
AcDbLine
 10
207.903761
 20
569.725
 30
0.0
 11
210.725728
 21
569.725
 31
0.0
  0
LINE
  5
60C
100
AcDbEntity
  8
LAY-2
  6
CONTINUOUS
 62
     2
100
AcDbLine
 10
211.518534
 20
569.725
 30
0.0
 11
214.355193
 21
569.725
 31
0.0
  0
LINE
  5
60D
100
AcDbEntity
  8
LAY-2
  6
CONTINUOUS
 62
     2
100
AcDbLine
 10
220.025
 20
569.725
 30
0.0
 11
222.65
 21
569.725
 31
0.0
  0
LINE
  5
60E
100
AcDbEntity
  8
LAY-2
  6
CONTINUOUS
 62
     2
100
AcDbLine
 10
231.2
 20
569.725
 30
0.0
 11
233.75
 21
569.725
 31
0.0
  0
LINE
  5
60F
100
AcDbEntity
  8
LAY-2
  6
CONTINUOUS
 62
     2
100
AcDbLine
 10
236.532169
 20
569.725
 30
0.0
 11
238.685662
 21
569.725
 31
0.0
  0
LINE
  5
610
100
AcDbEntity
  8
LAY-2
  6
CONTINUOUS
 62
     2
100
AcDbLine
 10
239.0
 20
569.725
 30
0.0
 11
241.55
 21
569.725
 31
0.0
  0
LINE
  5
611
100
AcDbEntity
  8
LAY-2
  6
CONTINUOUS
 62
     2
100
AcDbLine
 10
189.5
 20
569.35
 30
0.0
 11
192.125
 21
569.35
 31
0.0
  0
LINE
  5
612
100
AcDbEntity
  8
LAY-2
  6
CONTINUOUS
 62
     2
100
AcDbLine
 10
195.375041
 20
569.35
 30
0.0
 11
198.256584
 21
569.35
 31
0.0
  0
LINE
  5
613
100
AcDbEntity
  8
LAY-2
  6
CONTINUOUS
 62
     2
100
AcDbLine
 10
199.723092
 20
569.35
 30
0.0
 11
206.276908
 21
569.35
 31
0.0
  0
LINE
  5
614
100
AcDbEntity
  8
LAY-2
  6
CONTINUOUS
 62
     2
100
AcDbLine
 10
207.743416
 20
569.35
 30
0.0
 11
210.624959
 21
569.35
 31
0.0
  0
LINE
  5
615
100
AcDbEntity
  8
LAY-2
  6
CONTINUOUS
 62
     2
100
AcDbLine
 10
211.42725
 20
569.35
 30
0.0
 11
214.017131
 21
569.35
 31
0.0
  0
LINE
  5
616
100
AcDbEntity
  8
LAY-2
  6
CONTINUOUS
 62
     2
100
AcDbLine
 10
220.025
 20
569.35
 30
0.0
 11
222.65
 21
569.35
 31
0.0
  0
LINE
  5
617
100
AcDbEntity
  8
LAY-2
  6
CONTINUOUS
 62
     2
100
AcDbLine
 10
231.2
 20
569.35
 30
0.0
 11
233.75
 21
569.35
 31
0.0
  0
LINE
  5
618
100
AcDbEntity
  8
LAY-2
  6
CONTINUOUS
 62
     2
100
AcDbLine
 10
236.778952
 20
569.35
 30
0.0
 11
238.932445
 21
569.35
 31
0.0
  0
LINE
  5
619
100
AcDbEntity
  8
LAY-2
  6
CONTINUOUS
 62
     2
100
AcDbLine
 10
239.0
 20
569.35
 30
0.0
 11
241.55
 21
569.35
 31
0.0
  0
LINE
  5
61A
100
AcDbEntity
  8
LAY-2
  6
CONTINUOUS
 62
     2
100
AcDbLine
 10
189.5
 20
568.975
 30
0.0
 11
192.125
 21
568.975
 31
0.0
  0
LINE
  5
61B
100
AcDbEntity
  8
LAY-2
  6
CONTINUOUS
 62
     2
100
AcDbLine
 10
195.495876
 20
568.975
 30
0.0
 11
198.453367
 21
568.975
 31
0.0
  0
LINE
  5
61C
100
AcDbEntity
  8
LAY-2
  6
CONTINUOUS
 62
     2
100
AcDbLine
 10
200.015038
 20
568.975
 30
0.0
 11
205.984962
 21
568.975
 31
0.0
  0
LINE
  5
61D
100
AcDbEntity
  8
LAY-2
  6
CONTINUOUS
 62
     2
100
AcDbLine
 10
207.546633
 20
568.975
 30
0.0
 11
210.504124
 21
568.975
 31
0.0
  0
LINE
  5
61E
100
AcDbEntity
  8
LAY-2
  6
CONTINUOUS
 62
     2
100
AcDbLine
 10
211.318078
 20
568.975
 30
0.0
 11
213.679069
 21
568.975
 31
0.0
  0
LINE
  5
61F
100
AcDbEntity
  8
LAY-2
  6
CONTINUOUS
 62
     2
100
AcDbLine
 10
220.025
 20
568.975
 30
0.0
 11
222.65
 21
568.975
 31
0.0
  0
LINE
  5
620
100
AcDbEntity
  8
LAY-2
  6
CONTINUOUS
 62
     2
100
AcDbLine
 10
231.2
 20
568.975
 30
0.0
 11
233.75
 21
568.975
 31
0.0
  0
LINE
  5
621
100
AcDbEntity
  8
LAY-2
  6
CONTINUOUS
 62
     2
100
AcDbLine
 10
237.025735
 20
568.975
 30
0.0
 11
241.55
 21
568.975
 31
0.0
  0
LINE
  5
622
100
AcDbEntity
  8
LAY-2
  6
CONTINUOUS
 62
     2
100
AcDbLine
 10
189.5
 20
568.6
 30
0.0
 11
192.125
 21
568.6
 31
0.0
  0
LINE
  5
623
100
AcDbEntity
  8
LAY-2
  6
CONTINUOUS
 62
     2
100
AcDbLine
 10
195.637765
 20
568.6
 30
0.0
 11
198.691578
 21
568.6
 31
0.0
  0
LINE
  5
624
100
AcDbEntity
  8
LAY-2
  6
CONTINUOUS
 62
     2
100
AcDbLine
 10
200.392199
 20
568.6
 30
0.0
 11
205.607801
 21
568.6
 31
0.0
  0
LINE
  5
625
100
AcDbEntity
  8
LAY-2
  6
CONTINUOUS
 62
     2
100
AcDbLine
 10
207.308422
 20
568.6
 30
0.0
 11
210.362235
 21
568.6
 31
0.0
  0
LINE
  5
626
100
AcDbEntity
  8
LAY-2
  6
CONTINUOUS
 62
     2
100
AcDbLine
 10
211.190302
 20
568.6
 30
0.0
 11
218.75
 21
568.6
 31
0.0
  0
LINE
  5
627
100
AcDbEntity
  8
LAY-2
  6
CONTINUOUS
 62
     2
100
AcDbLine
 10
220.025
 20
568.6
 30
0.0
 11
230.075
 21
568.6
 31
0.0
  0
LINE
  5
628
100
AcDbEntity
  8
LAY-2
  6
CONTINUOUS
 62
     2
100
AcDbLine
 10
231.2
 20
568.6
 30
0.0
 11
233.75
 21
568.6
 31
0.0
  0
LINE
  5
629
100
AcDbEntity
  8
LAY-2
  6
CONTINUOUS
 62
     2
100
AcDbLine
 10
237.272518
 20
568.6
 30
0.0
 11
241.55
 21
568.6
 31
0.0
  0
LINE
  5
62A
100
AcDbEntity
  8
LAY-2
  6
CONTINUOUS
 62
     2
100
AcDbLine
 10
189.5
 20
568.225
 30
0.0
 11
192.125
 21
568.225
 31
0.0
  0
LINE
  5
62B
100
AcDbEntity
  8
LAY-2
  6
CONTINUOUS
 62
     2
100
AcDbLine
 10
195.801953
 20
568.225
 30
0.0
 11
198.978573
 21
568.225
 31
0.0
  0
LINE
  5
62C
100
AcDbEntity
  8
LAY-2
  6
CONTINUOUS
 62
     2
100
AcDbLine
 10
200.9
 20
568.225
 30
0.0
 11
205.1
 21
568.225
 31
0.0
  0
LINE
  5
62D
100
AcDbEntity
  8
LAY-2
  6
CONTINUOUS
 62
     2
100
AcDbLine
 10
207.021427
 20
568.225
 30
0.0
 11
210.198047
 21
568.225
 31
0.0
  0
LINE
  5
62E
100
AcDbEntity
  8
LAY-2
  6
CONTINUOUS
 62
     2
100
AcDbLine
 10
211.043036
 20
568.225
 30
0.0
 11
218.75
 21
568.225
 31
0.0
  0
LINE
  5
62F
100
AcDbEntity
  8
LAY-2
  6
CONTINUOUS
 62
     2
100
AcDbLine
 10
220.025
 20
568.225
 30
0.0
 11
230.075
 21
568.225
 31
0.0
  0
LINE
  5
630
100
AcDbEntity
  8
LAY-2
  6
CONTINUOUS
 62
     2
100
AcDbLine
 10
231.2
 20
568.225
 30
0.0
 11
233.75
 21
568.225
 31
0.0
  0
LINE
  5
631
100
AcDbEntity
  8
LAY-2
  6
CONTINUOUS
 62
     2
100
AcDbLine
 10
237.519301
 20
568.225
 30
0.0
 11
241.55
 21
568.225
 31
0.0
  0
LINE
  5
632
100
AcDbEntity
  8
LAY-2
  6
CONTINUOUS
 62
     2
100
AcDbLine
 10
189.5
 20
567.85
 30
0.0
 11
192.125
 21
567.85
 31
0.0
  0
LINE
  5
633
100
AcDbEntity
  8
LAY-2
  6
CONTINUOUS
 62
     2
100
AcDbLine
 10
195.990007
 20
567.85
 30
0.0
 11
199.325765
 21
567.85
 31
0.0
  0
LINE
  5
634
100
AcDbEntity
  8
LAY-2
  6
CONTINUOUS
 62
     2
100
AcDbLine
 10
201.68162
 20
567.85
 30
0.0
 11
204.31838
 21
567.85
 31
0.0
  0
LINE
  5
635
100
AcDbEntity
  8
LAY-2
  6
CONTINUOUS
 62
     2
100
AcDbLine
 10
206.674235
 20
567.85
 30
0.0
 11
210.009993
 21
567.85
 31
0.0
  0
LINE
  5
636
100
AcDbEntity
  8
LAY-2
  6
CONTINUOUS
 62
     2
100
AcDbLine
 10
210.875186
 20
567.85
 30
0.0
 11
218.75
 21
567.85
 31
0.0
  0
LINE
  5
637
100
AcDbEntity
  8
LAY-2
  6
CONTINUOUS
 62
     2
100
AcDbLine
 10
220.025
 20
567.85
 30
0.0
 11
230.075
 21
567.85
 31
0.0
  0
LINE
  5
638
100
AcDbEntity
  8
LAY-2
  6
CONTINUOUS
 62
     2
100
AcDbLine
 10
231.2
 20
567.85
 30
0.0
 11
233.75
 21
567.85
 31
0.0
  0
LINE
  5
639
100
AcDbEntity
  8
LAY-2
  6
CONTINUOUS
 62
     2
100
AcDbLine
 10
237.766085
 20
567.85
 30
0.0
 11
241.55
 21
567.85
 31
0.0
  0
LINE
  5
63A
100
AcDbEntity
  8
LAY-2
  6
CONTINUOUS
 62
     2
100
AcDbLine
 10
189.5
 20
567.475
 30
0.0
 11
192.125
 21
567.475
 31
0.0
  0
LINE
  5
63B
100
AcDbEntity
  8
LAY-2
  6
CONTINUOUS
 62
     2
100
AcDbLine
 10
196.203907
 20
567.475
 30
0.0
 11
199.752405
 21
567.475
 31
0.0
  0
LINE
  5
63C
100
AcDbEntity
  8
LAY-2
  6
CONTINUOUS
 62
     2
100
AcDbLine
 10
206.247595
 20
567.475
 30
0.0
 11
209.796093
 21
567.475
 31
0.0
  0
LINE
  5
63D
100
AcDbEntity
  8
LAY-2
  6
CONTINUOUS
 62
     2
100
AcDbLine
 10
210.685403
 20
567.475
 30
0.0
 11
218.75
 21
567.475
 31
0.0
  0
LINE
  5
63E
100
AcDbEntity
  8
LAY-2
  6
CONTINUOUS
 62
     2
100
AcDbLine
 10
220.025
 20
567.475
 30
0.0
 11
230.075
 21
567.475
 31
0.0
  0
LINE
  5
63F
100
AcDbEntity
  8
LAY-2
  6
CONTINUOUS
 62
     2
100
AcDbLine
 10
231.2
 20
567.475
 30
0.0
 11
233.75
 21
567.475
 31
0.0
  0
LINE
  5
640
100
AcDbEntity
  8
LAY-2
  6
CONTINUOUS
 62
     2
100
AcDbLine
 10
238.012868
 20
567.475
 30
0.0
 11
241.55
 21
567.475
 31
0.0
  0
LINE
  5
641
100
AcDbEntity
  8
LAY-2
  6
CONTINUOUS
 62
     2
100
AcDbLine
 10
189.5
 20
567.1
 30
0.0
 11
192.125
 21
567.1
 31
0.0
  0
LINE
  5
642
100
AcDbEntity
  8
LAY-2
  6
CONTINUOUS
 62
     2
100
AcDbLine
 10
196.446184
 20
567.1
 30
0.0
 11
200.295837
 21
567.1
 31
0.0
  0
LINE
  5
643
100
AcDbEntity
  8
LAY-2
  6
CONTINUOUS
 62
     2
100
AcDbLine
 10
205.704163
 20
567.1
 30
0.0
 11
209.553816
 21
567.1
 31
0.0
  0
LINE
  5
644
100
AcDbEntity
  8
LAY-2
  6
CONTINUOUS
 62
     2
100
AcDbLine
 10
210.472018
 20
567.1
 30
0.0
 11
218.75
 21
567.1
 31
0.0
  0
LINE
  5
645
100
AcDbEntity
  8
LAY-2
  6
CONTINUOUS
 62
     2
100
AcDbLine
 10
220.025
 20
567.1
 30
0.0
 11
230.075
 21
567.1
 31
0.0
  0
LINE
  5
646
100
AcDbEntity
  8
LAY-2
  6
CONTINUOUS
 62
     2
100
AcDbLine
 10
231.2
 20
567.1
 30
0.0
 11
233.75
 21
567.1
 31
0.0
  0
LINE
  5
647
100
AcDbEntity
  8
LAY-2
  6
CONTINUOUS
 62
     2
100
AcDbLine
 10
238.259651
 20
567.1
 30
0.0
 11
241.55
 21
567.1
 31
0.0
  0
LINE
  5
648
100
AcDbEntity
  8
LAY-2
  6
CONTINUOUS
 62
     2
100
AcDbLine
 10
189.5
 20
566.725
 30
0.0
 11
192.125
 21
566.725
 31
0.0
  0
LINE
  5
649
100
AcDbEntity
  8
LAY-2
  6
CONTINUOUS
 62
     2
100
AcDbLine
 10
196.720121
 20
566.725
 30
0.0
 11
201.051443
 21
566.725
 31
0.0
  0
LINE
  5
64A
100
AcDbEntity
  8
LAY-2
  6
CONTINUOUS
 62
     2
100
AcDbLine
 10
204.948557
 20
566.725
 30
0.0
 11
209.279879
 21
566.725
 31
0.0
  0
LINE
  5
64B
100
AcDbEntity
  8
LAY-2
  6
CONTINUOUS
 62
     2
100
AcDbLine
 10
210.23294
 20
566.725
 30
0.0
 11
218.75
 21
566.725
 31
0.0
  0
LINE
  5
64C
100
AcDbEntity
  8
LAY-2
  6
CONTINUOUS
 62
     2
100
AcDbLine
 10
220.025
 20
566.725
 30
0.0
 11
230.075
 21
566.725
 31
0.0
  0
LINE
  5
64D
100
AcDbEntity
  8
LAY-2
  6
CONTINUOUS
 62
     2
100
AcDbLine
 10
231.2
 20
566.725
 30
0.0
 11
233.75
 21
566.725
 31
0.0
  0
LINE
  5
64E
100
AcDbEntity
  8
LAY-2
  6
CONTINUOUS
 62
     2
100
AcDbLine
 10
238.506434
 20
566.725
 30
0.0
 11
241.55
 21
566.725
 31
0.0
  0
LINE
  5
64F
100
AcDbEntity
  8
LAY-2
  6
CONTINUOUS
 62
     2
100
AcDbLine
 10
189.5
 20
566.35
 30
0.0
 11
192.125
 21
566.35
 31
0.0
  0
LINE
  5
650
100
AcDbEntity
  8
LAY-2
  6
CONTINUOUS
 62
     2
100
AcDbLine
 10
197.030075
 20
566.35
 30
0.0
 11
208.969925
 21
566.35
 31
0.0
  0
LINE
  5
651
100
AcDbEntity
  8
LAY-2
  6
CONTINUOUS
 62
     2
100
AcDbLine
 10
209.965526
 20
566.35
 30
0.0
 11
218.75
 21
566.35
 31
0.0
  0
LINE
  5
652
100
AcDbEntity
  8
LAY-2
  6
CONTINUOUS
 62
     2
100
AcDbLine
 10
220.025
 20
566.35
 30
0.0
 11
230.075
 21
566.35
 31
0.0
  0
LINE
  5
653
100
AcDbEntity
  8
LAY-2
  6
CONTINUOUS
 62
     2
100
AcDbLine
 10
231.2
 20
566.35
 30
0.0
 11
233.75
 21
566.35
 31
0.0
  0
LINE
  5
654
100
AcDbEntity
  8
LAY-2
  6
CONTINUOUS
 62
     2
100
AcDbLine
 10
238.753217
 20
566.35
 30
0.0
 11
241.55
 21
566.35
 31
0.0
  0
LINE
  5
655
100
AcDbEntity
  8
LAY-2
  6
CONTINUOUS
 62
     2
100
AcDbLine
 10
197.382004
 20
565.975
 30
0.0
 11
208.617996
 21
565.975
 31
0.0
  0
LINE
  5
656
100
AcDbEntity
  8
LAY-2
  6
CONTINUOUS
 62
     2
100
AcDbLine
 10
197.784398
 20
565.6
 30
0.0
 11
208.215602
 21
565.6
 31
0.0
  0
LINE
  5
657
100
AcDbEntity
  8
LAY-2
  6
CONTINUOUS
 62
     2
100
AcDbLine
 10
198.250066
 20
565.225
 30
0.0
 11
207.749934
 21
565.225
 31
0.0
  0
LINE
  5
658
100
AcDbEntity
  8
LAY-2
  6
CONTINUOUS
 62
     2
100
AcDbLine
 10
198.8
 20
564.85
 30
0.0
 11
207.2
 21
564.85
 31
0.0
  0
LINE
  5
659
100
AcDbEntity
  8
LAY-2
  6
CONTINUOUS
 62
     2
100
AcDbLine
 10
199.473405
 20
564.475
 30
0.0
 11
206.526595
 21
564.475
 31
0.0
  0
LINE
  5
65A
100
AcDbEntity
  8
LAY-2
  6
CONTINUOUS
 62
     2
100
AcDbLine
 10
200.363241
 20
564.1
 30
0.0
 11
205.636759
 21
564.1
 31
0.0
  0
LINE
  5
65B
100
AcDbEntity
  8
LAY-2
  6
CONTINUOUS
 62
     2
100
AcDbLine
 10
201.910562
 20
563.725
 30
0.0
 11
204.089438
 21
563.725
 31
0.0
  0
TEXT
  5
65C
100
AcDbEntity
  8
LAY-2
  6
CONTINUOUS
 62
     7
100
AcDbText
 10
643.935714
 20
472.7
 30
0.0
 40
5.0
  1
３００Ａ×５００Ｌ
 41
0.989333
  7
EXCADSTD
 72
     5
 11
696.935714
 21
472.7
 31
0.0
100
AcDbText
  0
TEXT
  5
65D
100
AcDbEntity
  8
LAY-2
  6
CONTINUOUS
 62
     7
100
AcDbText
 10
306.607143
 20
262.7
 30
0.0
 40
5.0
  1
１２００Ａ×７００Ｌ
 41
0.9912
  7
EXCADSTD
 72
     5
 11
365.607143
 21
262.7
 31
0.0
100
AcDbText
  0
TEXT
  5
65E
100
AcDbEntity
  8
LAY-2
  6
CONTINUOUS
 62
     7
100
AcDbText
 10
195.164286
 20
262.7
 30
0.0
 40
5.0
  1
１１００Ａ×７００Ｌ
 41
0.9912
  7
EXCADSTD
 72
     5
 11
254.164286
 21
262.7
 31
0.0
100
AcDbText
  0
TEXT
  5
65F
100
AcDbEntity
  8
LAY-2
  6
CONTINUOUS
 62
     7
100
AcDbText
 10
83.721429
 20
262.7
 30
0.0
 40
5.0
  1
１０００Ａ×７００Ｌ
 41
0.9912
  7
EXCADSTD
 72
     5
 11
142.721429
 21
262.7
 31
0.0
100
AcDbText
  0
TEXT
  5
660
100
AcDbEntity
  8
LAY-2
  6
CONTINUOUS
 62
     7
100
AcDbText
 10
418.05
 20
262.7
 30
0.0
 40
5.0
  1
１３５０Ａ×７００Ｌ
 41
0.9912
  7
EXCADSTD
 72
     5
 11
477.05
 21
262.7
 31
0.0
100
AcDbText
  0
TEXT
  5
661
100
AcDbEntity
  8
LAY-2
  6
CONTINUOUS
 62
     7
100
AcDbText
 10
529.492857
 20
262.7
 30
0.0
 40
5.0
  1
１５００Ａ×７５０Ｌ
 41
0.9912
  7
EXCADSTD
 72
     5
 11
588.492857
 21
262.7
 31
0.0
100
AcDbText
  0
TEXT
  5
662
100
AcDbEntity
  8
LAY-2
  6
CONTINUOUS
 62
     7
100
AcDbText
 10
755.378571
 20
397.7
 30
0.0
 40
5.0
  1
９００Ａ×６５０Ｌ
 41
0.989333
  7
EXCADSTD
 72
     5
 11
808.378571
 21
397.7
 31
0.0
100
AcDbText
  0
TEXT
  5
663
100
AcDbEntity
  8
LAY-2
  6
CONTINUOUS
 62
     7
100
AcDbText
 10
643.935714
 20
397.7
 30
0.0
 40
5.0
  1
８００Ａ×６５０Ｌ
 41
0.989333
  7
EXCADSTD
 72
     5
 11
696.935714
 21
397.7
 31
0.0
100
AcDbText
  0
TEXT
  5
664
100
AcDbEntity
  8
LAY-2
  6
CONTINUOUS
 62
     7
100
AcDbText
 10
532.492857
 20
397.7
 30
0.0
 40
5.0
  1
７００Ａ×６５０Ｌ
 41
0.989333
  7
EXCADSTD
 72
     5
 11
585.492857
 21
397.7
 31
0.0
100
AcDbText
  0
TEXT
  5
665
100
AcDbEntity
  8
LAY-2
  6
CONTINUOUS
 62
     7
100
AcDbText
 10
421.05
 20
397.7
 30
0.0
 40
5.0
  1
６００Ａ×５５０Ｌ
 41
0.989333
  7
EXCADSTD
 72
     5
 11
474.05
 21
397.7
 31
0.0
100
AcDbText
  0
TEXT
  5
666
100
AcDbEntity
  8
LAY-2
  6
CONTINUOUS
 62
     7
100
AcDbText
 10
309.607143
 20
397.7
 30
0.0
 40
5.0
  1
５００Ａ×５５０Ｌ
 41
0.989333
  7
EXCADSTD
 72
     5
 11
362.607143
 21
397.7
 31
0.0
100
AcDbText
  0
TEXT
  5
667
100
AcDbEntity
  8
LAY-2
  6
CONTINUOUS
 62
     7
100
AcDbText
 10
198.164286
 20
397.7
 30
0.0
 40
5.0
  1
４５０Ａ×５５０Ｌ
 41
0.989333
  7
EXCADSTD
 72
     5
 11
251.164286
 21
397.7
 31
0.0
100
AcDbText
  0
TEXT
  5
668
100
AcDbEntity
  8
LAY-2
  6
CONTINUOUS
 62
     7
100
AcDbText
 10
86.721429
 20
397.7
 30
0.0
 40
5.0
  1
４００Ａ×５５０Ｌ
 41
0.989333
  7
EXCADSTD
 72
     5
 11
139.721429
 21
397.7
 31
0.0
100
AcDbText
  0
TEXT
  5
669
100
AcDbEntity
  8
LAY-2
  6
CONTINUOUS
 62
     7
100
AcDbText
 10
755.378571
 20
472.7
 30
0.0
 40
5.0
  1
３５０Ａ×５５０Ｌ
 41
0.989333
  7
EXCADSTD
 72
     5
 11
808.378571
 21
472.7
 31
0.0
100
AcDbText
  0
TEXT
  5
66A
100
AcDbEntity
  8
LAY-2
  6
CONTINUOUS
 62
     7
100
AcDbText
 10
532.492857
 20
472.7
 30
0.0
 40
5.0
  1
２５０Ａ×５００Ｌ
 41
0.989333
  7
EXCADSTD
 72
     5
 11
585.492857
 21
472.7
 31
0.0
100
AcDbText
  0
TEXT
  5
66B
100
AcDbEntity
  8
LAY-2
  6
CONTINUOUS
 62
     7
100
AcDbText
 10
421.05
 20
472.7
 30
0.0
 40
5.0
  1
２００Ａ×５００Ｌ
 41
0.989333
  7
EXCADSTD
 72
     5
 11
474.05
 21
472.7
 31
0.0
100
AcDbText
  0
TEXT
  5
66C
100
AcDbEntity
  8
LAY-2
  6
CONTINUOUS
 62
     7
100
AcDbText
 10
309.607143
 20
472.7
 30
0.0
 40
5.0
  1
１５０Ａ×５００Ｌ
 41
0.989333
  7
EXCADSTD
 72
     5
 11
362.607143
 21
472.7
 31
0.0
100
AcDbText
  0
TEXT
  5
66D
100
AcDbEntity
  8
LAY-2
  6
CONTINUOUS
 62
     7
100
AcDbText
 10
198.164286
 20
472.7
 30
0.0
 40
5.0
  1
１２５Ａ×３５０Ｌ
 41
0.989333
  7
EXCADSTD
 72
     5
 11
251.164286
 21
472.7
 31
0.0
100
AcDbText
  0
TEXT
  5
66E
100
AcDbEntity
  8
LAY-2
  6
CONTINUOUS
 62
     7
100
AcDbText
 10
86.721429
 20
472.7
 30
0.0
 40
5.0
  1
１００Ａ×３５０Ｌ
 41
0.989333
  7
EXCADSTD
 72
     5
 11
139.721429
 21
472.7
 31
0.0
100
AcDbText
  0
TEXT
  5
66F
100
AcDbEntity
  8
LAY-2
  6
CONTINUOUS
 62
     7
100
AcDbText
 10
758.378571
 20
547.7
 30
0.0
 40
5.0
  1
８０Ａ×３５０Ｌ
 41
0.987
  7
EXCADSTD
 72
     5
 11
805.378571
 21
547.7
 31
0.0
100
AcDbText
  0
TEXT
  5
670
100
AcDbEntity
  8
LAY-2
  6
CONTINUOUS
 62
     7
100
AcDbText
 10
646.935714
 20
547.7
 30
0.0
 40
5.0
  1
６５Ａ×３５０Ｌ
 41
0.987
  7
EXCADSTD
 72
     5
 11
693.935714
 21
547.7
 31
0.0
100
AcDbText
  0
TEXT
  5
671
100
AcDbEntity
  8
LAY-2
  6
CONTINUOUS
 62
     7
100
AcDbText
 10
535.492857
 20
547.7
 30
0.0
 40
5.0
  1
５０Ａ×３５０Ｌ
 41
0.987
  7
EXCADSTD
 72
     5
 11
582.492857
 21
547.7
 31
0.0
100
AcDbText
  0
TEXT
  5
672
100
AcDbEntity
  8
LAY-2
  6
CONTINUOUS
 62
     7
100
AcDbText
 10
424.05
 20
547.7
 30
0.0
 40
5.0
  1
４０Ａ×３５０Ｌ
 41
0.987
  7
EXCADSTD
 72
     5
 11
471.05
 21
547.7
 31
0.0
100
AcDbText
  0
TEXT
  5
673
100
AcDbEntity
  8
LAY-2
  6
CONTINUOUS
 62
     7
100
AcDbText
 10
312.607143
 20
547.7
 30
0.0
 40
5.0
  1
３２Ａ×３５０Ｌ
 41
0.987
  7
EXCADSTD
 72
     5
 11
359.607143
 21
547.7
 31
0.0
100
AcDbText
  0
TEXT
  5
674
100
AcDbEntity
  8
LAY-2
  6
CONTINUOUS
 62
     7
100
AcDbText
 10
201.164286
 20
547.7
 30
0.0
 40
5.0
  1
２５Ａ×３５０Ｌ
 41
0.987
  7
EXCADSTD
 72
     5
 11
248.164286
 21
547.7
 31
0.0
100
AcDbText
  0
TEXT
  5
675
100
AcDbEntity
  8
LAY-2
  6
CONTINUOUS
 62
     7
100
AcDbText
 10
89.721429
 20
547.7
 30
0.0
 40
5.0
  1
２０Ａ×３５０Ｌ
 41
0.987
  7
EXCADSTD
 72
     5
 11
136.721429
 21
547.7
 31
0.0
100
AcDbText
  0
LINE
  5
676
100
AcDbEntity
  8
LAY-2
  6
CONTINUOUS
 62
     2
100
AcDbLine
 10
726.157143
 20
555.2
 30
0.0
 11
726.157143
 21
270.2
 31
0.0
  0
LINE
  5
677
100
AcDbEntity
  8
LAY-2
  6
CONTINUOUS
 62
     2
100
AcDbLine
 10
222.65
 20
574.6
 30
0.0
 11
222.65
 21
572.725
 31
0.0
  0
LINE
  5
678
100
AcDbEntity
  8
LAY-2
  6
CONTINUOUS
 62
     2
100
AcDbLine
 10
209.666365
 20
565.975
 30
0.0
 11
218.75
 21
565.975
 31
0.0
  0
LINE
  5
679
100
AcDbEntity
  8
LAY-2
  6
CONTINUOUS
 62
     2
100
AcDbLine
 10
211.190302
 20
574.6
 30
0.0
 11
215.857281
 21
574.6
 31
0.0
  0
LINE
  5
67A
100
AcDbEntity
  8
LAY-2
  6
CONTINUOUS
 62
     2
100
AcDbLine
 10
192.125
 20
574.6
 30
0.0
 11
194.809698
 21
574.6
 31
0.0
  0
LINE
  5
67B
100
AcDbEntity
  8
LAY-2
  6
CONTINUOUS
 62
     2
100
AcDbLine
 10
184.25
 20
574.6
 30
0.0
 11
189.5
 21
574.6
 31
0.0
  0
LINE
  5
67C
100
AcDbEntity
  8
LAY-2
  6
CONTINUOUS
 62
     2
100
AcDbLine
 10
239.0
 20
577.225
 30
0.0
 11
239.0
 21
569.247346
 31
0.0
  0
LINE
  5
67D
100
AcDbEntity
  8
LAY-2
  6
CONTINUOUS
 62
     2
100
AcDbLine
 10
239.0
 20
565.975
 30
0.0
 11
241.55
 21
565.975
 31
0.0
  0
LINE
  5
67E
100
AcDbEntity
  8
LAY-2
  6
CONTINUOUS
 62
     2
100
AcDbLine
 10
231.2
 20
565.975
 30
0.0
 11
233.75
 21
565.975
 31
0.0
  0
LINE
  5
67F
100
AcDbEntity
  8
LAY-2
  6
CONTINUOUS
 62
     2
100
AcDbLine
 10
233.75
 20
573.952654
 30
0.0
 11
233.75
 21
565.975
 31
0.0
  0
LINE
  5
680
100
AcDbEntity
  8
LAY-2
  6
CONTINUOUS
 62
     2
100
AcDbLine
 10
220.025
 20
565.975
 30
0.0
 11
230.075
 21
565.975
 31
0.0
  0
LINE
  5
681
100
AcDbEntity
  8
LAY-2
  6
CONTINUOUS
 62
     2
100
AcDbLine
 10
222.65
 20
570.475
 30
0.0
 11
222.65
 21
568.6
 31
0.0
  0
LINE
  5
682
100
AcDbEntity
  8
LAY-2
  6
CONTINUOUS
 62
     2
100
AcDbLine
 10
222.65
 20
574.6
 30
0.0
 11
230.075
 21
574.6
 31
0.0
  0
LINE
  5
683
100
AcDbEntity
  8
LAY-2
  6
CONTINUOUS
 62
     2
100
AcDbLine
 10
230.075
 20
568.6
 30
0.0
 11
230.075
 21
565.975
 31
0.0
  0
LINE
  5
684
100
AcDbEntity
  8
LAY-2
  6
CONTINUOUS
 62
     2
100
AcDbLine
 10
230.075
 20
572.725
 30
0.0
 11
230.075
 21
570.475
 31
0.0
  0
LINE
  5
685
100
AcDbEntity
  8
LAY-2
  6
CONTINUOUS
 62
     2
100
AcDbLine
 10
230.075
 20
577.225
 30
0.0
 11
230.075
 21
574.6
 31
0.0
  0
LINE
  5
686
100
AcDbEntity
  8
LAY-2
  6
CONTINUOUS
 62
     2
100
AcDbLine
 10
233.75
 20
577.225
 30
0.0
 11
239.0
 21
569.247346
 31
0.0
  0
LINE
  5
687
100
AcDbEntity
  8
LAY-2
  6
CONTINUOUS
 62
     2
100
AcDbLine
 10
239.0
 20
565.975
 30
0.0
 11
233.75
 21
573.952654
 31
0.0
  0
LINE
  5
688
100
AcDbEntity
  8
LAY-2
  6
CONTINUOUS
 62
     2
100
AcDbLine
 10
241.55
 20
577.225
 30
0.0
 11
241.55
 21
565.975
 31
0.0
  0
LINE
  5
689
100
AcDbEntity
  8
LAY-2
  6
CONTINUOUS
 62
     2
100
AcDbLine
 10
231.2
 20
577.225
 30
0.0
 11
231.2
 21
565.975
 31
0.0
  0
LINE
  5
68A
100
AcDbEntity
  8
LAY-2
  6
CONTINUOUS
 62
     2
100
AcDbLine
 10
222.65
 20
570.475
 30
0.0
 11
230.075
 21
570.475
 31
0.0
  0
LINE
  5
68B
100
AcDbEntity
  8
LAY-2
  6
CONTINUOUS
 62
     2
100
AcDbLine
 10
220.025
 20
577.225
 30
0.0
 11
220.025
 21
565.975
 31
0.0
  0
LINE
  5
68C
100
AcDbEntity
  8
LAY-2
  6
CONTINUOUS
 62
     2
100
AcDbLine
 10
215.857281
 20
574.6
 30
0.0
 11
211.536102
 21
569.806673
 31
0.0
  0
LINE
  5
68D
100
AcDbEntity
  8
LAY-2
  6
CONTINUOUS
 62
     2
100
AcDbLine
 10
218.75
 20
574.6
 30
0.0
 11
213.341006
 21
568.6
 31
0.0
  0
ARC
  5
68E
100
AcDbEntity
  8
LAY-2
  6
CONTINUOUS
 62
     2
100
AcDbCircle
 10
203.0
 20
571.6
 30
0.0
 40
8.722445
100
AcDbArc
 50
319.842723
 51
348.135428
  0
LINE
  5
68F
100
AcDbEntity
  8
LAY-2
  6
CONTINUOUS
 62
     2
100
AcDbLine
 10
218.75
 20
577.225
 30
0.0
 11
218.75
 21
574.6
 31
0.0
  0
LINE
  5
690
100
AcDbEntity
  8
LAY-2
  6
CONTINUOUS
 62
     2
100
AcDbLine
 10
218.75
 20
568.6
 30
0.0
 11
218.75
 21
565.975
 31
0.0
  0
ARC
  5
691
100
AcDbEntity
  8
LAY-2
  6
CONTINUOUS
 62
     2
100
AcDbCircle
 10
203.0
 20
571.6
 30
0.0
 40
8.722445
100
AcDbArc
 50
20.117118
 51
40.157277
  0
ARC
  5
692
100
AcDbEntity
  8
LAY-2
  6
CONTINUOUS
 62
     2
100
AcDbCircle
 10
203.0
 20
571.6
 30
0.0
 40
8.722445
100
AcDbArc
 50
139.842723
 51
159.882882
  0
LINE
  5
693
100
AcDbEntity
  8
LAY-2
  6
CONTINUOUS
 62
     2
100
AcDbLine
 10
189.5
 20
565.975
 30
0.0
 11
192.125
 21
565.975
 31
0.0
  0
LINE
  5
694
100
AcDbEntity
  8
LAY-2
  6
CONTINUOUS
 62
     2
100
AcDbLine
 10
184.25
 20
577.225
 30
0.0
 11
184.25
 21
574.6
 31
0.0
  0
CIRCLE
  5
695
100
AcDbEntity
  8
LAY-2
  6
CONTINUOUS
 62
     2
100
AcDbCircle
 10
203.0
 20
571.6
 30
0.0
 40
7.95
  0
CIRCLE
  5
696
100
AcDbEntity
  8
LAY-2
  6
CONTINUOUS
 62
     2
100
AcDbCircle
 10
203.0
 20
571.6
 30
0.0
 40
5.25
  0
CIRCLE
  5
697
100
AcDbEntity
  8
LAY-2
  6
CONTINUOUS
 62
     2
100
AcDbCircle
 10
203.0
 20
571.6
 30
0.0
 40
3.975
  0
LINE
  5
698
100
AcDbEntity
  8
LAY-2
  6
CONTINUOUS
 62
     2
100
AcDbLine
 10
192.125
 20
574.6
 30
0.0
 11
192.125
 21
565.975
 31
0.0
  0
LINE
  5
699
100
AcDbEntity
  8
LAY-2
  6
CONTINUOUS
 62
     2
100
AcDbLine
 10
189.5
 20
574.6
 30
0.0
 11
189.5
 21
565.975
 31
0.0
  0
LINE
  5
69A
100
AcDbEntity
  8
LAY-2
  6
CONTINUOUS
 62
     2
100
AcDbLine
 10
57.5
 20
555.2
 30
0.0
 11
837.6
 21
555.2
 31
0.0
  0
LINE
  5
69B
100
AcDbEntity
  8
LAY-2
  6
CONTINUOUS
 62
     2
100
AcDbLine
 10
57.5
 20
545.2
 30
0.0
 11
837.6
 21
545.2
 31
0.0
  0
LINE
  5
69C
100
AcDbEntity
  8
LAY-2
  6
CONTINUOUS
 62
     2
100
AcDbLine
 10
57.5
 20
480.2
 30
0.0
 11
837.6
 21
480.2
 31
0.0
  0
LINE
  5
69D
100
AcDbEntity
  8
LAY-2
  6
CONTINUOUS
 62
     2
100
AcDbLine
 10
57.5
 20
470.2
 30
0.0
 11
837.6
 21
470.2
 31
0.0
  0
LINE
  5
69E
100
AcDbEntity
  8
LAY-2
  6
CONTINUOUS
 62
     2
100
AcDbLine
 10
57.5
 20
405.2
 30
0.0
 11
837.6
 21
405.2
 31
0.0
  0
LINE
  5
69F
100
AcDbEntity
  8
LAY-2
  6
CONTINUOUS
 62
     2
100
AcDbLine
 10
57.5
 20
395.2
 30
0.0
 11
837.6
 21
395.2
 31
0.0
  0
LINE
  5
6A0
100
AcDbEntity
  8
LAY-2
  6
CONTINUOUS
 62
     2
100
AcDbLine
 10
57.5
 20
270.2
 30
0.0
 11
837.6
 21
270.2
 31
0.0
  0
LINE
  5
6A1
100
AcDbEntity
  8
LAY-2
  6
CONTINUOUS
 62
     2
100
AcDbLine
 10
57.5
 20
260.2
 30
0.0
 11
837.6
 21
260.2
 31
0.0
  0
LINE
  5
6A2
100
AcDbEntity
  8
LAY-2
  6
CONTINUOUS
 62
     2
100
AcDbLine
 10
168.942857
 20
555.2
 30
0.0
 11
168.942857
 21
60.5
 31
0.0
  0
LINE
  5
6A3
100
AcDbEntity
  8
LAY-2
  6
CONTINUOUS
 62
     2
100
AcDbLine
 10
280.385714
 20
555.2
 30
0.0
 11
280.385714
 21
60.5
 31
0.0
  0
LINE
  5
6A4
100
AcDbEntity
  8
LAY-2
  6
CONTINUOUS
 62
     2
100
AcDbLine
 10
391.828571
 20
555.2
 30
0.0
 11
391.828571
 21
60.5
 31
0.0
  0
LINE
  5
6A5
100
AcDbEntity
  8
LAY-2
  6
CONTINUOUS
 62
     2
100
AcDbLine
 10
503.271429
 20
555.2
 30
0.0
 11
503.271429
 21
60.0
 31
0.0
  0
LINE
  5
6A6
100
AcDbEntity
  8
LAY-2
  6
CONTINUOUS
 62
     2
100
AcDbLine
 10
614.714286
 20
555.2
 30
0.0
 11
614.714286
 21
60.0
 31
0.0
  0
LINE
  5
6A7
100
AcDbEntity
  8
LAY-2
  6
CONTINUOUS
 62
     2
100
AcDbLine
 10
57.5
 20
588.5
 30
0.0
 11
57.5
 21
60.2
 31
0.0
  0
LINE
  5
6A8
100
AcDbEntity
  8
LAY-2
  6
CONTINUOUS
 62
     2
100
AcDbLine
 10
837.6
 20
588.5
 30
0.0
 11
57.5
 21
588.5
 31
0.0
  0
LINE
  5
6A9
100
AcDbEntity
  8
LAY-2
  6
CONTINUOUS
 62
     2
100
AcDbLine
 10
837.6
 20
60.2
 30
0.0
 11
837.6
 21
588.5
 31
0.0
  0
LINE
  5
6AA
100
AcDbEntity
  8
LAY-2
  6
CONTINUOUS
 62
     2
100
AcDbLine
 10
57.5
 20
60.2
 30
0.0
 11
837.6
 21
60.2
 31
0.0
  0
TEXT
  5
6AB
100
AcDbEntity
  8
LAY-2
  6
CONTINUOUS
 62
     7
100
AcDbText
 10
248.55
 20
561.85
 30
0.0
 40
20.0
  1
ＬＣコネクタ　１００ｍｍ偏心用（３山）
 41
0.879789
  7
EXCADSTD
 72
     5
 11
646.55
 21
561.85
 31
0.0
100
AcDbText
  0
TEXT
  5
6AD
100
AcDbEntity
  8
LAY-2
  6
CONTINUOUS
 62
     1
100
AcDbText
 10
229.850002
 20
1.7
 30
0.0
 40
11.25
  1
スケールは１／１０となっています。必要に応じてサイズを１０倍して下さい。
 41
0.966667
  7
EXCADTTF1
 72
     5
 11
752.350002
 21
1.7
 31
0.0
100
AcDbText
  0
ENDSEC
  0
SECTION
  2
OBJECTS
  0
DICTIONARY
  5
19
100
AcDbDictionary
  3
ACAD_GROUP
350
1A
  3
ACAD_MLINESTYLE
350
1B
  0
DICTIONARY
  5
1A
102
{ACAD_REACTORS
330
19
102
}
100
AcDbDictionary
  0
DICTIONARY
  5
1B
102
{ACAD_REACTORS
330
19
102
}
100
AcDbDictionary
  3
STANDARD
350
1C
  0
MLINESTYLE
  5
1C
102
{ACAD_REACTORS
330
1B
102
}
100
AcDbMlineStyle
  2
Standard
 70
     0
  3

 62
     0
 51
90.0
 52
90.0
 71
     2
 49
0.5
 62
   256
  6
ByLayer
 49
-0.5
 62
   256
  6
ByLayer
  0
ENDSEC
  0
EOF
