  0
SECTION
  2
HEADER
  9
$ACADVER
  1
AC1014
  9
$ACADMAINTVER
 70
     0
  9
$DWGCODEPAGE
  3
DOS932
  9
$INSBASE
 10
0.0
 20
0.0
 30
0.0
  9
$EXTMIN
 10
31.378571
 20
-23.9
 30
0.0
  9
$EXTMAX
 10
811.478571
 20
559.6
 30
0.0
  9
$LIMMIN
 10
0.0
 20
0.0
  9
$LIMMAX
 10
841.0
 20
594.0
  9
$ORTHOMODE
 70
     0
  9
$REGENMODE
 70
     1
  9
$FILLMODE
 70
     1
  9
$QTEXTMODE
 70
     0
  9
$MIRRTEXT
 70
     1
  9
$DRAGMODE
 70
     2
  9
$LTSCALE
 40
1.0
  9
$OSMODE
 70
     0
  9
$ATTMODE
 70
     1
  9
$TEXTSIZE
 40
0.2
  9
$TRACEWID
 40
0.05
  9
$TEXTSTYLE
  7
STANDARD
  9
$CLAYER
  8
LAY-1
  9
$CELTYPE
  6
CONTINUOUS
  9
$CECOLOR
 62
   256
  9
$CELTSCALE
 40
1.0
  9
$DELOBJ
 70
     1
  9
$DISPSILH
 70
     0
  9
$DIMSCALE
 40
1.0
  9
$DIMASZ
 40
0.18
  9
$DIMEXO
 40
0.0625
  9
$DIMDLI
 40
0.38
  9
$DIMRND
 40
0.0
  9
$DIMDLE
 40
0.0
  9
$DIMEXE
 40
0.18
  9
$DIMTP
 40
0.0
  9
$DIMTM
 40
0.0
  9
$DIMTXT
 40
0.18
  9
$DIMCEN
 40
0.09
  9
$DIMTSZ
 40
0.0
  9
$DIMTOL
 70
     0
  9
$DIMLIM
 70
     0
  9
$DIMTIH
 70
     1
  9
$DIMTOH
 70
     1
  9
$DIMSE1
 70
     0
  9
$DIMSE2
 70
     0
  9
$DIMTAD
 70
     0
  9
$DIMZIN
 70
     0
  9
$DIMBLK
  1

  9
$DIMASO
 70
     1
  9
$DIMSHO
 70
     1
  9
$DIMPOST
  1

  9
$DIMAPOST
  1

  9
$DIMALT
 70
     0
  9
$DIMALTD
 70
     2
  9
$DIMALTF
 40
25.4
  9
$DIMLFAC
 40
1.0
  9
$DIMTOFL
 70
     0
  9
$DIMTVP
 40
0.0
  9
$DIMTIX
 70
     0
  9
$DIMSOXD
 70
     0
  9
$DIMSAH
 70
     0
  9
$DIMBLK1
  1

  9
$DIMBLK2
  1

  9
$DIMSTYLE
  2
STANDARD
  9
$DIMCLRD
 70
     0
  9
$DIMCLRE
 70
     0
  9
$DIMCLRT
 70
     0
  9
$DIMTFAC
 40
1.0
  9
$DIMGAP
 40
0.09
  9
$DIMJUST
 70
     0
  9
$DIMSD1
 70
     0
  9
$DIMSD2
 70
     0
  9
$DIMTOLJ
 70
     1
  9
$DIMTZIN
 70
     0
  9
$DIMALTZ
 70
     0
  9
$DIMALTTZ
 70
     0
  9
$DIMFIT
 70
     3
  9
$DIMUPT
 70
     0
  9
$DIMUNIT
 70
     2
  9
$DIMDEC
 70
     4
  9
$DIMTDEC
 70
     4
  9
$DIMALTU
 70
     2
  9
$DIMALTTD
 70
     2
  9
$DIMTXSTY
  7
STANDARD
  9
$DIMAUNIT
 70
     0
  9
$LUNITS
 70
     2
  9
$LUPREC
 70
     4
  9
$SKETCHINC
 40
0.1
  9
$FILLETRAD
 40
0.0
  9
$AUNITS
 70
     0
  9
$AUPREC
 70
     0
  9
$MENU
  1
acad
  9
$ELEVATION
 40
0.0
  9
$PELEVATION
 40
0.0
  9
$THICKNESS
 40
0.0
  9
$LIMCHECK
 70
     0
  9
$BLIPMODE
 70
     1
  9
$CHAMFERA
 40
0.0
  9
$CHAMFERB
 40
0.0
  9
$CHAMFERC
 40
0.0
  9
$CHAMFERD
 40
0.0
  9
$SKPOLY
 70
     0
  9
$TDCREATE
 40
2453503.877697419
  9
$TDUPDATE
 40
2453503.877697419
  9
$TDINDWG
 40
0.0000000000
  9
$TDUSRTIMER
 40
0.0000000000
  9
$USRTIMER
 70
     1
  9
$ANGBASE
 50
0.0
  9
$ANGDIR
 70
     0
  9
$PDMODE
 70
     0
  9
$PDSIZE
 40
0.0
  9
$PLINEWID
 40
0.0
  9
$COORDS
 70
     1
  9
$SPLFRAME
 70
     0
  9
$SPLINETYPE
 70
     6
  9
$SPLINESEGS
 70
     8
  9
$ATTDIA
 70
     0
  9
$ATTREQ
 70
     1
  9
$HANDLING
 70
     1
  9
$HANDSEED
  5
7CD
  9
$SURFTAB1
 70
     6
  9
$SURFTAB2
 70
     6
  9
$SURFTYPE
 70
     6
  9
$SURFU
 70
     6
  9
$SURFV
 70
     6
  9
$UCSNAME
  2

  9
$UCSORG
 10
0.0
 20
0.0
 30
0.0
  9
$UCSXDIR
 10
1.0
 20
0.0
 30
0.0
  9
$UCSYDIR
 10
0.0
 20
1.0
 30
0.0
  9
$PUCSNAME
  2

  9
$PUCSORG
 10
0.0
 20
0.0
 30
0.0
  9
$PUCSXDIR
 10
1.0
 20
0.0
 30
0.0
  9
$PUCSYDIR
 10
0.0
 20
1.0
 30
0.0
  9
$USERI1
 70
     0
  9
$USERI2
 70
     0
  9
$USERI3
 70
     0
  9
$USERI4
 70
     0
  9
$USERI5
 70
     0
  9
$USERR1
 40
0.0
  9
$USERR2
 40
0.0
  9
$USERR3
 40
0.0
  9
$USERR4
 40
0.0
  9
$USERR5
 40
0.0
  9
$WORLDVIEW
 70
     1
  9
$SHADEDGE
 70
     3
  9
$SHADEDIF
 70
    70
  9
$TILEMODE
 70
     1
  9
$MAXACTVP
 70
    16
  9
$PINSBASE
 10
0.0
 20
0.0
 30
0.0
  9
$PLIMCHECK
 70
     0
  9
$PEXTMIN
 10
1.000000E+20
 20
1.000000E+20
 30
1.000000E+20
  9
$PEXTMAX
 10
-1.000000E+20
 20
-1.000000E+20
 30
-1.000000E+20
  9
$PLIMMIN
 10
0.0
 20
0.0
  9
$PLIMMAX
 10
12.0
 20
9.0
  9
$UNITMODE
 70
     0
  9
$VISRETAIN
 70
     0
  9
$PLINEGEN
 70
     1
  9
$PSLTSCALE
 70
     0
  9
$TREEDEPTH
 70
  3020
  9
$PICKSTYLE
 70
     1
  9
$CMLSTYLE
  2
Standard
  9
$CMLJUST
 70
     0
  9
$CMLSCALE
 40
1.0
  9
$PROXYGRAPHICS
 70
     0
  9
$MEASUREMENT
 70
     0
  0
ENDSEC
  0
SECTION
  2
CLASSES
  0
CLASS
  1
LWPOLYLINE
  2
AcDbPolyline
  3
"AutoCAD"
 90
        0
280
     0
281
     1
  0
CLASS
  1
IMAGE
  2
AcDbRasterImage
  3
ISM
 90
      127
280
     0
281
     1
  0
CLASS
  1
OLE2FRAME
  2
AcDbOle2Frame
  3
""
 90
        0
280
     0
281
     1
  0
CLASS
  1
HATCH
  2
AcDbHatch
  3
"ACAD_SEDONA"
 90
        0
280
     0
281
     1
  0
CLASS
  1
DICTIONARYVAR
  2
AcDbDictionaryVar
  3
"AutoCAD"
 90
        0
280
     0
281
     0
  0
CLASS
  1
RASTERVARIABLES
  2
AcDbRasterVariables
  3
ISM
 90
        0
280
     0
281
     0
  0
CLASS
  1
IMAGEDEF
  2
AcDbRasterImageDef
  3
ISM
 90
        0
280
     0
281
     0
  0
CLASS
  1
IMAGEDEF_REACTOR
  2
AcDbRasterImageDefReactor
  3
ISM
 90
        1
280
     0
281
     0
  0
CLASS
  1
IDBUFFER
  2
AcDbIdBuffer
  3
"Acad"
 90
        0
280
     0
281
     0
  0
CLASS
  1
SPATIAL_FILTER
  2
AcDbSpatialFilter
  3
"Acad"
 90
        0
280
     0
281
     0
  0
CLASS
  1
XRECORD
  2
AcDbXrecord
  3
"<Built In>"
 90
        0
280
     0
281
     0
  0
CLASS
  1
SORTENTSTABLE
  2
AcDbSortentsTable
  3
"AutoCAD"
 90
        0
280
     0
281
     0
  0
CLASS
  1
LAYER_INDEX
  2
AcDbLayerIndex
  3
"Acad"
 90
        0
280
     0
281
     0
  0
CLASS
  1
SPATIAL_INDEX
  2
AcDbSpatialIndex
  3
"Acad"
 90
        0
280
     0
281
     0
  0
CLASS
  1
OBJECT_PTR
  2
CAseDLPNTableRecord
  3
"ASE-LPNTableRecord"
 90
        1
280
     0
281
     0
  0
CLASS
  1
LAYOUT
  2
AcDbLayout
  3
"AutoCAD 2000"
 90
        1
280
     0
281
     0
  0
CLASS
  1
PLOTSETTINGS
  2
AcDbPlotSettings
  3
"AutoCAD 2000"
 90
        1
280
     0
281
     0
  0
CLASS
  1
ACDBDICTIONARYWDFLT
  2
AcDbDictionaryWithDefault
  3
"AutoCAD 2000"
 90
        1
280
     0
281
     0
  0
CLASS
  1
ACDBPLACEHOLDER
  2
AcDbPlaceHolder
  3
"AutoCAD 2000"
 90
        1
280
     0
281
     0
  0
CLASS
  1
VBA_PROJECT
  2
AcDbVbaProject
  3
"acadvba"
 90
        1
280
     0
281
     0
  0
CLASS
  1
WIPEOUT
  2
AcDbWipeout
  3
WipeOut|AutoCAD Express Tool|expresstools@autodesk.com
 90
      127
280
     0
281
     1
  0
CLASS
  1
WIPEOUTVARIABLES
  2
AcDbWipeoutVariables
  3
WipeOut|AutoCAD Express Tool|expresstools@autodesk.com
 90
        0
280
     0
281
     0
  0
CLASS
  1
RTEXT
  2
RText
  3
RText|AutoCAD Express Tool|expresstools@autodesk.com
 90
        0
280
     0
281
     1
  0
CLASS
  1
ARCALIGNEDTEXT
  2
AcDbArcAlignedText
  3
ATEXT|AutoCAD Express Tool|expresstools@autodesk.com
 90
        0
280
     0
281
     1
  0
ENDSEC
  0
SECTION
  2
TABLES
  0
TABLE
  2
VPORT
  5
7
100
AcDbSymbolTable
 70
     1
  0
VPORT
  5
15
100
AcDbSymbolTableRecord
100
AcDbViewportTableRecord
  2
*ACTIVE
 70
     0
 10
0.0
 20
0.0
 11
1.0
 21
1.0
 12
421.428571
 22
267.85
 13
0.0
 23
0.0
 14
1.0
 24
1.0
 15
0.0
 25
0.0
 16
0.0
 26
0.0
 36
1.0
 17
0.0
 27
0.0
 37
0.0
 40
583.5
 41
1.722533
 42
50.0
 43
0.0
 44
0.0
 50
0.0
 51
0.0
 71
     0
 72
   100
 73
     1
 74
     1
 75
     0
 76
     0
 77
     0
 78
     0
  0
ENDTAB
  0
TABLE
  2
LTYPE
  5
4
100
AcDbSymbolTable
 70
     9
  0
LTYPE
  5
11
100
AcDbSymbolTableRecord
100
AcDbLinetypeTableRecord
  2
BYBLOCK
 70
    64
  3

 72
    65
 73
     0
 40
0.0
  0
LTYPE
  5
12
100
AcDbSymbolTableRecord
100
AcDbLinetypeTableRecord
  2
BYLAYER
 70
    64
  3

 72
    65
 73
     0
 40
0.0
  0
LTYPE
  5
13
100
AcDbSymbolTableRecord
100
AcDbLinetypeTableRecord
  2
CONTINUOUS
 70
    64
  3
実線
 72
    65
 73
     0
 40
0.0
  0
LTYPE
  5
1D
100
AcDbSymbolTableRecord
100
AcDbLinetypeTableRecord
  2
EXLTYPE1
 70
    64
  3
破線
 72
    65
 73
     2
 40
4.0
 49
3.0
 74
     0
 49
-1.0
 74
     0
  0
LTYPE
  5
1E
100
AcDbSymbolTableRecord
100
AcDbLinetypeTableRecord
  2
EXLTYPE2
 70
    64
  3
点線
 72
    65
 73
     2
 40
2.0
 49
1.0
 74
     0
 49
-1.0
 74
     0
  0
LTYPE
  5
1F
100
AcDbSymbolTableRecord
100
AcDbLinetypeTableRecord
  2
EXLTYPE3
 70
    64
  3
一点鎖線
 72
    65
 73
     4
 40
33.0
 49
30.0
 74
     0
 49
-1.0
 74
     0
 49
1.0
 74
     0
 49
-1.0
 74
     0
  0
LTYPE
  5
20
100
AcDbSymbolTableRecord
100
AcDbLinetypeTableRecord
  2
EXLTYPE4
 70
    64
  3
二点鎖線
 72
    65
 73
     6
 40
35.0
 49
30.0
 74
     0
 49
-1.0
 74
     0
 49
1.0
 74
     0
 49
-1.0
 74
     0
 49
1.0
 74
     0
 49
-1.0
 74
     0
  0
LTYPE
  5
21
100
AcDbSymbolTableRecord
100
AcDbLinetypeTableRecord
  2
EXLTYPE5
 70
    64
  3
三点鎖線
 72
    65
 73
     8
 40
37.0
 49
30.0
 74
     0
 49
-1.0
 74
     0
 49
1.0
 74
     0
 49
-1.0
 74
     0
 49
1.0
 74
     0
 49
-1.0
 74
     0
 49
1.0
 74
     0
 49
-1.0
 74
     0
  0
LTYPE
  5
22
100
AcDbSymbolTableRecord
100
AcDbLinetypeTableRecord
  2
EXLTYPE6
 70
    64
  3
四点鎖線
 72
    65
 73
    10
 40
39.0
 49
30.0
 74
     0
 49
-1.0
 74
     0
 49
1.0
 74
     0
 49
-1.0
 74
     0
 49
1.0
 74
     0
 49
-1.0
 74
     0
 49
1.0
 74
     0
 49
-1.0
 74
     0
 49
1.0
 74
     0
 49
-1.0
 74
     0
  0
ENDTAB
  0
TABLE
  2
LAYER
  5
2
100
AcDbSymbolTable
 70
     3
  0
LAYER
  5
14
100
AcDbSymbolTableRecord
100
AcDbLayerTableRecord
  2
0
 70
     0
 62
     7
  6
CONTINUOUS
  0
LAYER
  5
25
100
AcDbSymbolTableRecord
100
AcDbLayerTableRecord
  2
LAY-1
 70
    64
 62
     7
  6
CONTINUOUS
  0
LAYER
  5
26
100
AcDbSymbolTableRecord
100
AcDbLayerTableRecord
  2
LAY-2
 70
    64
 62
     7
  6
CONTINUOUS
  0
ENDTAB
  0
TABLE
  2
STYLE
  5
3
100
AcDbSymbolTable
 70
     4
  0
STYLE
  5
17
100
AcDbSymbolTableRecord
100
AcDbTextStyleTableRecord
  2
STANDARD
 70
     0
 40
0.0
 41
1.0
 50
0.0
 71
     0
 42
0.0
  3
monotxt
  4
extfont
  0
STYLE
  5
23
100
AcDbSymbolTableRecord
100
AcDbTextStyleTableRecord
  2
EXCADSTD
 70
    64
 40
0.0
 41
1.0
 50
0.0
 71
     0
 42
0.2
  3
monotxt
  4
extfont
  0
STYLE
  5
24
100
AcDbSymbolTableRecord
100
AcDbTextStyleTableRecord
  2
EXCADVERT
 70
    68
 40
0.0
 41
1.0
 50
0.0
 71
     0
 42
0.286885
  3
monotxt
  4
extfont
  0
STYLE
  5
7CB
100
AcDbSymbolTableRecord
100
AcDbTextStyleTableRecord
  2
EXCADTTF1
 70
    64
 40
0.0
 41
1.0
 50
0.0
 71
     0
 42
0.2
  3
MS Gothic.ttf
  4

1001
ACAD
1000
MS Gothic
1071
    32817
  0
ENDTAB
  0
TABLE
  2
VIEW
  5
5
100
AcDbSymbolTable
 70
     0
  0
ENDTAB
  0
TABLE
  2
UCS
  5
6
100
AcDbSymbolTable
 70
     0
  0
ENDTAB
  0
TABLE
  2
APPID
  5
8
100
AcDbSymbolTable
 70
     1
  0
APPID
  5
16
100
AcDbSymbolTableRecord
100
AcDbRegAppTableRecord
  2
ACAD
 70
     0
  0
ENDTAB
  0
TABLE
  2
DIMSTYLE
  5
9
100
AcDbSymbolTable
 70
     1
  0
DIMSTYLE
105
18
100
AcDbSymbolTableRecord
100
AcDbDimStyleTableRecord
  2
STANDARD
 70
     0
  3

  4

  5

  6

  7

 40
1.0
 41
0.18
 42
0.0625
 43
0.38
 44
0.18
 45
0.0
 46
0.0
 47
0.0
 48
0.0
 71
     0
 72
     0
 73
     1
 74
     1
 75
     0
 76
     0
 77
     0
 78
     0
140
0.18
141
0.09
142
0.0
143
25.4
144
1.0
145
0.0
146
1.0
147
0.09
170
     0
171
     2
172
     0
173
     0
174
     0
175
     0
176
     0
177
     0
178
     0
270
     2
271
     4
272
     4
273
     2
274
     2
275
     0
280
     0
281
     0
282
     0
283
     1
284
     0
285
     0
286
     0
287
     0
288
     0
340
17
  0
ENDTAB
  0
TABLE
  2
BLOCK_RECORD
  5
1
100
AcDbSymbolTable
 70
    14
  0
BLOCK_RECORD
  5
A
100
AcDbSymbolTableRecord
100
AcDbBlockTableRecord
  2
*MODEL_SPACE
  0
BLOCK_RECORD
  5
B
100
AcDbSymbolTableRecord
100
AcDbBlockTableRecord
  2
*PAPER_SPACE
  0
BLOCK_RECORD
  5
27
100
AcDbSymbolTableRecord
100
AcDbBlockTableRecord
  2
_EX_NORM
  0
BLOCK_RECORD
  5
28
100
AcDbSymbolTableRecord
100
AcDbBlockTableRecord
  2
_EX_BNORM
  0
BLOCK_RECORD
  5
29
100
AcDbSymbolTableRecord
100
AcDbBlockTableRecord
  2
_EX_BCIR
  0
BLOCK_RECORD
  5
2A
100
AcDbSymbolTableRecord
100
AcDbBlockTableRecord
  2
_EX_RCIVIL
  0
BLOCK_RECORD
  5
2B
100
AcDbSymbolTableRecord
100
AcDbBlockTableRecord
  2
_EX_SLANT
  0
BLOCK_RECORD
  5
2C
100
AcDbSymbolTableRecord
100
AcDbBlockTableRecord
  2
_EX_NONE
  0
BLOCK_RECORD
  5
2D
100
AcDbSymbolTableRecord
100
AcDbBlockTableRecord
  2
_EX_CIVIL
  0
BLOCK_RECORD
  5
2E
100
AcDbSymbolTableRecord
100
AcDbBlockTableRecord
  2
_EX_WCIR
  0
BLOCK_RECORD
  5
2F
100
AcDbSymbolTableRecord
100
AcDbBlockTableRecord
  2
_EX_WCIR2
  0
BLOCK_RECORD
  5
30
100
AcDbSymbolTableRecord
100
AcDbBlockTableRecord
  2
_EX_WNORM
  0
BLOCK_RECORD
  5
31
100
AcDbSymbolTableRecord
100
AcDbBlockTableRecord
  2
_EX_NNORM
  0
BLOCK_RECORD
  5
32
100
AcDbSymbolTableRecord
100
AcDbBlockTableRecord
  2
_EX_BBOX
  0
BLOCK_RECORD
  5
33
100
AcDbSymbolTableRecord
100
AcDbBlockTableRecord
  2
_EX_WBOX
  0
BLOCK_RECORD
  5
34
100
AcDbSymbolTableRecord
100
AcDbBlockTableRecord
  2
_EX_INTEGRAL
  0
ENDTAB
  0
ENDSEC
  0
SECTION
  2
BLOCKS
  0
BLOCK
  5
D
100
AcDbEntity
  8
0
100
AcDbBlockBegin
  2
*MODEL_SPACE
 70
     0
 10
0.0
 20
0.0
 30
0.0
  3
*MODEL_SPACE
  1

  0
ENDBLK
  5
E
100
AcDbEntity
  8
0
100
AcDbBlockEnd
  0
BLOCK
  5
F
100
AcDbEntity
 67
     1
  8
0
100
AcDbBlockBegin
  2
*PAPER_SPACE
 70
     0
 10
0.0
 20
0.0
 30
0.0
  3
*PAPER_SPACE
  1

  0
ENDBLK
  5
10
100
AcDbEntity
 67
     1
  8
0
100
AcDbBlockEnd
  0
BLOCK
  5
35
100
AcDbEntity
  8
0
100
AcDbBlockBegin
  2
_EX_NORM
 70
     0
 10
0.0
 20
0.0
 30
0.0
  3
_EX_NORM
  1

  0
LINE
  5
36
100
AcDbEntity
  8
0
  6
CONTINUOUS
 62
     0
100
AcDbLine
 10
0.0
 20
0.0
 30
0.0
 11
-1.0
 21
0.0
 31
0.0
  0
LINE
  5
37
100
AcDbEntity
  8
0
  6
CONTINUOUS
 62
     0
100
AcDbLine
 10
0.0
 20
0.0
 30
0.0
 11
-1.0
 21
0.166667
 31
0.0
  0
LINE
  5
38
100
AcDbEntity
  8
0
  6
CONTINUOUS
 62
     0
100
AcDbLine
 10
0.0
 20
0.0
 30
0.0
 11
-1.0
 21
-0.166667
 31
0.0
  0
ENDBLK
  5
39
100
AcDbEntity
  8
0
100
AcDbBlockEnd
  0
BLOCK
  5
3A
100
AcDbEntity
  8
0
100
AcDbBlockBegin
  2
_EX_BNORM
 70
     0
 10
0.0
 20
0.0
 30
0.0
  3
_EX_BNORM
  1

  0
LINE
  5
3B
100
AcDbEntity
  8
0
  6
CONTINUOUS
 62
     0
100
AcDbLine
 10
0.0
 20
0.0
 30
0.0
 11
-1.0
 21
0.0
 31
0.0
  0
LINE
  5
3C
100
AcDbEntity
  8
0
  6
CONTINUOUS
 62
     0
100
AcDbLine
 10
0.0
 20
0.0
 30
0.0
 11
-1.0
 21
0.166667
 31
0.0
  0
LINE
  5
3D
100
AcDbEntity
  8
0
  6
CONTINUOUS
 62
     0
100
AcDbLine
 10
0.0
 20
0.0
 30
0.0
 11
-1.0
 21
-0.166667
 31
0.0
  0
LINE
  5
3E
100
AcDbEntity
  8
0
  6
CONTINUOUS
 62
     0
100
AcDbLine
 10
0.0
 20
0.0
 30
0.0
 11
-1.0
 21
0.083333
 31
0.0
  0
LINE
  5
3F
100
AcDbEntity
  8
0
  6
CONTINUOUS
 62
     0
100
AcDbLine
 10
0.0
 20
0.0
 30
0.0
 11
-1.0
 21
-0.083333
 31
0.0
  0
LINE
  5
40
100
AcDbEntity
  8
0
  6
CONTINUOUS
 62
     0
100
AcDbLine
 10
-1.0
 20
0.166667
 30
0.0
 11
-1.0
 21
-0.166667
 31
0.0
  0
ENDBLK
  5
41
100
AcDbEntity
  8
0
100
AcDbBlockEnd
  0
BLOCK
  5
42
100
AcDbEntity
  8
0
100
AcDbBlockBegin
  2
_EX_BCIR
 70
     0
 10
0.0
 20
0.0
 30
0.0
  3
_EX_BCIR
  1

  0
LINE
  5
43
100
AcDbEntity
  8
0
  6
CONTINUOUS
 62
     0
100
AcDbLine
 10
0.0
 20
0.0
 30
0.0
 11
-1.0
 21
0.0
 31
0.0
  0
CIRCLE
  5
44
100
AcDbEntity
  8
0
  6
CONTINUOUS
 62
     0
100
AcDbCircle
 10
0.0
 20
0.0
 30
0.0
 40
0.5
  0
CIRCLE
  5
45
100
AcDbEntity
  8
0
  6
CONTINUOUS
 62
     0
100
AcDbCircle
 10
0.0
 20
0.0
 30
0.0
 40
0.25
  0
ENDBLK
  5
46
100
AcDbEntity
  8
0
100
AcDbBlockEnd
  0
BLOCK
  5
47
100
AcDbEntity
  8
0
100
AcDbBlockBegin
  2
_EX_RCIVIL
 70
     0
 10
0.0
 20
0.0
 30
0.0
  3
_EX_RCIVIL
  1

  0
LINE
  5
48
100
AcDbEntity
  8
0
  6
CONTINUOUS
 62
     0
100
AcDbLine
 10
0.0
 20
0.0
 30
0.0
 11
-1.0
 21
0.0
 31
0.0
  0
LINE
  5
49
100
AcDbEntity
  8
0
  6
CONTINUOUS
 62
     0
100
AcDbLine
 10
-1.0
 20
-0.25
 30
0.0
 11
0.0
 21
-0.25
 31
0.0
  0
LINE
  5
4A
100
AcDbEntity
  8
0
  6
CONTINUOUS
 62
     0
100
AcDbLine
 10
-1.0
 20
-0.125
 30
0.0
 11
0.0
 21
-0.125
 31
0.0
  0
ENDBLK
  5
4B
100
AcDbEntity
  8
0
100
AcDbBlockEnd
  0
BLOCK
  5
4C
100
AcDbEntity
  8
0
100
AcDbBlockBegin
  2
_EX_SLANT
 70
     0
 10
0.0
 20
0.0
 30
0.0
  3
_EX_SLANT
  1

  0
LINE
  5
4D
100
AcDbEntity
  8
0
  6
CONTINUOUS
 62
     0
100
AcDbLine
 10
0.0
 20
0.0
 30
0.0
 11
-1.0
 21
0.0
 31
0.0
  0
LINE
  5
4E
100
AcDbEntity
  8
0
  6
CONTINUOUS
 62
     0
100
AcDbLine
 10
0.707107
 20
0.707107
 30
0.0
 11
-0.707107
 21
-0.707107
 31
0.0
  0
ENDBLK
  5
4F
100
AcDbEntity
  8
0
100
AcDbBlockEnd
  0
BLOCK
  5
50
100
AcDbEntity
  8
0
100
AcDbBlockBegin
  2
_EX_NONE
 70
     0
 10
0.0
 20
0.0
 30
0.0
  3
_EX_NONE
  1

  0
LINE
  5
51
100
AcDbEntity
  8
0
  6
CONTINUOUS
 62
     0
100
AcDbLine
 10
0.0
 20
0.0
 30
0.0
 11
-1.0
 21
0.0
 31
0.0
  0
ENDBLK
  5
52
100
AcDbEntity
  8
0
100
AcDbBlockEnd
  0
BLOCK
  5
53
100
AcDbEntity
  8
0
100
AcDbBlockBegin
  2
_EX_CIVIL
 70
     0
 10
0.0
 20
0.0
 30
0.0
  3
_EX_CIVIL
  1

  0
LINE
  5
54
100
AcDbEntity
  8
0
  6
CONTINUOUS
 62
     0
100
AcDbLine
 10
0.0
 20
0.0
 30
0.0
 11
-1.0
 21
0.0
 31
0.0
  0
LINE
  5
55
100
AcDbEntity
  8
0
  6
CONTINUOUS
 62
     0
100
AcDbLine
 10
-1.0
 20
0.25
 30
0.0
 11
0.0
 21
0.25
 31
0.0
  0
LINE
  5
56
100
AcDbEntity
  8
0
  6
CONTINUOUS
 62
     0
100
AcDbLine
 10
-1.0
 20
0.125
 30
0.0
 11
0.0
 21
0.125
 31
0.0
  0
ENDBLK
  5
57
100
AcDbEntity
  8
0
100
AcDbBlockEnd
  0
BLOCK
  5
58
100
AcDbEntity
  8
0
100
AcDbBlockBegin
  2
_EX_WCIR
 70
     0
 10
0.0
 20
0.0
 30
0.0
  3
_EX_WCIR
  1

  0
LINE
  5
59
100
AcDbEntity
  8
0
  6
CONTINUOUS
 62
     0
100
AcDbLine
 10
0.0
 20
0.0
 30
0.0
 11
-1.0
 21
0.0
 31
0.0
  0
CIRCLE
  5
5A
100
AcDbEntity
  8
0
  6
CONTINUOUS
 62
     0
100
AcDbCircle
 10
0.0
 20
0.0
 30
0.0
 40
0.5
  0
ENDBLK
  5
5B
100
AcDbEntity
  8
0
100
AcDbBlockEnd
  0
BLOCK
  5
5C
100
AcDbEntity
  8
0
100
AcDbBlockBegin
  2
_EX_WCIR2
 70
     0
 10
0.0
 20
0.0
 30
0.0
  3
_EX_WCIR2
  1

  0
LINE
  5
5D
100
AcDbEntity
  8
0
  6
CONTINUOUS
 62
     0
100
AcDbLine
 10
-0.5
 20
0.0
 30
0.0
 11
-1.0
 21
0.0
 31
0.0
  0
CIRCLE
  5
5E
100
AcDbEntity
  8
0
  6
CONTINUOUS
 62
     0
100
AcDbCircle
 10
0.0
 20
0.0
 30
0.0
 40
0.5
  0
ENDBLK
  5
5F
100
AcDbEntity
  8
0
100
AcDbBlockEnd
  0
BLOCK
  5
60
100
AcDbEntity
  8
0
100
AcDbBlockBegin
  2
_EX_WNORM
 70
     0
 10
0.0
 20
0.0
 30
0.0
  3
_EX_WNORM
  1

  0
LINE
  5
61
100
AcDbEntity
  8
0
  6
CONTINUOUS
 62
     0
100
AcDbLine
 10
-1.0
 20
0.0
 30
0.0
 11
-1.0
 21
0.0
 31
0.0
  0
LINE
  5
62
100
AcDbEntity
  8
0
  6
CONTINUOUS
 62
     0
100
AcDbLine
 10
0.0
 20
0.0
 30
0.0
 11
-1.0
 21
0.166667
 31
0.0
  0
LINE
  5
63
100
AcDbEntity
  8
0
  6
CONTINUOUS
 62
     0
100
AcDbLine
 10
0.0
 20
0.0
 30
0.0
 11
-1.0
 21
-0.166667
 31
0.0
  0
LINE
  5
64
100
AcDbEntity
  8
0
  6
CONTINUOUS
 62
     0
100
AcDbLine
 10
-1.0
 20
0.166667
 30
0.0
 11
-1.0
 21
-0.166667
 31
0.0
  0
ENDBLK
  5
65
100
AcDbEntity
  8
0
100
AcDbBlockEnd
  0
BLOCK
  5
66
100
AcDbEntity
  8
0
100
AcDbBlockBegin
  2
_EX_NNORM
 70
     0
 10
0.0
 20
0.0
 30
0.0
  3
_EX_NNORM
  1

  0
LINE
  5
67
100
AcDbEntity
  8
0
  6
CONTINUOUS
 62
     0
100
AcDbLine
 10
0.0
 20
0.0
 30
0.0
 11
-1.0
 21
0.0
 31
0.0
  0
LINE
  5
68
100
AcDbEntity
  8
0
  6
CONTINUOUS
 62
     0
100
AcDbLine
 10
0.0
 20
0.0
 30
0.0
 11
-1.0
 21
0.166667
 31
0.0
  0
LINE
  5
69
100
AcDbEntity
  8
0
  6
CONTINUOUS
 62
     0
100
AcDbLine
 10
0.0
 20
0.0
 30
0.0
 11
-1.0
 21
-0.166667
 31
0.0
  0
LINE
  5
6A
100
AcDbEntity
  8
0
  6
CONTINUOUS
 62
     0
100
AcDbLine
 10
-1.0
 20
0.166667
 30
0.0
 11
-1.0
 21
-0.166667
 31
0.0
  0
ENDBLK
  5
6B
100
AcDbEntity
  8
0
100
AcDbBlockEnd
  0
BLOCK
  5
6C
100
AcDbEntity
  8
0
100
AcDbBlockBegin
  2
_EX_BBOX
 70
     0
 10
0.0
 20
0.0
 30
0.0
  3
_EX_BBOX
  1

  0
LINE
  5
6D
100
AcDbEntity
  8
0
  6
CONTINUOUS
 62
     0
100
AcDbLine
 10
0.0
 20
0.0
 30
0.0
 11
-1.0
 21
0.0
 31
0.0
  0
LINE
  5
6E
100
AcDbEntity
  8
0
  6
CONTINUOUS
 62
     0
100
AcDbLine
 10
-0.5
 20
0.5
 30
0.0
 11
0.5
 21
0.5
 31
0.0
  0
LINE
  5
6F
100
AcDbEntity
  8
0
  6
CONTINUOUS
 62
     0
100
AcDbLine
 10
0.5
 20
0.5
 30
0.0
 11
0.5
 21
-0.5
 31
0.0
  0
LINE
  5
70
100
AcDbEntity
  8
0
  6
CONTINUOUS
 62
     0
100
AcDbLine
 10
0.5
 20
-0.5
 30
0.0
 11
-0.5
 21
-0.5
 31
0.0
  0
LINE
  5
71
100
AcDbEntity
  8
0
  6
CONTINUOUS
 62
     0
100
AcDbLine
 10
-0.5
 20
-0.5
 30
0.0
 11
-0.5
 21
0.5
 31
0.0
  0
LINE
  5
72
100
AcDbEntity
  8
0
  6
CONTINUOUS
 62
     0
100
AcDbLine
 10
-0.25
 20
0.25
 30
0.0
 11
0.25
 21
0.25
 31
0.0
  0
LINE
  5
73
100
AcDbEntity
  8
0
  6
CONTINUOUS
 62
     0
100
AcDbLine
 10
0.25
 20
0.25
 30
0.0
 11
0.25
 21
-0.25
 31
0.0
  0
LINE
  5
74
100
AcDbEntity
  8
0
  6
CONTINUOUS
 62
     0
100
AcDbLine
 10
0.25
 20
-0.25
 30
0.0
 11
-0.25
 21
-0.25
 31
0.0
  0
LINE
  5
75
100
AcDbEntity
  8
0
  6
CONTINUOUS
 62
     0
100
AcDbLine
 10
-0.25
 20
-0.25
 30
0.0
 11
-0.25
 21
0.25
 31
0.0
  0
ENDBLK
  5
76
100
AcDbEntity
  8
0
100
AcDbBlockEnd
  0
BLOCK
  5
77
100
AcDbEntity
  8
0
100
AcDbBlockBegin
  2
_EX_WBOX
 70
     0
 10
0.0
 20
0.0
 30
0.0
  3
_EX_WBOX
  1

  0
LINE
  5
78
100
AcDbEntity
  8
0
  6
CONTINUOUS
 62
     0
100
AcDbLine
 10
-0.5
 20
0.0
 30
0.0
 11
-1.0
 21
0.0
 31
0.0
  0
LINE
  5
79
100
AcDbEntity
  8
0
  6
CONTINUOUS
 62
     0
100
AcDbLine
 10
-0.5
 20
0.5
 30
0.0
 11
0.5
 21
0.5
 31
0.0
  0
LINE
  5
7A
100
AcDbEntity
  8
0
  6
CONTINUOUS
 62
     0
100
AcDbLine
 10
0.5
 20
0.5
 30
0.0
 11
0.5
 21
-0.5
 31
0.0
  0
LINE
  5
7B
100
AcDbEntity
  8
0
  6
CONTINUOUS
 62
     0
100
AcDbLine
 10
0.5
 20
-0.5
 30
0.0
 11
-0.5
 21
-0.5
 31
0.0
  0
LINE
  5
7C
100
AcDbEntity
  8
0
  6
CONTINUOUS
 62
     0
100
AcDbLine
 10
-0.5
 20
-0.5
 30
0.0
 11
-0.5
 21
0.5
 31
0.0
  0
ENDBLK
  5
7D
100
AcDbEntity
  8
0
100
AcDbBlockEnd
  0
BLOCK
  5
7E
100
AcDbEntity
  8
0
100
AcDbBlockBegin
  2
_EX_INTEGRAL
 70
     0
 10
0.0
 20
0.0
 30
0.0
  3
_EX_INTEGRAL
  1

  0
LINE
  5
7F
100
AcDbEntity
  8
0
  6
CONTINUOUS
 62
     0
100
AcDbLine
 10
0.0
 20
0.0
 30
0.0
 11
-1.0
 21
0.0
 31
0.0
  0
ARC
  5
80
100
AcDbEntity
  8
0
  6
CONTINUOUS
 62
     0
100
AcDbCircle
 10
0.0
 20
0.0
 30
0.0
 40
0.707107
100
AcDbArc
 50
90.0
 51
180.0
  0
ARC
  5
81
100
AcDbEntity
  8
0
  6
CONTINUOUS
 62
     0
100
AcDbCircle
 10
0.0
 20
0.0
 30
0.0
 40
0.707107
100
AcDbArc
 50
270.0
 51
0.0
  0
ENDBLK
  5
82
100
AcDbEntity
  8
0
100
AcDbBlockEnd
  0
ENDSEC
  0
SECTION
  2
ENTITIES
  0
LINE
  5
83
100
AcDbEntity
  8
LAY-1
  6
CONTINUOUS
 62
     2
100
AcDbLine
 10
31.378571
 20
31.3
 30
0.0
 11
811.478571
 21
31.3
 31
0.0
  0
LINE
  5
84
100
AcDbEntity
  8
LAY-1
  6
CONTINUOUS
 62
     2
100
AcDbLine
 10
811.478571
 20
559.6
 30
0.0
 11
31.378571
 21
559.6
 31
0.0
  0
LINE
  5
85
100
AcDbEntity
  8
LAY-1
  6
CONTINUOUS
 62
     2
100
AcDbLine
 10
31.378571
 20
231.3
 30
0.0
 11
811.478571
 21
231.3
 31
0.0
  0
LINE
  5
86
100
AcDbEntity
  8
LAY-1
  6
CONTINUOUS
 62
     2
100
AcDbLine
 10
31.378571
 20
241.3
 30
0.0
 11
811.478571
 21
241.3
 31
0.0
  0
LINE
  5
87
100
AcDbEntity
  8
LAY-1
  6
CONTINUOUS
 62
     2
100
AcDbLine
 10
31.378571
 20
376.3
 30
0.0
 11
811.478571
 21
376.3
 31
0.0
  0
LINE
  5
88
100
AcDbEntity
  8
LAY-1
  6
CONTINUOUS
 62
     2
100
AcDbLine
 10
31.378571
 20
386.3
 30
0.0
 11
811.478571
 21
386.3
 31
0.0
  0
LINE
  5
89
100
AcDbEntity
  8
LAY-1
  6
CONTINUOUS
 62
     2
100
AcDbLine
 10
31.378571
 20
461.3
 30
0.0
 11
811.478571
 21
461.3
 31
0.0
  0
LINE
  5
8A
100
AcDbEntity
  8
LAY-1
  6
CONTINUOUS
 62
     2
100
AcDbLine
 10
31.378571
 20
526.3
 30
0.0
 11
811.478571
 21
526.3
 31
0.0
  0
LINE
  5
8B
100
AcDbEntity
  8
LAY-1
  6
CONTINUOUS
 62
     2
100
AcDbLine
 10
31.378571
 20
536.3
 30
0.0
 11
811.478571
 21
536.3
 31
0.0
  0
TEXT
  5
8C
100
AcDbEntity
  8
LAY-1
  6
CONTINUOUS
 62
     7
100
AcDbText
 10
72.878571
 20
528.8
 30
0.0
 40
5.0
  1
２０Ａ×７５０Ｌ
 41
0.987
  7
EXCADSTD
 72
     5
 11
119.878571
 21
528.8
 31
0.0
100
AcDbText
  0
TEXT
  5
8D
100
AcDbEntity
  8
LAY-1
  6
CONTINUOUS
 62
     7
100
AcDbText
 10
202.878571
 20
528.8
 30
0.0
 40
5.0
  1
２５Ａ×７５０Ｌ
 41
0.987
  7
EXCADSTD
 72
     5
 11
249.878571
 21
528.8
 31
0.0
100
AcDbText
  0
TEXT
  5
8E
100
AcDbEntity
  8
LAY-1
  6
CONTINUOUS
 62
     7
100
AcDbText
 10
332.878571
 20
528.8
 30
0.0
 40
5.0
  1
３２Ａ×７５０Ｌ
 41
0.987
  7
EXCADSTD
 72
     5
 11
379.878571
 21
528.8
 31
0.0
100
AcDbText
  0
TEXT
  5
8F
100
AcDbEntity
  8
LAY-1
  6
CONTINUOUS
 62
     7
100
AcDbText
 10
462.878571
 20
528.8
 30
0.0
 40
5.0
  1
４０Ａ×７５０Ｌ
 41
0.987
  7
EXCADSTD
 72
     5
 11
509.878571
 21
528.8
 31
0.0
100
AcDbText
  0
TEXT
  5
90
100
AcDbEntity
  8
LAY-1
  6
CONTINUOUS
 62
     7
100
AcDbText
 10
592.878571
 20
528.8
 30
0.0
 40
5.0
  1
５０Ａ×７５０Ｌ
 41
0.987
  7
EXCADSTD
 72
     5
 11
639.878571
 21
528.8
 31
0.0
100
AcDbText
  0
TEXT
  5
91
100
AcDbEntity
  8
LAY-1
  6
CONTINUOUS
 62
     7
100
AcDbText
 10
722.928571
 20
528.8
 30
0.0
 40
5.0
  1
６５Ａ×７５０Ｌ
 41
0.987
  7
EXCADSTD
 72
     5
 11
769.928571
 21
528.8
 31
0.0
100
AcDbText
  0
TEXT
  5
92
100
AcDbEntity
  8
LAY-1
  6
CONTINUOUS
 62
     7
100
AcDbText
 10
719.928571
 20
453.8
 30
0.0
 40
5.0
  1
２５０Ａ×８５０Ｌ
 41
0.989333
  7
EXCADSTD
 72
     5
 11
772.928571
 21
453.8
 31
0.0
100
AcDbText
  0
TEXT
  5
93
100
AcDbEntity
  8
LAY-1
  6
CONTINUOUS
 62
     7
100
AcDbText
 10
589.878571
 20
453.8
 30
0.0
 40
5.0
  1
２００Ａ×８５０Ｌ
 41
0.989333
  7
EXCADSTD
 72
     5
 11
642.878571
 21
453.8
 31
0.0
100
AcDbText
  0
TEXT
  5
94
100
AcDbEntity
  8
LAY-1
  6
CONTINUOUS
 62
     7
100
AcDbText
 10
459.878571
 20
453.8
 30
0.0
 40
5.0
  1
１５０Ａ×７５０Ｌ
 41
0.989333
  7
EXCADSTD
 72
     5
 11
512.878571
 21
453.8
 31
0.0
100
AcDbText
  0
TEXT
  5
95
100
AcDbEntity
  8
LAY-1
  6
CONTINUOUS
 62
     7
100
AcDbText
 10
329.878571
 20
453.8
 30
0.0
 40
5.0
  1
１２５Ａ×７５０Ｌ
 41
0.989333
  7
EXCADSTD
 72
     5
 11
382.878571
 21
453.8
 31
0.0
100
AcDbText
  0
TEXT
  5
96
100
AcDbEntity
  8
LAY-1
  6
CONTINUOUS
 62
     7
100
AcDbText
 10
199.878571
 20
453.8
 30
0.0
 40
5.0
  1
１００Ａ×７５０Ｌ
 41
0.989333
  7
EXCADSTD
 72
     5
 11
252.878571
 21
453.8
 31
0.0
100
AcDbText
  0
TEXT
  5
97
100
AcDbEntity
  8
LAY-1
  6
CONTINUOUS
 62
     7
100
AcDbText
 10
72.878571
 20
453.8
 30
0.0
 40
5.0
  1
８０Ａ×７５０Ｌ
 41
0.987
  7
EXCADSTD
 72
     5
 11
119.878571
 21
453.8
 31
0.0
100
AcDbText
  0
TEXT
  5
98
100
AcDbEntity
  8
LAY-1
  6
CONTINUOUS
 62
     7
100
AcDbText
 10
69.878571
 20
378.8
 30
0.0
 40
5.0
  1
３００Ａ×９５０Ｌ
 41
0.989333
  7
EXCADSTD
 72
     5
 11
122.878571
 21
378.8
 31
0.0
100
AcDbText
  0
TEXT
  5
99
100
AcDbEntity
  8
LAY-1
  6
CONTINUOUS
 62
     7
100
AcDbText
 10
196.878571
 20
378.8
 30
0.0
 40
5.0
  1
３５０Ａ×１１００Ｌ
 41
0.9912
  7
EXCADSTD
 72
     5
 11
255.878571
 21
378.8
 31
0.0
100
AcDbText
  0
TEXT
  5
9A
100
AcDbEntity
  8
LAY-1
  6
CONTINUOUS
 62
     7
100
AcDbText
 10
328.128571
 20
378.8
 30
0.0
 40
5.0
  1
４００A×１１００Ｌ
 41
0.96728
  7
EXCADSTD
 72
     5
 11
384.628571
 21
378.8
 31
0.0
100
AcDbText
  0
TEXT
  5
9B
100
AcDbEntity
  8
LAY-1
  6
CONTINUOUS
 62
     7
100
AcDbText
 10
456.878571
 20
378.8
 30
0.0
 40
5.0
  1
４５０Ａ×１１００Ｌ
 41
0.9912
  7
EXCADSTD
 72
     5
 11
515.878571
 21
378.8
 31
0.0
100
AcDbText
  0
TEXT
  5
9C
100
AcDbEntity
  8
LAY-1
  6
CONTINUOUS
 62
     7
100
AcDbText
 10
131.878571
 20
233.8
 30
0.0
 40
5.0
  1
６００Ａ×１２５０Ｌ
 41
0.9912
  7
EXCADSTD
 72
     5
 11
190.878571
 21
233.8
 31
0.0
100
AcDbText
  0
TEXT
  5
9D
100
AcDbEntity
  8
LAY-1
  6
CONTINUOUS
 62
     7
100
AcDbText
 10
651.928571
 20
378.8
 30
0.0
 40
5.0
  1
５００Ａ×１１００Ｌ
 41
0.9912
  7
EXCADSTD
 72
     5
 11
710.928571
 21
378.8
 31
0.0
100
AcDbText
  0
ARC
  5
9E
100
AcDbEntity
  8
LAY-1
  6
CONTINUOUS
 62
     3
100
AcDbCircle
 10
96.378571
 20
495.19
 30
0.0
 40
2.2
100
AcDbArc
 50
27.645523
 51
152.354477
  0
ARC
  5
9F
100
AcDbEntity
  8
LAY-1
  6
CONTINUOUS
 62
     3
100
AcDbCircle
 10
98.593159
 20
496.35
 30
0.0
 40
0.3
100
AcDbArc
 50
207.645523
 51
270.0
  0
ARC
  5
A0
100
AcDbEntity
  8
LAY-1
  6
CONTINUOUS
 62
     3
100
AcDbCircle
 10
94.163983
 20
496.35
 30
0.0
 40
0.3
100
AcDbArc
 50
270.0
 51
332.354477
  0
ARC
  5
A1
100
AcDbEntity
  8
LAY-1
  6
CONTINUOUS
 62
     3
100
AcDbCircle
 10
94.163983
 20
491.25
 30
0.0
 40
0.3
100
AcDbArc
 50
27.645523
 51
90.0
  0
ARC
  5
A2
100
AcDbEntity
  8
LAY-1
  6
CONTINUOUS
 62
     3
100
AcDbCircle
 10
96.378571
 20
492.41
 30
0.0
 40
2.2
100
AcDbArc
 50
207.645523
 51
332.354477
  0
ARC
  5
A3
100
AcDbEntity
  8
LAY-1
  6
CONTINUOUS
 62
     3
100
AcDbCircle
 10
98.593159
 20
491.25
 30
0.0
 40
0.3
100
AcDbArc
 50
90.0
 51
152.354477
  0
LINE
  5
A4
100
AcDbEntity
  8
LAY-1
  6
CONTINUOUS
 62
     3
100
AcDbLine
 10
94.429734
 20
496.2108
 30
0.0
 11
94.429734
 21
491.3892
 31
0.0
  0
LINE
  5
A5
100
AcDbEntity
  8
LAY-1
  6
CONTINUOUS
 62
     3
100
AcDbLine
 10
98.327409
 20
491.3892
 30
0.0
 11
98.327409
 21
496.2108
 31
0.0
  0
LINE
  5
A6
100
AcDbEntity
  8
LAY-1
  6
CONTINUOUS
 62
     3
100
AcDbLine
 10
89.093159
 20
496.05
 30
0.0
 11
94.163983
 21
496.05
 31
0.0
  0
LINE
  5
A7
100
AcDbEntity
  8
LAY-1
  6
CONTINUOUS
 62
     3
100
AcDbLine
 10
94.163983
 20
491.55
 30
0.0
 11
89.093159
 21
491.55
 31
0.0
  0
ARC
  5
A8
100
AcDbEntity
  8
LAY-1
  6
CONTINUOUS
 62
     3
100
AcDbCircle
 10
86.878571
 20
495.19
 30
0.0
 40
2.2
100
AcDbArc
 50
27.645523
 51
152.354477
  0
ARC
  5
A9
100
AcDbEntity
  8
LAY-1
  6
CONTINUOUS
 62
     3
100
AcDbCircle
 10
89.093159
 20
496.35
 30
0.0
 40
0.3
100
AcDbArc
 50
207.645523
 51
270.0
  0
ARC
  5
AA
100
AcDbEntity
  8
LAY-1
  6
CONTINUOUS
 62
     3
100
AcDbCircle
 10
84.663983
 20
496.35
 30
0.0
 40
0.3
100
AcDbArc
 50
270.0
 51
332.354477
  0
ARC
  5
AB
100
AcDbEntity
  8
LAY-1
  6
CONTINUOUS
 62
     3
100
AcDbCircle
 10
84.663983
 20
491.25
 30
0.0
 40
0.3
100
AcDbArc
 50
27.645523
 51
90.0
  0
ARC
  5
AC
100
AcDbEntity
  8
LAY-1
  6
CONTINUOUS
 62
     3
100
AcDbCircle
 10
86.878571
 20
492.41
 30
0.0
 40
2.2
100
AcDbArc
 50
207.645523
 51
332.354477
  0
ARC
  5
AD
100
AcDbEntity
  8
LAY-1
  6
CONTINUOUS
 62
     3
100
AcDbCircle
 10
89.093159
 20
491.25
 30
0.0
 40
0.3
100
AcDbArc
 50
90.0
 51
152.354477
  0
LINE
  5
AE
100
AcDbEntity
  8
LAY-1
  6
CONTINUOUS
 62
     3
100
AcDbLine
 10
84.929734
 20
496.2108
 30
0.0
 11
84.929734
 21
491.3892
 31
0.0
  0
LINE
  5
AF
100
AcDbEntity
  8
LAY-1
  6
CONTINUOUS
 62
     3
100
AcDbLine
 10
88.827409
 20
491.3892
 30
0.0
 11
88.827409
 21
496.2108
 31
0.0
  0
LINE
  5
B0
100
AcDbEntity
  8
LAY-1
  6
CONTINUOUS
 62
     3
100
AcDbLine
 10
79.327409
 20
491.3892
 30
0.0
 11
79.327409
 21
496.2108
 31
0.0
  0
LINE
  5
B1
100
AcDbEntity
  8
LAY-1
  6
CONTINUOUS
 62
     3
100
AcDbLine
 10
75.429734
 20
496.2108
 30
0.0
 11
75.429734
 21
491.3892
 31
0.0
  0
ARC
  5
B2
100
AcDbEntity
  8
LAY-1
  6
CONTINUOUS
 62
     3
100
AcDbCircle
 10
79.593159
 20
491.25
 30
0.0
 40
0.3
100
AcDbArc
 50
90.0
 51
152.354477
  0
ARC
  5
B3
100
AcDbEntity
  8
LAY-1
  6
CONTINUOUS
 62
     3
100
AcDbCircle
 10
77.378571
 20
492.41
 30
0.0
 40
2.2
100
AcDbArc
 50
207.645523
 51
332.354477
  0
ARC
  5
B4
100
AcDbEntity
  8
LAY-1
  6
CONTINUOUS
 62
     3
100
AcDbCircle
 10
75.163983
 20
491.25
 30
0.0
 40
0.3
100
AcDbArc
 50
27.645523
 51
90.0
  0
ARC
  5
B5
100
AcDbEntity
  8
LAY-1
  6
CONTINUOUS
 62
     3
100
AcDbCircle
 10
75.163983
 20
496.35
 30
0.0
 40
0.3
100
AcDbArc
 50
270.0
 51
332.354477
  0
ARC
  5
B6
100
AcDbEntity
  8
LAY-1
  6
CONTINUOUS
 62
     3
100
AcDbCircle
 10
79.593159
 20
496.35
 30
0.0
 40
0.3
100
AcDbArc
 50
207.645523
 51
270.0
  0
ARC
  5
B7
100
AcDbEntity
  8
LAY-1
  6
CONTINUOUS
 62
     3
100
AcDbCircle
 10
77.378571
 20
495.19
 30
0.0
 40
2.2
100
AcDbArc
 50
27.645523
 51
152.354477
  0
LINE
  5
B8
100
AcDbEntity
  8
LAY-1
  6
CONTINUOUS
 62
     3
100
AcDbLine
 10
84.663983
 20
491.55
 30
0.0
 11
79.593159
 21
491.55
 31
0.0
  0
LINE
  5
B9
100
AcDbEntity
  8
LAY-1
  6
CONTINUOUS
 62
     3
100
AcDbLine
 10
79.593159
 20
496.05
 30
0.0
 11
84.663983
 21
496.05
 31
0.0
  0
ARC
  5
BA
100
AcDbEntity
  8
LAY-1
  6
CONTINUOUS
 62
     3
100
AcDbCircle
 10
67.878571
 20
495.19
 30
0.0
 40
2.2
100
AcDbArc
 50
27.645523
 51
152.354477
  0
ARC
  5
BB
100
AcDbEntity
  8
LAY-1
  6
CONTINUOUS
 62
     3
100
AcDbCircle
 10
70.093159
 20
496.35
 30
0.0
 40
0.3
100
AcDbArc
 50
207.645523
 51
270.0
  0
ARC
  5
BC
100
AcDbEntity
  8
LAY-1
  6
CONTINUOUS
 62
     3
100
AcDbCircle
 10
65.663983
 20
496.35
 30
0.0
 40
0.3
100
AcDbArc
 50
270.0
 51
332.354477
  0
ARC
  5
BD
100
AcDbEntity
  8
LAY-1
  6
CONTINUOUS
 62
     3
100
AcDbCircle
 10
65.663983
 20
491.25
 30
0.0
 40
0.3
100
AcDbArc
 50
27.645523
 51
90.0
  0
ARC
  5
BE
100
AcDbEntity
  8
LAY-1
  6
CONTINUOUS
 62
     3
100
AcDbCircle
 10
67.878571
 20
492.41
 30
0.0
 40
2.2
100
AcDbArc
 50
207.645523
 51
332.354477
  0
ARC
  5
BF
100
AcDbEntity
  8
LAY-1
  6
CONTINUOUS
 62
     3
100
AcDbCircle
 10
70.093159
 20
491.25
 30
0.0
 40
0.3
100
AcDbArc
 50
90.0
 51
152.354477
  0
LINE
  5
C0
100
AcDbEntity
  8
LAY-1
  6
CONTINUOUS
 62
     3
100
AcDbLine
 10
65.929734
 20
496.2108
 30
0.0
 11
65.929734
 21
491.3892
 31
0.0
  0
LINE
  5
C1
100
AcDbEntity
  8
LAY-1
  6
CONTINUOUS
 62
     3
100
AcDbLine
 10
69.827409
 20
491.3892
 30
0.0
 11
69.827409
 21
496.2108
 31
0.0
  0
LINE
  5
C2
100
AcDbEntity
  8
LAY-1
  6
CONTINUOUS
 62
     3
100
AcDbLine
 10
75.163983
 20
491.55
 30
0.0
 11
70.093159
 21
491.55
 31
0.0
  0
LINE
  5
C3
100
AcDbEntity
  8
LAY-1
  6
CONTINUOUS
 62
     3
100
AcDbLine
 10
70.093159
 20
496.05
 30
0.0
 11
75.163983
 21
496.05
 31
0.0
  0
LINE
  5
C4
100
AcDbEntity
  8
LAY-1
  6
CONTINUOUS
 62
     3
100
AcDbLine
 10
107.827409
 20
491.3892
 30
0.0
 11
107.827409
 21
496.2108
 31
0.0
  0
LINE
  5
C5
100
AcDbEntity
  8
LAY-1
  6
CONTINUOUS
 62
     3
100
AcDbLine
 10
103.929734
 20
496.2108
 30
0.0
 11
103.929734
 21
491.3892
 31
0.0
  0
ARC
  5
C6
100
AcDbEntity
  8
LAY-1
  6
CONTINUOUS
 62
     3
100
AcDbCircle
 10
108.093159
 20
491.25
 30
0.0
 40
0.3
100
AcDbArc
 50
90.0
 51
152.354477
  0
ARC
  5
C7
100
AcDbEntity
  8
LAY-1
  6
CONTINUOUS
 62
     3
100
AcDbCircle
 10
105.878571
 20
492.41
 30
0.0
 40
2.2
100
AcDbArc
 50
207.645523
 51
332.354477
  0
ARC
  5
C8
100
AcDbEntity
  8
LAY-1
  6
CONTINUOUS
 62
     3
100
AcDbCircle
 10
103.663983
 20
491.25
 30
0.0
 40
0.3
100
AcDbArc
 50
27.645523
 51
90.0
  0
ARC
  5
C9
100
AcDbEntity
  8
LAY-1
  6
CONTINUOUS
 62
     3
100
AcDbCircle
 10
103.663983
 20
496.35
 30
0.0
 40
0.3
100
AcDbArc
 50
270.0
 51
332.354477
  0
ARC
  5
CA
100
AcDbEntity
  8
LAY-1
  6
CONTINUOUS
 62
     3
100
AcDbCircle
 10
108.093159
 20
496.35
 30
0.0
 40
0.3
100
AcDbArc
 50
207.645523
 51
270.0
  0
ARC
  5
CB
100
AcDbEntity
  8
LAY-1
  6
CONTINUOUS
 62
     3
100
AcDbCircle
 10
105.878571
 20
495.19
 30
0.0
 40
2.2
100
AcDbArc
 50
27.645523
 51
152.354477
  0
LINE
  5
CC
100
AcDbEntity
  8
LAY-1
  6
CONTINUOUS
 62
     3
100
AcDbLine
 10
103.663983
 20
491.55
 30
0.0
 11
98.593159
 21
491.55
 31
0.0
  0
LINE
  5
CD
100
AcDbEntity
  8
LAY-1
  6
CONTINUOUS
 62
     3
100
AcDbLine
 10
98.593159
 20
496.05
 30
0.0
 11
103.663983
 21
496.05
 31
0.0
  0
LINE
  5
CE
100
AcDbEntity
  8
LAY-1
  6
CONTINUOUS
 62
     3
100
AcDbLine
 10
113.163983
 20
491.55
 30
0.0
 11
108.093159
 21
491.55
 31
0.0
  0
LINE
  5
CF
100
AcDbEntity
  8
LAY-1
  6
CONTINUOUS
 62
     3
100
AcDbLine
 10
108.093159
 20
496.05
 30
0.0
 11
113.163983
 21
496.05
 31
0.0
  0
LINE
  5
D0
100
AcDbEntity
  8
LAY-1
  6
CONTINUOUS
 62
     3
100
AcDbLine
 10
117.327409
 20
491.3892
 30
0.0
 11
117.327409
 21
496.2108
 31
0.0
  0
LINE
  5
D1
100
AcDbEntity
  8
LAY-1
  6
CONTINUOUS
 62
     3
100
AcDbLine
 10
113.429734
 20
496.2108
 30
0.0
 11
113.429734
 21
491.3892
 31
0.0
  0
ARC
  5
D2
100
AcDbEntity
  8
LAY-1
  6
CONTINUOUS
 62
     3
100
AcDbCircle
 10
117.593159
 20
491.25
 30
0.0
 40
0.3
100
AcDbArc
 50
90.0
 51
152.354477
  0
ARC
  5
D3
100
AcDbEntity
  8
LAY-1
  6
CONTINUOUS
 62
     3
100
AcDbCircle
 10
115.378571
 20
492.41
 30
0.0
 40
2.2
100
AcDbArc
 50
207.645523
 51
332.354477
  0
ARC
  5
D4
100
AcDbEntity
  8
LAY-1
  6
CONTINUOUS
 62
     3
100
AcDbCircle
 10
113.163983
 20
491.25
 30
0.0
 40
0.3
100
AcDbArc
 50
27.645523
 51
90.0
  0
ARC
  5
D5
100
AcDbEntity
  8
LAY-1
  6
CONTINUOUS
 62
     3
100
AcDbCircle
 10
113.163983
 20
496.35
 30
0.0
 40
0.3
100
AcDbArc
 50
270.0
 51
332.354477
  0
ARC
  5
D6
100
AcDbEntity
  8
LAY-1
  6
CONTINUOUS
 62
     3
100
AcDbCircle
 10
117.593159
 20
496.35
 30
0.0
 40
0.3
100
AcDbArc
 50
207.645523
 51
270.0
  0
ARC
  5
D7
100
AcDbEntity
  8
LAY-1
  6
CONTINUOUS
 62
     3
100
AcDbCircle
 10
115.378571
 20
495.19
 30
0.0
 40
2.2
100
AcDbArc
 50
27.645523
 51
152.354477
  0
ARC
  5
D8
100
AcDbEntity
  8
LAY-1
  6
CONTINUOUS
 62
     3
100
AcDbCircle
 10
124.878571
 20
495.19
 30
0.0
 40
2.2
100
AcDbArc
 50
27.645523
 51
152.354477
  0
ARC
  5
D9
100
AcDbEntity
  8
LAY-1
  6
CONTINUOUS
 62
     3
100
AcDbCircle
 10
122.663983
 20
496.35
 30
0.0
 40
0.3
100
AcDbArc
 50
270.0
 51
332.354477
  0
ARC
  5
DA
100
AcDbEntity
  8
LAY-1
  6
CONTINUOUS
 62
     3
100
AcDbCircle
 10
127.093159
 20
496.35
 30
0.0
 40
0.3
100
AcDbArc
 50
207.645523
 51
270.0
  0
ARC
  5
DB
100
AcDbEntity
  8
LAY-1
  6
CONTINUOUS
 62
     3
100
AcDbCircle
 10
127.093159
 20
491.25
 30
0.0
 40
0.3
100
AcDbArc
 50
90.0
 51
152.354477
  0
ARC
  5
DC
100
AcDbEntity
  8
LAY-1
  6
CONTINUOUS
 62
     3
100
AcDbCircle
 10
124.878571
 20
492.41
 30
0.0
 40
2.2
100
AcDbArc
 50
207.645523
 51
332.354477
  0
ARC
  5
DD
100
AcDbEntity
  8
LAY-1
  6
CONTINUOUS
 62
     3
100
AcDbCircle
 10
122.663983
 20
491.25
 30
0.0
 40
0.3
100
AcDbArc
 50
27.645523
 51
90.0
  0
LINE
  5
DE
100
AcDbEntity
  8
LAY-1
  6
CONTINUOUS
 62
     3
100
AcDbLine
 10
126.827409
 20
496.2108
 30
0.0
 11
126.827409
 21
491.3892
 31
0.0
  0
LINE
  5
DF
100
AcDbEntity
  8
LAY-1
  6
CONTINUOUS
 62
     3
100
AcDbLine
 10
122.929734
 20
491.3892
 30
0.0
 11
122.929734
 21
496.2108
 31
0.0
  0
LINE
  5
E0
100
AcDbEntity
  8
LAY-1
  6
CONTINUOUS
 62
     3
100
AcDbLine
 10
122.663983
 20
491.55
 30
0.0
 11
117.593159
 21
491.55
 31
0.0
  0
LINE
  5
E1
100
AcDbEntity
  8
LAY-1
  6
CONTINUOUS
 62
     3
100
AcDbLine
 10
117.593159
 20
496.05
 30
0.0
 11
122.663983
 21
496.05
 31
0.0
  0
LINE
  5
E2
100
AcDbEntity
  8
LAY-1
  6
CONTINUOUS
 62
     3
100
AcDbLine
 10
132.878571
 20
498.8
 30
0.0
 11
131.478571
 21
498.8
 31
0.0
  0
LINE
  5
E3
100
AcDbEntity
  8
LAY-1
  6
CONTINUOUS
 62
     3
100
AcDbLine
 10
132.878571
 20
488.8
 30
0.0
 11
131.478571
 21
488.8
 31
0.0
  0
LINE
  5
E4
100
AcDbEntity
  8
LAY-1
  6
CONTINUOUS
 62
     3
100
AcDbLine
 10
133.878571
 20
496.55
 30
0.0
 11
132.878571
 21
496.55
 31
0.0
  0
LINE
  5
E5
100
AcDbEntity
  8
LAY-1
  6
CONTINUOUS
 62
     3
100
AcDbLine
 10
133.878571
 20
491.05
 30
0.0
 11
132.878571
 21
491.05
 31
0.0
  0
LINE
  5
E6
100
AcDbEntity
  8
LAY-1
  6
CONTINUOUS
 62
     3
100
AcDbLine
 10
133.878571
 20
496.55
 30
0.0
 11
133.878571
 21
491.05
 31
0.0
  0
LINE
  5
E7
100
AcDbEntity
  8
LAY-1
  6
CONTINUOUS
 62
     3
100
AcDbLine
 10
132.878571
 20
498.8
 30
0.0
 11
132.878571
 21
488.8
 31
0.0
  0
LINE
  5
E8
100
AcDbEntity
  8
LAY-1
  6
CONTINUOUS
 62
     3
100
AcDbLine
 10
131.478571
 20
498.8
 30
0.0
 11
131.478571
 21
488.8
 31
0.0
  0
LINE
  5
E9
100
AcDbEntity
  8
LAY-1
  6
CONTINUOUS
 62
     3
100
AcDbLine
 10
131.478571
 20
496.05
 30
0.0
 11
127.093159
 21
496.05
 31
0.0
  0
LINE
  5
EA
100
AcDbEntity
  8
LAY-1
  6
CONTINUOUS
 62
     3
100
AcDbLine
 10
131.478571
 20
491.55
 30
0.0
 11
127.093159
 21
491.55
 31
0.0
  0
LINE
  5
EB
100
AcDbEntity
  8
LAY-1
  6
CONTINUOUS
 62
     3
100
AcDbLine
 10
59.878571
 20
498.8
 30
0.0
 11
61.278571
 21
498.8
 31
0.0
  0
LINE
  5
EC
100
AcDbEntity
  8
LAY-1
  6
CONTINUOUS
 62
     3
100
AcDbLine
 10
59.878571
 20
488.8
 30
0.0
 11
61.278571
 21
488.8
 31
0.0
  0
LINE
  5
ED
100
AcDbEntity
  8
LAY-1
  6
CONTINUOUS
 62
     3
100
AcDbLine
 10
58.878571
 20
496.55
 30
0.0
 11
59.878571
 21
496.55
 31
0.0
  0
LINE
  5
EE
100
AcDbEntity
  8
LAY-1
  6
CONTINUOUS
 62
     3
100
AcDbLine
 10
58.878571
 20
491.05
 30
0.0
 11
59.878571
 21
491.05
 31
0.0
  0
LINE
  5
EF
100
AcDbEntity
  8
LAY-1
  6
CONTINUOUS
 62
     3
100
AcDbLine
 10
58.878571
 20
496.55
 30
0.0
 11
58.878571
 21
491.05
 31
0.0
  0
LINE
  5
F0
100
AcDbEntity
  8
LAY-1
  6
CONTINUOUS
 62
     3
100
AcDbLine
 10
59.878571
 20
498.8
 30
0.0
 11
59.878571
 21
488.8
 31
0.0
  0
LINE
  5
F1
100
AcDbEntity
  8
LAY-1
  6
CONTINUOUS
 62
     3
100
AcDbLine
 10
61.278571
 20
498.8
 30
0.0
 11
61.278571
 21
488.8
 31
0.0
  0
LINE
  5
F2
100
AcDbEntity
  8
LAY-1
  6
CONTINUOUS
 62
     3
100
AcDbLine
 10
61.278571
 20
496.05
 30
0.0
 11
65.663983
 21
496.05
 31
0.0
  0
LINE
  5
F3
100
AcDbEntity
  8
LAY-1
  6
CONTINUOUS
 62
     3
100
AcDbLine
 10
65.663983
 20
491.55
 30
0.0
 11
61.278571
 21
491.55
 31
0.0
  0
LINE
  5
F4
100
AcDbEntity
  8
LAY-1
  6
EXLTYPE3
 62
     1
100
AcDbLine
 10
52.978571
 20
493.8
 30
0.0
 11
138.40598
 21
493.8
 31
0.0
  0
LINE
  5
F5
100
AcDbEntity
  8
LAY-1
  6
CONTINUOUS
 62
     3
100
AcDbLine
 10
262.878571
 20
500.05
 30
0.0
 11
262.878571
 21
487.55
 31
0.0
  0
LINE
  5
F6
100
AcDbEntity
  8
LAY-1
  6
CONTINUOUS
 62
     3
100
AcDbLine
 10
262.878571
 20
500.05
 30
0.0
 11
261.478571
 21
500.05
 31
0.0
  0
LINE
  5
F7
100
AcDbEntity
  8
LAY-1
  6
CONTINUOUS
 62
     3
100
AcDbLine
 10
262.878571
 20
487.55
 30
0.0
 11
261.478571
 21
487.55
 31
0.0
  0
LINE
  5
F8
100
AcDbEntity
  8
LAY-1
  6
CONTINUOUS
 62
     3
100
AcDbLine
 10
261.478571
 20
500.05
 30
0.0
 11
261.478571
 21
487.55
 31
0.0
  0
LINE
  5
F9
100
AcDbEntity
  8
LAY-1
  6
CONTINUOUS
 62
     3
100
AcDbLine
 10
263.878571
 20
490.8
 30
0.0
 11
262.878571
 21
490.8
 31
0.0
  0
LINE
  5
FA
100
AcDbEntity
  8
LAY-1
  6
CONTINUOUS
 62
     3
100
AcDbLine
 10
263.878571
 20
496.8
 30
0.0
 11
262.878571
 21
496.8
 31
0.0
  0
LINE
  5
FB
100
AcDbEntity
  8
LAY-1
  6
CONTINUOUS
 62
     3
100
AcDbLine
 10
263.878571
 20
490.8
 30
0.0
 11
263.878571
 21
496.8
 31
0.0
  0
LINE
  5
FC
100
AcDbEntity
  8
LAY-1
  6
CONTINUOUS
 62
     3
100
AcDbLine
 10
189.878571
 20
500.05
 30
0.0
 11
191.278571
 21
500.05
 31
0.0
  0
LINE
  5
FD
100
AcDbEntity
  8
LAY-1
  6
CONTINUOUS
 62
     3
100
AcDbLine
 10
189.878571
 20
487.55
 30
0.0
 11
191.278571
 21
487.55
 31
0.0
  0
LINE
  5
FE
100
AcDbEntity
  8
LAY-1
  6
CONTINUOUS
 62
     3
100
AcDbLine
 10
188.878571
 20
496.8
 30
0.0
 11
189.878571
 21
496.8
 31
0.0
  0
LINE
  5
FF
100
AcDbEntity
  8
LAY-1
  6
CONTINUOUS
 62
     3
100
AcDbLine
 10
188.878571
 20
490.8
 30
0.0
 11
189.878571
 21
490.8
 31
0.0
  0
LINE
  5
100
100
AcDbEntity
  8
LAY-1
  6
CONTINUOUS
 62
     3
100
AcDbLine
 10
188.878571
 20
496.8
 30
0.0
 11
188.878571
 21
490.8
 31
0.0
  0
LINE
  5
101
100
AcDbEntity
  8
LAY-1
  6
CONTINUOUS
 62
     3
100
AcDbLine
 10
189.878571
 20
500.05
 30
0.0
 11
189.878571
 21
487.55
 31
0.0
  0
LINE
  5
102
100
AcDbEntity
  8
LAY-1
  6
CONTINUOUS
 62
     3
100
AcDbLine
 10
191.278571
 20
500.05
 30
0.0
 11
191.278571
 21
487.55
 31
0.0
  0
ARC
  5
103
100
AcDbEntity
  8
LAY-1
  6
CONTINUOUS
 62
     3
100
AcDbCircle
 10
200.093159
 20
496.6
 30
0.0
 40
0.3
100
AcDbArc
 50
207.645523
 51
270.0
  0
LINE
  5
104
100
AcDbEntity
  8
LAY-1
  6
CONTINUOUS
 62
     3
100
AcDbLine
 10
191.278571
 20
496.3
 30
0.0
 11
195.663983
 21
496.3
 31
0.0
  0
ARC
  5
105
100
AcDbEntity
  8
LAY-1
  6
CONTINUOUS
 62
     3
100
AcDbCircle
 10
197.878571
 20
495.44
 30
0.0
 40
2.2
100
AcDbArc
 50
27.645523
 51
152.354477
  0
ARC
  5
106
100
AcDbEntity
  8
LAY-1
  6
CONTINUOUS
 62
     3
100
AcDbCircle
 10
195.663983
 20
496.6
 30
0.0
 40
0.3
100
AcDbArc
 50
270.0
 51
332.354477
  0
LINE
  5
107
100
AcDbEntity
  8
LAY-1
  6
CONTINUOUS
 62
     3
100
AcDbLine
 10
191.278571
 20
491.3
 30
0.0
 11
195.663983
 21
491.3
 31
0.0
  0
ARC
  5
108
100
AcDbEntity
  8
LAY-1
  6
CONTINUOUS
 62
     3
100
AcDbCircle
 10
200.093159
 20
491.0
 30
0.0
 40
0.3
100
AcDbArc
 50
90.0
 51
152.354477
  0
ARC
  5
109
100
AcDbEntity
  8
LAY-1
  6
CONTINUOUS
 62
     3
100
AcDbCircle
 10
197.878571
 20
492.16
 30
0.0
 40
2.2
100
AcDbArc
 50
207.645523
 51
332.354477
  0
ARC
  5
10A
100
AcDbEntity
  8
LAY-1
  6
CONTINUOUS
 62
     3
100
AcDbCircle
 10
195.663983
 20
491.0
 30
0.0
 40
0.3
100
AcDbArc
 50
27.645523
 51
90.0
  0
LINE
  5
10B
100
AcDbEntity
  8
LAY-1
  6
CONTINUOUS
 62
     3
100
AcDbLine
 10
195.929734
 20
496.4608
 30
0.0
 11
195.929734
 21
491.1392
 31
0.0
  0
LINE
  5
10C
100
AcDbEntity
  8
LAY-1
  6
CONTINUOUS
 62
     3
100
AcDbLine
 10
199.827409
 20
491.1392
 30
0.0
 11
199.827409
 21
496.4608
 31
0.0
  0
ARC
  5
10D
100
AcDbEntity
  8
LAY-1
  6
CONTINUOUS
 62
     3
100
AcDbCircle
 10
252.663983
 20
496.6
 30
0.0
 40
0.3
100
AcDbArc
 50
270.0
 51
332.354477
  0
ARC
  5
10E
100
AcDbEntity
  8
LAY-1
  6
CONTINUOUS
 62
     3
100
AcDbCircle
 10
254.878571
 20
495.44
 30
0.0
 40
2.2
100
AcDbArc
 50
27.645523
 51
152.354477
  0
ARC
  5
10F
100
AcDbEntity
  8
LAY-1
  6
CONTINUOUS
 62
     3
100
AcDbCircle
 10
257.093159
 20
496.6
 30
0.0
 40
0.3
100
AcDbArc
 50
207.645523
 51
270.0
  0
LINE
  5
110
100
AcDbEntity
  8
LAY-1
  6
CONTINUOUS
 62
     3
100
AcDbLine
 10
261.478571
 20
496.3
 30
0.0
 11
257.093159
 21
496.3
 31
0.0
  0
LINE
  5
111
100
AcDbEntity
  8
LAY-1
  6
CONTINUOUS
 62
     3
100
AcDbLine
 10
261.478571
 20
491.3
 30
0.0
 11
257.093159
 21
491.3
 31
0.0
  0
ARC
  5
112
100
AcDbEntity
  8
LAY-1
  6
CONTINUOUS
 62
     3
100
AcDbCircle
 10
252.663983
 20
491.0
 30
0.0
 40
0.3
100
AcDbArc
 50
27.645523
 51
90.0
  0
ARC
  5
113
100
AcDbEntity
  8
LAY-1
  6
CONTINUOUS
 62
     3
100
AcDbCircle
 10
254.878571
 20
492.16
 30
0.0
 40
2.2
100
AcDbArc
 50
207.645523
 51
332.354477
  0
ARC
  5
114
100
AcDbEntity
  8
LAY-1
  6
CONTINUOUS
 62
     3
100
AcDbCircle
 10
257.093159
 20
491.0
 30
0.0
 40
0.3
100
AcDbArc
 50
90.0
 51
152.354477
  0
LINE
  5
115
100
AcDbEntity
  8
LAY-1
  6
CONTINUOUS
 62
     3
100
AcDbLine
 10
256.827409
 20
496.4608
 30
0.0
 11
256.827409
 21
491.1392
 31
0.0
  0
LINE
  5
116
100
AcDbEntity
  8
LAY-1
  6
CONTINUOUS
 62
     3
100
AcDbLine
 10
252.929734
 20
491.1392
 30
0.0
 11
252.929734
 21
496.4608
 31
0.0
  0
LINE
  5
117
100
AcDbEntity
  8
LAY-1
  6
EXLTYPE3
 62
     1
100
AcDbLine
 10
182.263123
 20
493.8
 30
0.0
 11
271.063123
 21
493.8
 31
0.0
  0
ARC
  5
118
100
AcDbEntity
  8
LAY-1
  6
CONTINUOUS
 62
     3
100
AcDbCircle
 10
209.593159
 20
496.6
 30
0.0
 40
0.3
100
AcDbArc
 50
207.645523
 51
270.0
  0
ARC
  5
119
100
AcDbEntity
  8
LAY-1
  6
CONTINUOUS
 62
     3
100
AcDbCircle
 10
207.378571
 20
495.44
 30
0.0
 40
2.2
100
AcDbArc
 50
27.645523
 51
152.354477
  0
ARC
  5
11A
100
AcDbEntity
  8
LAY-1
  6
CONTINUOUS
 62
     3
100
AcDbCircle
 10
205.163983
 20
496.6
 30
0.0
 40
0.3
100
AcDbArc
 50
270.0
 51
332.354477
  0
ARC
  5
11B
100
AcDbEntity
  8
LAY-1
  6
CONTINUOUS
 62
     3
100
AcDbCircle
 10
209.593159
 20
491.0
 30
0.0
 40
0.3
100
AcDbArc
 50
90.0
 51
152.354477
  0
ARC
  5
11C
100
AcDbEntity
  8
LAY-1
  6
CONTINUOUS
 62
     3
100
AcDbCircle
 10
207.378571
 20
492.16
 30
0.0
 40
2.2
100
AcDbArc
 50
207.645523
 51
332.354477
  0
ARC
  5
11D
100
AcDbEntity
  8
LAY-1
  6
CONTINUOUS
 62
     3
100
AcDbCircle
 10
205.163983
 20
491.0
 30
0.0
 40
0.3
100
AcDbArc
 50
27.645523
 51
90.0
  0
LINE
  5
11E
100
AcDbEntity
  8
LAY-1
  6
CONTINUOUS
 62
     3
100
AcDbLine
 10
205.429734
 20
496.4608
 30
0.0
 11
205.429734
 21
491.1392
 31
0.0
  0
LINE
  5
11F
100
AcDbEntity
  8
LAY-1
  6
CONTINUOUS
 62
     3
100
AcDbLine
 10
209.327409
 20
491.1392
 30
0.0
 11
209.327409
 21
496.4608
 31
0.0
  0
ARC
  5
120
100
AcDbEntity
  8
LAY-1
  6
CONTINUOUS
 62
     3
100
AcDbCircle
 10
219.093159
 20
496.6
 30
0.0
 40
0.3
100
AcDbArc
 50
207.645523
 51
270.0
  0
ARC
  5
121
100
AcDbEntity
  8
LAY-1
  6
CONTINUOUS
 62
     3
100
AcDbCircle
 10
216.878571
 20
495.44
 30
0.0
 40
2.2
100
AcDbArc
 50
27.645523
 51
152.354477
  0
ARC
  5
122
100
AcDbEntity
  8
LAY-1
  6
CONTINUOUS
 62
     3
100
AcDbCircle
 10
214.663983
 20
496.6
 30
0.0
 40
0.3
100
AcDbArc
 50
270.0
 51
332.354477
  0
ARC
  5
123
100
AcDbEntity
  8
LAY-1
  6
CONTINUOUS
 62
     3
100
AcDbCircle
 10
219.093159
 20
491.0
 30
0.0
 40
0.3
100
AcDbArc
 50
90.0
 51
152.354477
  0
ARC
  5
124
100
AcDbEntity
  8
LAY-1
  6
CONTINUOUS
 62
     3
100
AcDbCircle
 10
216.878571
 20
492.16
 30
0.0
 40
2.2
100
AcDbArc
 50
207.645523
 51
332.354477
  0
ARC
  5
125
100
AcDbEntity
  8
LAY-1
  6
CONTINUOUS
 62
     3
100
AcDbCircle
 10
214.663983
 20
491.0
 30
0.0
 40
0.3
100
AcDbArc
 50
27.645523
 51
90.0
  0
LINE
  5
126
100
AcDbEntity
  8
LAY-1
  6
CONTINUOUS
 62
     3
100
AcDbLine
 10
214.929734
 20
496.4608
 30
0.0
 11
214.929734
 21
491.1392
 31
0.0
  0
LINE
  5
127
100
AcDbEntity
  8
LAY-1
  6
CONTINUOUS
 62
     3
100
AcDbLine
 10
218.827409
 20
491.1392
 30
0.0
 11
218.827409
 21
496.4608
 31
0.0
  0
ARC
  5
128
100
AcDbEntity
  8
LAY-1
  6
CONTINUOUS
 62
     3
100
AcDbCircle
 10
228.593159
 20
496.6
 30
0.0
 40
0.3
100
AcDbArc
 50
207.645523
 51
270.0
  0
ARC
  5
129
100
AcDbEntity
  8
LAY-1
  6
CONTINUOUS
 62
     3
100
AcDbCircle
 10
226.378571
 20
495.44
 30
0.0
 40
2.2
100
AcDbArc
 50
27.645523
 51
152.354477
  0
ARC
  5
12A
100
AcDbEntity
  8
LAY-1
  6
CONTINUOUS
 62
     3
100
AcDbCircle
 10
224.163983
 20
496.6
 30
0.0
 40
0.3
100
AcDbArc
 50
270.0
 51
332.354477
  0
ARC
  5
12B
100
AcDbEntity
  8
LAY-1
  6
CONTINUOUS
 62
     3
100
AcDbCircle
 10
228.593159
 20
491.0
 30
0.0
 40
0.3
100
AcDbArc
 50
90.0
 51
152.354477
  0
ARC
  5
12C
100
AcDbEntity
  8
LAY-1
  6
CONTINUOUS
 62
     3
100
AcDbCircle
 10
226.378571
 20
492.16
 30
0.0
 40
2.2
100
AcDbArc
 50
207.645523
 51
332.354477
  0
ARC
  5
12D
100
AcDbEntity
  8
LAY-1
  6
CONTINUOUS
 62
     3
100
AcDbCircle
 10
224.163983
 20
491.0
 30
0.0
 40
0.3
100
AcDbArc
 50
27.645523
 51
90.0
  0
LINE
  5
12E
100
AcDbEntity
  8
LAY-1
  6
CONTINUOUS
 62
     3
100
AcDbLine
 10
224.429734
 20
496.4608
 30
0.0
 11
224.429734
 21
491.1392
 31
0.0
  0
LINE
  5
12F
100
AcDbEntity
  8
LAY-1
  6
CONTINUOUS
 62
     3
100
AcDbLine
 10
228.327409
 20
491.1392
 30
0.0
 11
228.327409
 21
496.4608
 31
0.0
  0
ARC
  5
130
100
AcDbEntity
  8
LAY-1
  6
CONTINUOUS
 62
     3
100
AcDbCircle
 10
238.093159
 20
496.6
 30
0.0
 40
0.3
100
AcDbArc
 50
207.645523
 51
270.0
  0
ARC
  5
131
100
AcDbEntity
  8
LAY-1
  6
CONTINUOUS
 62
     3
100
AcDbCircle
 10
235.878571
 20
495.44
 30
0.0
 40
2.2
100
AcDbArc
 50
27.645523
 51
152.354477
  0
ARC
  5
132
100
AcDbEntity
  8
LAY-1
  6
CONTINUOUS
 62
     3
100
AcDbCircle
 10
233.663983
 20
496.6
 30
0.0
 40
0.3
100
AcDbArc
 50
270.0
 51
332.354477
  0
ARC
  5
133
100
AcDbEntity
  8
LAY-1
  6
CONTINUOUS
 62
     3
100
AcDbCircle
 10
238.093159
 20
491.0
 30
0.0
 40
0.3
100
AcDbArc
 50
90.0
 51
152.354477
  0
ARC
  5
134
100
AcDbEntity
  8
LAY-1
  6
CONTINUOUS
 62
     3
100
AcDbCircle
 10
235.878571
 20
492.16
 30
0.0
 40
2.2
100
AcDbArc
 50
207.645523
 51
332.354477
  0
ARC
  5
135
100
AcDbEntity
  8
LAY-1
  6
CONTINUOUS
 62
     3
100
AcDbCircle
 10
233.663983
 20
491.0
 30
0.0
 40
0.3
100
AcDbArc
 50
27.645523
 51
90.0
  0
LINE
  5
136
100
AcDbEntity
  8
LAY-1
  6
CONTINUOUS
 62
     3
100
AcDbLine
 10
233.929734
 20
496.4608
 30
0.0
 11
233.929734
 21
491.1392
 31
0.0
  0
LINE
  5
137
100
AcDbEntity
  8
LAY-1
  6
CONTINUOUS
 62
     3
100
AcDbLine
 10
237.827409
 20
491.1392
 30
0.0
 11
237.827409
 21
496.4608
 31
0.0
  0
ARC
  5
138
100
AcDbEntity
  8
LAY-1
  6
CONTINUOUS
 62
     3
100
AcDbCircle
 10
247.593159
 20
496.6
 30
0.0
 40
0.3
100
AcDbArc
 50
207.645523
 51
270.0
  0
ARC
  5
139
100
AcDbEntity
  8
LAY-1
  6
CONTINUOUS
 62
     3
100
AcDbCircle
 10
245.378571
 20
495.44
 30
0.0
 40
2.2
100
AcDbArc
 50
27.645523
 51
152.354477
  0
ARC
  5
13A
100
AcDbEntity
  8
LAY-1
  6
CONTINUOUS
 62
     3
100
AcDbCircle
 10
243.163983
 20
496.6
 30
0.0
 40
0.3
100
AcDbArc
 50
270.0
 51
332.354477
  0
ARC
  5
13B
100
AcDbEntity
  8
LAY-1
  6
CONTINUOUS
 62
     3
100
AcDbCircle
 10
247.593159
 20
491.0
 30
0.0
 40
0.3
100
AcDbArc
 50
90.0
 51
152.354477
  0
ARC
  5
13C
100
AcDbEntity
  8
LAY-1
  6
CONTINUOUS
 62
     3
100
AcDbCircle
 10
245.378571
 20
492.16
 30
0.0
 40
2.2
100
AcDbArc
 50
207.645523
 51
332.354477
  0
ARC
  5
13D
100
AcDbEntity
  8
LAY-1
  6
CONTINUOUS
 62
     3
100
AcDbCircle
 10
243.163983
 20
491.0
 30
0.0
 40
0.3
100
AcDbArc
 50
27.645523
 51
90.0
  0
LINE
  5
13E
100
AcDbEntity
  8
LAY-1
  6
CONTINUOUS
 62
     3
100
AcDbLine
 10
243.429734
 20
496.4608
 30
0.0
 11
243.429734
 21
491.1392
 31
0.0
  0
LINE
  5
13F
100
AcDbEntity
  8
LAY-1
  6
CONTINUOUS
 62
     3
100
AcDbLine
 10
247.327409
 20
491.1392
 30
0.0
 11
247.327409
 21
496.4608
 31
0.0
  0
LINE
  5
140
100
AcDbEntity
  8
LAY-1
  6
CONTINUOUS
 62
     3
100
AcDbLine
 10
200.093159
 20
496.3
 30
0.0
 11
205.163983
 21
496.3
 31
0.0
  0
LINE
  5
141
100
AcDbEntity
  8
LAY-1
  6
CONTINUOUS
 62
     3
100
AcDbLine
 10
200.093159
 20
491.3
 30
0.0
 11
205.163983
 21
491.3
 31
0.0
  0
LINE
  5
142
100
AcDbEntity
  8
LAY-1
  6
CONTINUOUS
 62
     3
100
AcDbLine
 10
209.593159
 20
491.3
 30
0.0
 11
214.663983
 21
491.3
 31
0.0
  0
LINE
  5
143
100
AcDbEntity
  8
LAY-1
  6
CONTINUOUS
 62
     3
100
AcDbLine
 10
209.593159
 20
496.3
 30
0.0
 11
214.663983
 21
496.3
 31
0.0
  0
LINE
  5
144
100
AcDbEntity
  8
LAY-1
  6
CONTINUOUS
 62
     3
100
AcDbLine
 10
219.093159
 20
496.3
 30
0.0
 11
224.163983
 21
496.3
 31
0.0
  0
LINE
  5
145
100
AcDbEntity
  8
LAY-1
  6
CONTINUOUS
 62
     3
100
AcDbLine
 10
219.093159
 20
491.3
 30
0.0
 11
224.163983
 21
491.3
 31
0.0
  0
LINE
  5
146
100
AcDbEntity
  8
LAY-1
  6
CONTINUOUS
 62
     3
100
AcDbLine
 10
228.593159
 20
491.3
 30
0.0
 11
233.663983
 21
491.3
 31
0.0
  0
LINE
  5
147
100
AcDbEntity
  8
LAY-1
  6
CONTINUOUS
 62
     3
100
AcDbLine
 10
228.593159
 20
496.3
 30
0.0
 11
233.663983
 21
496.3
 31
0.0
  0
LINE
  5
148
100
AcDbEntity
  8
LAY-1
  6
CONTINUOUS
 62
     3
100
AcDbLine
 10
238.093159
 20
496.3
 30
0.0
 11
243.163983
 21
496.3
 31
0.0
  0
LINE
  5
149
100
AcDbEntity
  8
LAY-1
  6
CONTINUOUS
 62
     3
100
AcDbLine
 10
247.593159
 20
496.3
 30
0.0
 11
252.663983
 21
496.3
 31
0.0
  0
LINE
  5
14A
100
AcDbEntity
  8
LAY-1
  6
CONTINUOUS
 62
     3
100
AcDbLine
 10
238.093159
 20
491.3
 30
0.0
 11
243.163983
 21
491.3
 31
0.0
  0
LINE
  5
14B
100
AcDbEntity
  8
LAY-1
  6
CONTINUOUS
 62
     3
100
AcDbLine
 10
247.593159
 20
491.3
 30
0.0
 11
252.663983
 21
491.3
 31
0.0
  0
LINE
  5
14C
100
AcDbEntity
  8
LAY-1
  6
CONTINUOUS
 62
     3
100
AcDbLine
 10
392.878571
 20
500.55
 30
0.0
 11
391.278571
 21
500.55
 31
0.0
  0
LINE
  5
14D
100
AcDbEntity
  8
LAY-1
  6
CONTINUOUS
 62
     3
100
AcDbLine
 10
392.878571
 20
487.05
 30
0.0
 11
391.278571
 21
487.05
 31
0.0
  0
LINE
  5
14E
100
AcDbEntity
  8
LAY-1
  6
CONTINUOUS
 62
     3
100
AcDbLine
 10
393.878571
 20
497.65
 30
0.0
 11
392.878571
 21
497.65
 31
0.0
  0
LINE
  5
14F
100
AcDbEntity
  8
LAY-1
  6
CONTINUOUS
 62
     3
100
AcDbLine
 10
393.878571
 20
489.95
 30
0.0
 11
392.878571
 21
489.95
 31
0.0
  0
LINE
  5
150
100
AcDbEntity
  8
LAY-1
  6
CONTINUOUS
 62
     3
100
AcDbLine
 10
393.878571
 20
497.65
 30
0.0
 11
393.878571
 21
489.95
 31
0.0
  0
LINE
  5
151
100
AcDbEntity
  8
LAY-1
  6
CONTINUOUS
 62
     3
100
AcDbLine
 10
392.878571
 20
500.55
 30
0.0
 11
392.878571
 21
487.05
 31
0.0
  0
LINE
  5
152
100
AcDbEntity
  8
LAY-1
  6
CONTINUOUS
 62
     3
100
AcDbLine
 10
391.278571
 20
500.55
 30
0.0
 11
391.278571
 21
487.05
 31
0.0
  0
LINE
  5
153
100
AcDbEntity
  8
LAY-1
  6
CONTINUOUS
 62
     3
100
AcDbLine
 10
319.878571
 20
500.55
 30
0.0
 11
321.478571
 21
500.55
 31
0.0
  0
LINE
  5
154
100
AcDbEntity
  8
LAY-1
  6
CONTINUOUS
 62
     3
100
AcDbLine
 10
319.878571
 20
487.05
 30
0.0
 11
321.478571
 21
487.05
 31
0.0
  0
LINE
  5
155
100
AcDbEntity
  8
LAY-1
  6
CONTINUOUS
 62
     3
100
AcDbLine
 10
318.878571
 20
497.65
 30
0.0
 11
319.878571
 21
497.65
 31
0.0
  0
LINE
  5
156
100
AcDbEntity
  8
LAY-1
  6
CONTINUOUS
 62
     3
100
AcDbLine
 10
318.878571
 20
489.95
 30
0.0
 11
319.878571
 21
489.95
 31
0.0
  0
LINE
  5
157
100
AcDbEntity
  8
LAY-1
  6
CONTINUOUS
 62
     3
100
AcDbLine
 10
321.478571
 20
500.55
 30
0.0
 11
321.478571
 21
487.05
 31
0.0
  0
LINE
  5
158
100
AcDbEntity
  8
LAY-1
  6
CONTINUOUS
 62
     3
100
AcDbLine
 10
319.878571
 20
500.55
 30
0.0
 11
319.878571
 21
487.05
 31
0.0
  0
LINE
  5
159
100
AcDbEntity
  8
LAY-1
  6
CONTINUOUS
 62
     3
100
AcDbLine
 10
318.878571
 20
497.65
 30
0.0
 11
318.878571
 21
489.95
 31
0.0
  0
ARC
  5
15A
100
AcDbEntity
  8
LAY-1
  6
CONTINUOUS
 62
     3
100
AcDbCircle
 10
330.093159
 20
497.2
 30
0.0
 40
0.3
100
AcDbArc
 50
207.645523
 51
270.0
  0
LINE
  5
15B
100
AcDbEntity
  8
LAY-1
  6
CONTINUOUS
 62
     3
100
AcDbLine
 10
321.478571
 20
496.9
 30
0.0
 11
325.663983
 21
496.9
 31
0.0
  0
ARC
  5
15C
100
AcDbEntity
  8
LAY-1
  6
CONTINUOUS
 62
     3
100
AcDbCircle
 10
327.878571
 20
496.04
 30
0.0
 40
2.2
100
AcDbArc
 50
27.645523
 51
152.354477
  0
ARC
  5
15D
100
AcDbEntity
  8
LAY-1
  6
CONTINUOUS
 62
     3
100
AcDbCircle
 10
325.663983
 20
497.2
 30
0.0
 40
0.3
100
AcDbArc
 50
270.0
 51
332.354477
  0
ARC
  5
15E
100
AcDbEntity
  8
LAY-1
  6
CONTINUOUS
 62
     3
100
AcDbCircle
 10
325.663983
 20
490.4
 30
0.0
 40
0.3
100
AcDbArc
 50
27.645523
 51
90.0
  0
ARC
  5
15F
100
AcDbEntity
  8
LAY-1
  6
CONTINUOUS
 62
     3
100
AcDbCircle
 10
327.878571
 20
491.56
 30
0.0
 40
2.2
100
AcDbArc
 50
207.645523
 51
332.354477
  0
ARC
  5
160
100
AcDbEntity
  8
LAY-1
  6
CONTINUOUS
 62
     3
100
AcDbCircle
 10
330.093159
 20
490.4
 30
0.0
 40
0.3
100
AcDbArc
 50
90.0
 51
152.354477
  0
LINE
  5
161
100
AcDbEntity
  8
LAY-1
  6
CONTINUOUS
 62
     3
100
AcDbLine
 10
321.478571
 20
490.7
 30
0.0
 11
325.663983
 21
490.7
 31
0.0
  0
LINE
  5
162
100
AcDbEntity
  8
LAY-1
  6
CONTINUOUS
 62
     3
100
AcDbLine
 10
325.929734
 20
497.0608
 30
0.0
 11
325.929734
 21
490.5392
 31
0.0
  0
LINE
  5
163
100
AcDbEntity
  8
LAY-1
  6
CONTINUOUS
 62
     3
100
AcDbLine
 10
329.827409
 20
490.5392
 30
0.0
 11
329.827409
 21
497.0608
 31
0.0
  0
LINE
  5
164
100
AcDbEntity
  8
LAY-1
  6
CONTINUOUS
 62
     3
100
AcDbLine
 10
391.278571
 20
496.9
 30
0.0
 11
387.093159
 21
496.9
 31
0.0
  0
ARC
  5
165
100
AcDbEntity
  8
LAY-1
  6
CONTINUOUS
 62
     3
100
AcDbCircle
 10
382.663983
 20
497.2
 30
0.0
 40
0.3
100
AcDbArc
 50
270.0
 51
332.354477
  0
ARC
  5
166
100
AcDbEntity
  8
LAY-1
  6
CONTINUOUS
 62
     3
100
AcDbCircle
 10
384.878571
 20
496.04
 30
0.0
 40
2.2
100
AcDbArc
 50
27.645523
 51
152.354477
  0
ARC
  5
167
100
AcDbEntity
  8
LAY-1
  6
CONTINUOUS
 62
     3
100
AcDbCircle
 10
387.093159
 20
497.2
 30
0.0
 40
0.3
100
AcDbArc
 50
207.645523
 51
270.0
  0
ARC
  5
168
100
AcDbEntity
  8
LAY-1
  6
CONTINUOUS
 62
     3
100
AcDbCircle
 10
387.093159
 20
490.4
 30
0.0
 40
0.3
100
AcDbArc
 50
90.0
 51
152.354477
  0
ARC
  5
169
100
AcDbEntity
  8
LAY-1
  6
CONTINUOUS
 62
     3
100
AcDbCircle
 10
384.878571
 20
491.56
 30
0.0
 40
2.2
100
AcDbArc
 50
207.645523
 51
332.354477
  0
ARC
  5
16A
100
AcDbEntity
  8
LAY-1
  6
CONTINUOUS
 62
     3
100
AcDbCircle
 10
382.663983
 20
490.4
 30
0.0
 40
0.3
100
AcDbArc
 50
27.645523
 51
90.0
  0
LINE
  5
16B
100
AcDbEntity
  8
LAY-1
  6
CONTINUOUS
 62
     3
100
AcDbLine
 10
391.278571
 20
490.7
 30
0.0
 11
387.093159
 21
490.7
 31
0.0
  0
LINE
  5
16C
100
AcDbEntity
  8
LAY-1
  6
CONTINUOUS
 62
     3
100
AcDbLine
 10
386.827409
 20
497.0608
 30
0.0
 11
386.827409
 21
490.5392
 31
0.0
  0
LINE
  5
16D
100
AcDbEntity
  8
LAY-1
  6
CONTINUOUS
 62
     3
100
AcDbLine
 10
382.929734
 20
490.5392
 30
0.0
 11
382.929734
 21
497.0608
 31
0.0
  0
LINE
  5
16E
100
AcDbEntity
  8
LAY-1
  6
EXLTYPE3
 62
     1
100
AcDbLine
 10
314.020266
 20
493.8
 30
0.0
 11
401.220266
 21
493.8
 31
0.0
  0
ARC
  5
16F
100
AcDbEntity
  8
LAY-1
  6
CONTINUOUS
 62
     3
100
AcDbCircle
 10
339.593159
 20
497.2
 30
0.0
 40
0.3
100
AcDbArc
 50
207.645523
 51
270.0
  0
ARC
  5
170
100
AcDbEntity
  8
LAY-1
  6
CONTINUOUS
 62
     3
100
AcDbCircle
 10
337.378571
 20
496.04
 30
0.0
 40
2.2
100
AcDbArc
 50
27.645523
 51
152.354477
  0
ARC
  5
171
100
AcDbEntity
  8
LAY-1
  6
CONTINUOUS
 62
     3
100
AcDbCircle
 10
335.163983
 20
497.2
 30
0.0
 40
0.3
100
AcDbArc
 50
270.0
 51
332.354477
  0
ARC
  5
172
100
AcDbEntity
  8
LAY-1
  6
CONTINUOUS
 62
     3
100
AcDbCircle
 10
335.163983
 20
490.4
 30
0.0
 40
0.3
100
AcDbArc
 50
27.645523
 51
90.0
  0
ARC
  5
173
100
AcDbEntity
  8
LAY-1
  6
CONTINUOUS
 62
     3
100
AcDbCircle
 10
337.378571
 20
491.56
 30
0.0
 40
2.2
100
AcDbArc
 50
207.645523
 51
332.354477
  0
ARC
  5
174
100
AcDbEntity
  8
LAY-1
  6
CONTINUOUS
 62
     3
100
AcDbCircle
 10
339.593159
 20
490.4
 30
0.0
 40
0.3
100
AcDbArc
 50
90.0
 51
152.354477
  0
LINE
  5
175
100
AcDbEntity
  8
LAY-1
  6
CONTINUOUS
 62
     3
100
AcDbLine
 10
335.429734
 20
497.0608
 30
0.0
 11
335.429734
 21
490.5392
 31
0.0
  0
LINE
  5
176
100
AcDbEntity
  8
LAY-1
  6
CONTINUOUS
 62
     3
100
AcDbLine
 10
339.327409
 20
490.5392
 30
0.0
 11
339.327409
 21
497.0608
 31
0.0
  0
ARC
  5
177
100
AcDbEntity
  8
LAY-1
  6
CONTINUOUS
 62
     3
100
AcDbCircle
 10
349.093159
 20
497.2
 30
0.0
 40
0.3
100
AcDbArc
 50
207.645523
 51
270.0
  0
ARC
  5
178
100
AcDbEntity
  8
LAY-1
  6
CONTINUOUS
 62
     3
100
AcDbCircle
 10
346.878571
 20
496.04
 30
0.0
 40
2.2
100
AcDbArc
 50
27.645523
 51
152.354477
  0
ARC
  5
179
100
AcDbEntity
  8
LAY-1
  6
CONTINUOUS
 62
     3
100
AcDbCircle
 10
344.663983
 20
497.2
 30
0.0
 40
0.3
100
AcDbArc
 50
270.0
 51
332.354477
  0
ARC
  5
17A
100
AcDbEntity
  8
LAY-1
  6
CONTINUOUS
 62
     3
100
AcDbCircle
 10
344.663983
 20
490.4
 30
0.0
 40
0.3
100
AcDbArc
 50
27.645523
 51
90.0
  0
ARC
  5
17B
100
AcDbEntity
  8
LAY-1
  6
CONTINUOUS
 62
     3
100
AcDbCircle
 10
346.878571
 20
491.56
 30
0.0
 40
2.2
100
AcDbArc
 50
207.645523
 51
332.354477
  0
ARC
  5
17C
100
AcDbEntity
  8
LAY-1
  6
CONTINUOUS
 62
     3
100
AcDbCircle
 10
349.093159
 20
490.4
 30
0.0
 40
0.3
100
AcDbArc
 50
90.0
 51
152.354477
  0
LINE
  5
17D
100
AcDbEntity
  8
LAY-1
  6
CONTINUOUS
 62
     3
100
AcDbLine
 10
344.929734
 20
497.0608
 30
0.0
 11
344.929734
 21
490.5392
 31
0.0
  0
LINE
  5
17E
100
AcDbEntity
  8
LAY-1
  6
CONTINUOUS
 62
     3
100
AcDbLine
 10
348.827409
 20
490.5392
 30
0.0
 11
348.827409
 21
497.0608
 31
0.0
  0
ARC
  5
17F
100
AcDbEntity
  8
LAY-1
  6
CONTINUOUS
 62
     3
100
AcDbCircle
 10
358.593159
 20
497.2
 30
0.0
 40
0.3
100
AcDbArc
 50
207.645523
 51
270.0
  0
ARC
  5
180
100
AcDbEntity
  8
LAY-1
  6
CONTINUOUS
 62
     3
100
AcDbCircle
 10
356.378571
 20
496.04
 30
0.0
 40
2.2
100
AcDbArc
 50
27.645523
 51
152.354477
  0
ARC
  5
181
100
AcDbEntity
  8
LAY-1
  6
CONTINUOUS
 62
     3
100
AcDbCircle
 10
354.163983
 20
497.2
 30
0.0
 40
0.3
100
AcDbArc
 50
270.0
 51
332.354477
  0
ARC
  5
182
100
AcDbEntity
  8
LAY-1
  6
CONTINUOUS
 62
     3
100
AcDbCircle
 10
354.163983
 20
490.4
 30
0.0
 40
0.3
100
AcDbArc
 50
27.645523
 51
90.0
  0
ARC
  5
183
100
AcDbEntity
  8
LAY-1
  6
CONTINUOUS
 62
     3
100
AcDbCircle
 10
356.378571
 20
491.56
 30
0.0
 40
2.2
100
AcDbArc
 50
207.645523
 51
332.354477
  0
ARC
  5
184
100
AcDbEntity
  8
LAY-1
  6
CONTINUOUS
 62
     3
100
AcDbCircle
 10
358.593159
 20
490.4
 30
0.0
 40
0.3
100
AcDbArc
 50
90.0
 51
152.354477
  0
LINE
  5
185
100
AcDbEntity
  8
LAY-1
  6
CONTINUOUS
 62
     3
100
AcDbLine
 10
354.429734
 20
497.0608
 30
0.0
 11
354.429734
 21
490.5392
 31
0.0
  0
LINE
  5
186
100
AcDbEntity
  8
LAY-1
  6
CONTINUOUS
 62
     3
100
AcDbLine
 10
358.327409
 20
490.5392
 30
0.0
 11
358.327409
 21
497.0608
 31
0.0
  0
ARC
  5
187
100
AcDbEntity
  8
LAY-1
  6
CONTINUOUS
 62
     3
100
AcDbCircle
 10
368.093159
 20
497.2
 30
0.0
 40
0.3
100
AcDbArc
 50
207.645523
 51
270.0
  0
ARC
  5
188
100
AcDbEntity
  8
LAY-1
  6
CONTINUOUS
 62
     3
100
AcDbCircle
 10
365.878571
 20
496.04
 30
0.0
 40
2.2
100
AcDbArc
 50
27.645523
 51
152.354477
  0
ARC
  5
189
100
AcDbEntity
  8
LAY-1
  6
CONTINUOUS
 62
     3
100
AcDbCircle
 10
363.663983
 20
497.2
 30
0.0
 40
0.3
100
AcDbArc
 50
270.0
 51
332.354477
  0
ARC
  5
18A
100
AcDbEntity
  8
LAY-1
  6
CONTINUOUS
 62
     3
100
AcDbCircle
 10
363.663983
 20
490.4
 30
0.0
 40
0.3
100
AcDbArc
 50
27.645523
 51
90.0
  0
ARC
  5
18B
100
AcDbEntity
  8
LAY-1
  6
CONTINUOUS
 62
     3
100
AcDbCircle
 10
365.878571
 20
491.56
 30
0.0
 40
2.2
100
AcDbArc
 50
207.645523
 51
332.354477
  0
ARC
  5
18C
100
AcDbEntity
  8
LAY-1
  6
CONTINUOUS
 62
     3
100
AcDbCircle
 10
368.093159
 20
490.4
 30
0.0
 40
0.3
100
AcDbArc
 50
90.0
 51
152.354477
  0
LINE
  5
18D
100
AcDbEntity
  8
LAY-1
  6
CONTINUOUS
 62
     3
100
AcDbLine
 10
363.929734
 20
497.0608
 30
0.0
 11
363.929734
 21
490.5392
 31
0.0
  0
LINE
  5
18E
100
AcDbEntity
  8
LAY-1
  6
CONTINUOUS
 62
     3
100
AcDbLine
 10
367.827409
 20
490.5392
 30
0.0
 11
367.827409
 21
497.0608
 31
0.0
  0
ARC
  5
18F
100
AcDbEntity
  8
LAY-1
  6
CONTINUOUS
 62
     3
100
AcDbCircle
 10
377.593159
 20
497.2
 30
0.0
 40
0.3
100
AcDbArc
 50
207.645523
 51
270.0
  0
ARC
  5
190
100
AcDbEntity
  8
LAY-1
  6
CONTINUOUS
 62
     3
100
AcDbCircle
 10
375.378571
 20
496.04
 30
0.0
 40
2.2
100
AcDbArc
 50
27.645523
 51
152.354477
  0
ARC
  5
191
100
AcDbEntity
  8
LAY-1
  6
CONTINUOUS
 62
     3
100
AcDbCircle
 10
373.163983
 20
497.2
 30
0.0
 40
0.3
100
AcDbArc
 50
270.0
 51
332.354477
  0
ARC
  5
192
100
AcDbEntity
  8
LAY-1
  6
CONTINUOUS
 62
     3
100
AcDbCircle
 10
373.163983
 20
490.4
 30
0.0
 40
0.3
100
AcDbArc
 50
27.645523
 51
90.0
  0
ARC
  5
193
100
AcDbEntity
  8
LAY-1
  6
CONTINUOUS
 62
     3
100
AcDbCircle
 10
375.378571
 20
491.56
 30
0.0
 40
2.2
100
AcDbArc
 50
207.645523
 51
332.354477
  0
ARC
  5
194
100
AcDbEntity
  8
LAY-1
  6
CONTINUOUS
 62
     3
100
AcDbCircle
 10
377.593159
 20
490.4
 30
0.0
 40
0.3
100
AcDbArc
 50
90.0
 51
152.354477
  0
LINE
  5
195
100
AcDbEntity
  8
LAY-1
  6
CONTINUOUS
 62
     3
100
AcDbLine
 10
373.429734
 20
497.0608
 30
0.0
 11
373.429734
 21
490.5392
 31
0.0
  0
LINE
  5
196
100
AcDbEntity
  8
LAY-1
  6
CONTINUOUS
 62
     3
100
AcDbLine
 10
377.327409
 20
490.5392
 30
0.0
 11
377.327409
 21
497.0608
 31
0.0
  0
LINE
  5
197
100
AcDbEntity
  8
LAY-1
  6
CONTINUOUS
 62
     3
100
AcDbLine
 10
330.093159
 20
496.9
 30
0.0
 11
335.163983
 21
496.9
 31
0.0
  0
LINE
  5
198
100
AcDbEntity
  8
LAY-1
  6
CONTINUOUS
 62
     3
100
AcDbLine
 10
335.163983
 20
490.7
 30
0.0
 11
330.093159
 21
490.7
 31
0.0
  0
LINE
  5
199
100
AcDbEntity
  8
LAY-1
  6
CONTINUOUS
 62
     3
100
AcDbLine
 10
344.663983
 20
490.7
 30
0.0
 11
339.593159
 21
490.7
 31
0.0
  0
LINE
  5
19A
100
AcDbEntity
  8
LAY-1
  6
CONTINUOUS
 62
     3
100
AcDbLine
 10
339.593159
 20
496.9
 30
0.0
 11
344.663983
 21
496.9
 31
0.0
  0
LINE
  5
19B
100
AcDbEntity
  8
LAY-1
  6
CONTINUOUS
 62
     3
100
AcDbLine
 10
349.093159
 20
496.9
 30
0.0
 11
354.163983
 21
496.9
 31
0.0
  0
LINE
  5
19C
100
AcDbEntity
  8
LAY-1
  6
CONTINUOUS
 62
     3
100
AcDbLine
 10
354.163983
 20
490.7
 30
0.0
 11
349.093159
 21
490.7
 31
0.0
  0
LINE
  5
19D
100
AcDbEntity
  8
LAY-1
  6
CONTINUOUS
 62
     3
100
AcDbLine
 10
363.663983
 20
490.7
 30
0.0
 11
358.593159
 21
490.7
 31
0.0
  0
LINE
  5
19E
100
AcDbEntity
  8
LAY-1
  6
CONTINUOUS
 62
     3
100
AcDbLine
 10
358.593159
 20
496.9
 30
0.0
 11
363.663983
 21
496.9
 31
0.0
  0
LINE
  5
19F
100
AcDbEntity
  8
LAY-1
  6
CONTINUOUS
 62
     3
100
AcDbLine
 10
368.093159
 20
496.9
 30
0.0
 11
373.163983
 21
496.9
 31
0.0
  0
LINE
  5
1A0
100
AcDbEntity
  8
LAY-1
  6
CONTINUOUS
 62
     3
100
AcDbLine
 10
377.593159
 20
496.9
 30
0.0
 11
382.663983
 21
496.9
 31
0.0
  0
LINE
  5
1A1
100
AcDbEntity
  8
LAY-1
  6
CONTINUOUS
 62
     3
100
AcDbLine
 10
382.663983
 20
490.7
 30
0.0
 11
377.593159
 21
490.7
 31
0.0
  0
LINE
  5
1A2
100
AcDbEntity
  8
LAY-1
  6
CONTINUOUS
 62
     3
100
AcDbLine
 10
373.163983
 20
490.7
 30
0.0
 11
368.093159
 21
490.7
 31
0.0
  0
LINE
  5
1A3
100
AcDbEntity
  8
LAY-1
  6
CONTINUOUS
 62
     3
100
AcDbLine
 10
522.878571
 20
500.8
 30
0.0
 11
521.278571
 21
500.8
 31
0.0
  0
LINE
  5
1A4
100
AcDbEntity
  8
LAY-1
  6
CONTINUOUS
 62
     3
100
AcDbLine
 10
522.878571
 20
486.8
 30
0.0
 11
521.278571
 21
486.8
 31
0.0
  0
LINE
  5
1A5
100
AcDbEntity
  8
LAY-1
  6
CONTINUOUS
 62
     3
100
AcDbLine
 10
523.878571
 20
497.8
 30
0.0
 11
522.878571
 21
497.8
 31
0.0
  0
LINE
  5
1A6
100
AcDbEntity
  8
LAY-1
  6
CONTINUOUS
 62
     3
100
AcDbLine
 10
523.878571
 20
489.8
 30
0.0
 11
522.878571
 21
489.8
 31
0.0
  0
LINE
  5
1A7
100
AcDbEntity
  8
LAY-1
  6
CONTINUOUS
 62
     3
100
AcDbLine
 10
523.878571
 20
497.8
 30
0.0
 11
523.878571
 21
489.8
 31
0.0
  0
LINE
  5
1A8
100
AcDbEntity
  8
LAY-1
  6
CONTINUOUS
 62
     3
100
AcDbLine
 10
522.878571
 20
500.8
 30
0.0
 11
522.878571
 21
486.8
 31
0.0
  0
LINE
  5
1A9
100
AcDbEntity
  8
LAY-1
  6
CONTINUOUS
 62
     3
100
AcDbLine
 10
521.278571
 20
500.8
 30
0.0
 11
521.278571
 21
486.8
 31
0.0
  0
LINE
  5
1AA
100
AcDbEntity
  8
LAY-1
  6
CONTINUOUS
 62
     3
100
AcDbLine
 10
449.878571
 20
500.8
 30
0.0
 11
451.478571
 21
500.8
 31
0.0
  0
LINE
  5
1AB
100
AcDbEntity
  8
LAY-1
  6
CONTINUOUS
 62
     3
100
AcDbLine
 10
449.878571
 20
486.8
 30
0.0
 11
451.478571
 21
486.8
 31
0.0
  0
LINE
  5
1AC
100
AcDbEntity
  8
LAY-1
  6
CONTINUOUS
 62
     3
100
AcDbLine
 10
448.878571
 20
497.8
 30
0.0
 11
449.878571
 21
497.8
 31
0.0
  0
LINE
  5
1AD
100
AcDbEntity
  8
LAY-1
  6
CONTINUOUS
 62
     3
100
AcDbLine
 10
448.878571
 20
489.8
 30
0.0
 11
449.878571
 21
489.8
 31
0.0
  0
LINE
  5
1AE
100
AcDbEntity
  8
LAY-1
  6
CONTINUOUS
 62
     3
100
AcDbLine
 10
448.878571
 20
497.8
 30
0.0
 11
448.878571
 21
489.8
 31
0.0
  0
LINE
  5
1AF
100
AcDbEntity
  8
LAY-1
  6
CONTINUOUS
 62
     3
100
AcDbLine
 10
449.878571
 20
500.8
 30
0.0
 11
449.878571
 21
486.8
 31
0.0
  0
LINE
  5
1B0
100
AcDbEntity
  8
LAY-1
  6
CONTINUOUS
 62
     3
100
AcDbLine
 10
451.478571
 20
500.8
 30
0.0
 11
451.478571
 21
486.8
 31
0.0
  0
ARC
  5
1B1
100
AcDbEntity
  8
LAY-1
  6
CONTINUOUS
 62
     3
100
AcDbCircle
 10
460.093159
 20
497.1
 30
0.0
 40
0.3
100
AcDbArc
 50
207.645523
 51
270.0
  0
LINE
  5
1B2
100
AcDbEntity
  8
LAY-1
  6
CONTINUOUS
 62
     3
100
AcDbLine
 10
451.478571
 20
496.8
 30
0.0
 11
455.929734
 21
496.8
 31
0.0
  0
ARC
  5
1B3
100
AcDbEntity
  8
LAY-1
  6
CONTINUOUS
 62
     3
100
AcDbCircle
 10
457.878571
 20
495.94
 30
0.0
 40
2.2
100
AcDbArc
 50
27.645523
 51
152.354477
  0
ARC
  5
1B4
100
AcDbEntity
  8
LAY-1
  6
CONTINUOUS
 62
     3
100
AcDbCircle
 10
455.663983
 20
497.1
 30
0.0
 40
0.3
100
AcDbArc
 50
270.0
 51
332.354477
  0
ARC
  5
1B5
100
AcDbEntity
  8
LAY-1
  6
CONTINUOUS
 62
     3
100
AcDbCircle
 10
455.663983
 20
490.5
 30
0.0
 40
0.3
100
AcDbArc
 50
27.645523
 51
90.0
  0
ARC
  5
1B6
100
AcDbEntity
  8
LAY-1
  6
CONTINUOUS
 62
     3
100
AcDbCircle
 10
457.878571
 20
491.66
 30
0.0
 40
2.2
100
AcDbArc
 50
207.645523
 51
332.354477
  0
ARC
  5
1B7
100
AcDbEntity
  8
LAY-1
  6
CONTINUOUS
 62
     3
100
AcDbCircle
 10
460.093159
 20
490.5
 30
0.0
 40
0.3
100
AcDbArc
 50
90.0
 51
152.354477
  0
LINE
  5
1B8
100
AcDbEntity
  8
LAY-1
  6
CONTINUOUS
 62
     3
100
AcDbLine
 10
451.478571
 20
490.8
 30
0.0
 11
455.929734
 21
490.8
 31
0.0
  0
LINE
  5
1B9
100
AcDbEntity
  8
LAY-1
  6
CONTINUOUS
 62
     3
100
AcDbLine
 10
455.929734
 20
496.9608
 30
0.0
 11
455.929734
 21
490.6392
 31
0.0
  0
LINE
  5
1BA
100
AcDbEntity
  8
LAY-1
  6
CONTINUOUS
 62
     3
100
AcDbLine
 10
459.827409
 20
490.6392
 30
0.0
 11
459.827409
 21
496.9608
 31
0.0
  0
LINE
  5
1BB
100
AcDbEntity
  8
LAY-1
  6
CONTINUOUS
 62
     3
100
AcDbLine
 10
521.278571
 20
496.8
 30
0.0
 11
516.827409
 21
496.8
 31
0.0
  0
ARC
  5
1BC
100
AcDbEntity
  8
LAY-1
  6
CONTINUOUS
 62
     3
100
AcDbCircle
 10
512.663983
 20
497.1
 30
0.0
 40
0.3
100
AcDbArc
 50
270.0
 51
332.354477
  0
ARC
  5
1BD
100
AcDbEntity
  8
LAY-1
  6
CONTINUOUS
 62
     3
100
AcDbCircle
 10
514.878571
 20
495.94
 30
0.0
 40
2.2
100
AcDbArc
 50
27.645523
 51
152.354477
  0
ARC
  5
1BE
100
AcDbEntity
  8
LAY-1
  6
CONTINUOUS
 62
     3
100
AcDbCircle
 10
517.093159
 20
497.1
 30
0.0
 40
0.3
100
AcDbArc
 50
207.645523
 51
270.0
  0
ARC
  5
1BF
100
AcDbEntity
  8
LAY-1
  6
CONTINUOUS
 62
     3
100
AcDbCircle
 10
517.093159
 20
490.5
 30
0.0
 40
0.3
100
AcDbArc
 50
90.0
 51
152.354477
  0
ARC
  5
1C0
100
AcDbEntity
  8
LAY-1
  6
CONTINUOUS
 62
     3
100
AcDbCircle
 10
514.878571
 20
491.66
 30
0.0
 40
2.2
100
AcDbArc
 50
207.645523
 51
332.354477
  0
ARC
  5
1C1
100
AcDbEntity
  8
LAY-1
  6
CONTINUOUS
 62
     3
100
AcDbCircle
 10
512.663983
 20
490.5
 30
0.0
 40
0.3
100
AcDbArc
 50
27.645523
 51
90.0
  0
LINE
  5
1C2
100
AcDbEntity
  8
LAY-1
  6
CONTINUOUS
 62
     3
100
AcDbLine
 10
521.278571
 20
490.8
 30
0.0
 11
516.827409
 21
490.8
 31
0.0
  0
LINE
  5
1C3
100
AcDbEntity
  8
LAY-1
  6
CONTINUOUS
 62
     3
100
AcDbLine
 10
516.827409
 20
496.9608
 30
0.0
 11
516.827409
 21
490.6392
 31
0.0
  0
LINE
  5
1C4
100
AcDbEntity
  8
LAY-1
  6
CONTINUOUS
 62
     3
100
AcDbLine
 10
512.929734
 20
490.6392
 30
0.0
 11
512.929734
 21
496.9608
 31
0.0
  0
LINE
  5
1C5
100
AcDbEntity
  8
LAY-1
  6
EXLTYPE3
 62
     1
100
AcDbLine
 10
445.567409
 20
493.8
 30
0.0
 11
526.667409
 21
493.8
 31
0.0
  0
ARC
  5
1C6
100
AcDbEntity
  8
LAY-1
  6
CONTINUOUS
 62
     3
100
AcDbCircle
 10
469.593159
 20
497.1
 30
0.0
 40
0.3
100
AcDbArc
 50
207.645523
 51
270.0
  0
ARC
  5
1C7
100
AcDbEntity
  8
LAY-1
  6
CONTINUOUS
 62
     3
100
AcDbCircle
 10
467.378571
 20
495.94
 30
0.0
 40
2.2
100
AcDbArc
 50
27.645523
 51
152.354477
  0
ARC
  5
1C8
100
AcDbEntity
  8
LAY-1
  6
CONTINUOUS
 62
     3
100
AcDbCircle
 10
465.163983
 20
497.1
 30
0.0
 40
0.3
100
AcDbArc
 50
270.0
 51
332.354477
  0
ARC
  5
1C9
100
AcDbEntity
  8
LAY-1
  6
CONTINUOUS
 62
     3
100
AcDbCircle
 10
465.163983
 20
490.5
 30
0.0
 40
0.3
100
AcDbArc
 50
27.645523
 51
90.0
  0
ARC
  5
1CA
100
AcDbEntity
  8
LAY-1
  6
CONTINUOUS
 62
     3
100
AcDbCircle
 10
467.378571
 20
491.66
 30
0.0
 40
2.2
100
AcDbArc
 50
207.645523
 51
332.354477
  0
ARC
  5
1CB
100
AcDbEntity
  8
LAY-1
  6
CONTINUOUS
 62
     3
100
AcDbCircle
 10
469.593159
 20
490.5
 30
0.0
 40
0.3
100
AcDbArc
 50
90.0
 51
152.354477
  0
LINE
  5
1CC
100
AcDbEntity
  8
LAY-1
  6
CONTINUOUS
 62
     3
100
AcDbLine
 10
465.429734
 20
496.9608
 30
0.0
 11
465.429734
 21
490.6392
 31
0.0
  0
LINE
  5
1CD
100
AcDbEntity
  8
LAY-1
  6
CONTINUOUS
 62
     3
100
AcDbLine
 10
469.327409
 20
490.6392
 30
0.0
 11
469.327409
 21
496.9608
 31
0.0
  0
ARC
  5
1CE
100
AcDbEntity
  8
LAY-1
  6
CONTINUOUS
 62
     3
100
AcDbCircle
 10
479.093159
 20
497.1
 30
0.0
 40
0.3
100
AcDbArc
 50
207.645523
 51
270.0
  0
ARC
  5
1CF
100
AcDbEntity
  8
LAY-1
  6
CONTINUOUS
 62
     3
100
AcDbCircle
 10
476.878571
 20
495.94
 30
0.0
 40
2.2
100
AcDbArc
 50
27.645523
 51
152.354477
  0
ARC
  5
1D0
100
AcDbEntity
  8
LAY-1
  6
CONTINUOUS
 62
     3
100
AcDbCircle
 10
474.663983
 20
497.1
 30
0.0
 40
0.3
100
AcDbArc
 50
270.0
 51
332.354477
  0
ARC
  5
1D1
100
AcDbEntity
  8
LAY-1
  6
CONTINUOUS
 62
     3
100
AcDbCircle
 10
474.663983
 20
490.5
 30
0.0
 40
0.3
100
AcDbArc
 50
27.645523
 51
90.0
  0
ARC
  5
1D2
100
AcDbEntity
  8
LAY-1
  6
CONTINUOUS
 62
     3
100
AcDbCircle
 10
476.878571
 20
491.66
 30
0.0
 40
2.2
100
AcDbArc
 50
207.645523
 51
332.354477
  0
ARC
  5
1D3
100
AcDbEntity
  8
LAY-1
  6
CONTINUOUS
 62
     3
100
AcDbCircle
 10
479.093159
 20
490.5
 30
0.0
 40
0.3
100
AcDbArc
 50
90.0
 51
152.354477
  0
LINE
  5
1D4
100
AcDbEntity
  8
LAY-1
  6
CONTINUOUS
 62
     3
100
AcDbLine
 10
474.929734
 20
496.9608
 30
0.0
 11
474.929734
 21
490.6392
 31
0.0
  0
LINE
  5
1D5
100
AcDbEntity
  8
LAY-1
  6
CONTINUOUS
 62
     3
100
AcDbLine
 10
478.827409
 20
490.6392
 30
0.0
 11
478.827409
 21
496.9608
 31
0.0
  0
ARC
  5
1D6
100
AcDbEntity
  8
LAY-1
  6
CONTINUOUS
 62
     3
100
AcDbCircle
 10
488.593159
 20
497.1
 30
0.0
 40
0.3
100
AcDbArc
 50
207.645523
 51
270.0
  0
ARC
  5
1D7
100
AcDbEntity
  8
LAY-1
  6
CONTINUOUS
 62
     3
100
AcDbCircle
 10
486.378571
 20
495.94
 30
0.0
 40
2.2
100
AcDbArc
 50
27.645523
 51
152.354477
  0
ARC
  5
1D8
100
AcDbEntity
  8
LAY-1
  6
CONTINUOUS
 62
     3
100
AcDbCircle
 10
484.163983
 20
497.1
 30
0.0
 40
0.3
100
AcDbArc
 50
270.0
 51
332.354477
  0
ARC
  5
1D9
100
AcDbEntity
  8
LAY-1
  6
CONTINUOUS
 62
     3
100
AcDbCircle
 10
484.163983
 20
490.5
 30
0.0
 40
0.3
100
AcDbArc
 50
27.645523
 51
90.0
  0
ARC
  5
1DA
100
AcDbEntity
  8
LAY-1
  6
CONTINUOUS
 62
     3
100
AcDbCircle
 10
486.378571
 20
491.66
 30
0.0
 40
2.2
100
AcDbArc
 50
207.645523
 51
332.354477
  0
ARC
  5
1DB
100
AcDbEntity
  8
LAY-1
  6
CONTINUOUS
 62
     3
100
AcDbCircle
 10
488.593159
 20
490.5
 30
0.0
 40
0.3
100
AcDbArc
 50
90.0
 51
152.354477
  0
LINE
  5
1DC
100
AcDbEntity
  8
LAY-1
  6
CONTINUOUS
 62
     3
100
AcDbLine
 10
484.429734
 20
496.9608
 30
0.0
 11
484.429734
 21
490.6392
 31
0.0
  0
LINE
  5
1DD
100
AcDbEntity
  8
LAY-1
  6
CONTINUOUS
 62
     3
100
AcDbLine
 10
488.327409
 20
490.6392
 30
0.0
 11
488.327409
 21
496.9608
 31
0.0
  0
ARC
  5
1DE
100
AcDbEntity
  8
LAY-1
  6
CONTINUOUS
 62
     3
100
AcDbCircle
 10
498.093159
 20
497.1
 30
0.0
 40
0.3
100
AcDbArc
 50
207.645523
 51
270.0
  0
ARC
  5
1DF
100
AcDbEntity
  8
LAY-1
  6
CONTINUOUS
 62
     3
100
AcDbCircle
 10
495.878571
 20
495.94
 30
0.0
 40
2.2
100
AcDbArc
 50
27.645523
 51
152.354477
  0
ARC
  5
1E0
100
AcDbEntity
  8
LAY-1
  6
CONTINUOUS
 62
     3
100
AcDbCircle
 10
493.663983
 20
497.1
 30
0.0
 40
0.3
100
AcDbArc
 50
270.0
 51
332.354477
  0
ARC
  5
1E1
100
AcDbEntity
  8
LAY-1
  6
CONTINUOUS
 62
     3
100
AcDbCircle
 10
493.663983
 20
490.5
 30
0.0
 40
0.3
100
AcDbArc
 50
27.645523
 51
90.0
  0
ARC
  5
1E2
100
AcDbEntity
  8
LAY-1
  6
CONTINUOUS
 62
     3
100
AcDbCircle
 10
495.878571
 20
491.66
 30
0.0
 40
2.2
100
AcDbArc
 50
207.645523
 51
332.354477
  0
ARC
  5
1E3
100
AcDbEntity
  8
LAY-1
  6
CONTINUOUS
 62
     3
100
AcDbCircle
 10
498.093159
 20
490.5
 30
0.0
 40
0.3
100
AcDbArc
 50
90.0
 51
152.354477
  0
LINE
  5
1E4
100
AcDbEntity
  8
LAY-1
  6
CONTINUOUS
 62
     3
100
AcDbLine
 10
493.929734
 20
496.9608
 30
0.0
 11
493.929734
 21
490.6392
 31
0.0
  0
LINE
  5
1E5
100
AcDbEntity
  8
LAY-1
  6
CONTINUOUS
 62
     3
100
AcDbLine
 10
497.827409
 20
490.6392
 30
0.0
 11
497.827409
 21
496.9608
 31
0.0
  0
ARC
  5
1E6
100
AcDbEntity
  8
LAY-1
  6
CONTINUOUS
 62
     3
100
AcDbCircle
 10
507.593159
 20
497.1
 30
0.0
 40
0.3
100
AcDbArc
 50
207.645523
 51
270.0
  0
ARC
  5
1E7
100
AcDbEntity
  8
LAY-1
  6
CONTINUOUS
 62
     3
100
AcDbCircle
 10
505.378571
 20
495.94
 30
0.0
 40
2.2
100
AcDbArc
 50
27.645523
 51
152.354477
  0
ARC
  5
1E8
100
AcDbEntity
  8
LAY-1
  6
CONTINUOUS
 62
     3
100
AcDbCircle
 10
503.163983
 20
497.1
 30
0.0
 40
0.3
100
AcDbArc
 50
270.0
 51
332.354477
  0
ARC
  5
1E9
100
AcDbEntity
  8
LAY-1
  6
CONTINUOUS
 62
     3
100
AcDbCircle
 10
503.163983
 20
490.5
 30
0.0
 40
0.3
100
AcDbArc
 50
27.645523
 51
90.0
  0
ARC
  5
1EA
100
AcDbEntity
  8
LAY-1
  6
CONTINUOUS
 62
     3
100
AcDbCircle
 10
505.378571
 20
491.66
 30
0.0
 40
2.2
100
AcDbArc
 50
207.645523
 51
332.354477
  0
ARC
  5
1EB
100
AcDbEntity
  8
LAY-1
  6
CONTINUOUS
 62
     3
100
AcDbCircle
 10
507.593159
 20
490.5
 30
0.0
 40
0.3
100
AcDbArc
 50
90.0
 51
152.354477
  0
LINE
  5
1EC
100
AcDbEntity
  8
LAY-1
  6
CONTINUOUS
 62
     3
100
AcDbLine
 10
503.429734
 20
496.9608
 30
0.0
 11
503.429734
 21
490.6392
 31
0.0
  0
LINE
  5
1ED
100
AcDbEntity
  8
LAY-1
  6
CONTINUOUS
 62
     3
100
AcDbLine
 10
507.327409
 20
490.6392
 30
0.0
 11
507.327409
 21
496.9608
 31
0.0
  0
LINE
  5
1EE
100
AcDbEntity
  8
LAY-1
  6
CONTINUOUS
 62
     3
100
AcDbLine
 10
507.593159
 20
496.8
 30
0.0
 11
512.663983
 21
496.8
 31
0.0
  0
LINE
  5
1EF
100
AcDbEntity
  8
LAY-1
  6
CONTINUOUS
 62
     3
100
AcDbLine
 10
512.663983
 20
490.8
 30
0.0
 11
507.593159
 21
490.8
 31
0.0
  0
LINE
  5
1F0
100
AcDbEntity
  8
LAY-1
  6
CONTINUOUS
 62
     3
100
AcDbLine
 10
503.163983
 20
490.8
 30
0.0
 11
498.093159
 21
490.8
 31
0.0
  0
LINE
  5
1F1
100
AcDbEntity
  8
LAY-1
  6
CONTINUOUS
 62
     3
100
AcDbLine
 10
498.093159
 20
496.8
 30
0.0
 11
503.163983
 21
496.8
 31
0.0
  0
LINE
  5
1F2
100
AcDbEntity
  8
LAY-1
  6
CONTINUOUS
 62
     3
100
AcDbLine
 10
488.593159
 20
496.8
 30
0.0
 11
493.663983
 21
496.8
 31
0.0
  0
LINE
  5
1F3
100
AcDbEntity
  8
LAY-1
  6
CONTINUOUS
 62
     3
100
AcDbLine
 10
493.663983
 20
490.8
 30
0.0
 11
488.593159
 21
490.8
 31
0.0
  0
LINE
  5
1F4
100
AcDbEntity
  8
LAY-1
  6
CONTINUOUS
 62
     3
100
AcDbLine
 10
479.093159
 20
496.8
 30
0.0
 11
484.163983
 21
496.8
 31
0.0
  0
LINE
  5
1F5
100
AcDbEntity
  8
LAY-1
  6
CONTINUOUS
 62
     3
100
AcDbLine
 10
484.163983
 20
490.8
 30
0.0
 11
479.093159
 21
490.8
 31
0.0
  0
LINE
  5
1F6
100
AcDbEntity
  8
LAY-1
  6
CONTINUOUS
 62
     3
100
AcDbLine
 10
460.093159
 20
496.8
 30
0.0
 11
465.163983
 21
496.8
 31
0.0
  0
LINE
  5
1F7
100
AcDbEntity
  8
LAY-1
  6
CONTINUOUS
 62
     3
100
AcDbLine
 10
469.593159
 20
496.8
 30
0.0
 11
474.663983
 21
496.8
 31
0.0
  0
LINE
  5
1F8
100
AcDbEntity
  8
LAY-1
  6
CONTINUOUS
 62
     3
100
AcDbLine
 10
474.663983
 20
490.8
 30
0.0
 11
469.593159
 21
490.8
 31
0.0
  0
LINE
  5
1F9
100
AcDbEntity
  8
LAY-1
  6
CONTINUOUS
 62
     3
100
AcDbLine
 10
465.163983
 20
490.8
 30
0.0
 11
460.093159
 21
490.8
 31
0.0
  0
LINE
  5
1FA
100
AcDbEntity
  8
LAY-1
  6
CONTINUOUS
 62
     3
100
AcDbLine
 10
579.878571
 20
501.55
 30
0.0
 11
581.478571
 21
501.55
 31
0.0
  0
LINE
  5
1FB
100
AcDbEntity
  8
LAY-1
  6
CONTINUOUS
 62
     3
100
AcDbLine
 10
579.878571
 20
486.05
 30
0.0
 11
581.478571
 21
486.05
 31
0.0
  0
LINE
  5
1FC
100
AcDbEntity
  8
LAY-1
  6
CONTINUOUS
 62
     3
100
AcDbLine
 10
578.878571
 20
498.55
 30
0.0
 11
579.878571
 21
498.55
 31
0.0
  0
LINE
  5
1FD
100
AcDbEntity
  8
LAY-1
  6
CONTINUOUS
 62
     3
100
AcDbLine
 10
578.878571
 20
489.05
 30
0.0
 11
579.878571
 21
489.05
 31
0.0
  0
LINE
  5
1FE
100
AcDbEntity
  8
LAY-1
  6
CONTINUOUS
 62
     3
100
AcDbLine
 10
578.878571
 20
498.55
 30
0.0
 11
578.878571
 21
489.05
 31
0.0
  0
LINE
  5
1FF
100
AcDbEntity
  8
LAY-1
  6
CONTINUOUS
 62
     3
100
AcDbLine
 10
579.878571
 20
501.55
 30
0.0
 11
579.878571
 21
486.05
 31
0.0
  0
LINE
  5
200
100
AcDbEntity
  8
LAY-1
  6
CONTINUOUS
 62
     3
100
AcDbLine
 10
581.478571
 20
501.55
 30
0.0
 11
581.478571
 21
486.05
 31
0.0
  0
LINE
  5
201
100
AcDbEntity
  8
LAY-1
  6
CONTINUOUS
 62
     3
100
AcDbLine
 10
652.878571
 20
501.55
 30
0.0
 11
651.278571
 21
501.55
 31
0.0
  0
LINE
  5
202
100
AcDbEntity
  8
LAY-1
  6
CONTINUOUS
 62
     3
100
AcDbLine
 10
652.878571
 20
486.05
 30
0.0
 11
651.278571
 21
486.05
 31
0.0
  0
LINE
  5
203
100
AcDbEntity
  8
LAY-1
  6
CONTINUOUS
 62
     3
100
AcDbLine
 10
653.878571
 20
498.55
 30
0.0
 11
652.878571
 21
498.55
 31
0.0
  0
LINE
  5
204
100
AcDbEntity
  8
LAY-1
  6
CONTINUOUS
 62
     3
100
AcDbLine
 10
653.878571
 20
489.05
 30
0.0
 11
652.878571
 21
489.05
 31
0.0
  0
LINE
  5
205
100
AcDbEntity
  8
LAY-1
  6
CONTINUOUS
 62
     3
100
AcDbLine
 10
653.878571
 20
498.55
 30
0.0
 11
653.878571
 21
489.05
 31
0.0
  0
LINE
  5
206
100
AcDbEntity
  8
LAY-1
  6
CONTINUOUS
 62
     3
100
AcDbLine
 10
652.878571
 20
501.55
 30
0.0
 11
652.878571
 21
486.05
 31
0.0
  0
LINE
  5
207
100
AcDbEntity
  8
LAY-1
  6
CONTINUOUS
 62
     3
100
AcDbLine
 10
651.278571
 20
501.55
 30
0.0
 11
651.278571
 21
486.05
 31
0.0
  0
ARC
  5
208
100
AcDbEntity
  8
LAY-1
  6
CONTINUOUS
 62
     3
100
AcDbCircle
 10
642.663983
 20
497.85
 30
0.0
 40
0.3
100
AcDbArc
 50
270.0
 51
332.354477
  0
ARC
  5
209
100
AcDbEntity
  8
LAY-1
  6
CONTINUOUS
 62
     3
100
AcDbCircle
 10
644.878571
 20
496.69
 30
0.0
 40
2.2
100
AcDbArc
 50
27.645523
 51
152.354477
  0
ARC
  5
20A
100
AcDbEntity
  8
LAY-1
  6
CONTINUOUS
 62
     3
100
AcDbCircle
 10
647.093159
 20
497.85
 30
0.0
 40
0.3
100
AcDbArc
 50
207.645523
 51
270.0
  0
LINE
  5
20B
100
AcDbEntity
  8
LAY-1
  6
CONTINUOUS
 62
     3
100
AcDbLine
 10
651.278571
 20
497.55
 30
0.0
 11
647.093159
 21
497.55
 31
0.0
  0
ARC
  5
20C
100
AcDbEntity
  8
LAY-1
  6
CONTINUOUS
 62
     3
100
AcDbCircle
 10
647.093159
 20
489.75
 30
0.0
 40
0.3
100
AcDbArc
 50
90.0
 51
152.354477
  0
ARC
  5
20D
100
AcDbEntity
  8
LAY-1
  6
CONTINUOUS
 62
     3
100
AcDbCircle
 10
644.878571
 20
490.91
 30
0.0
 40
2.2
100
AcDbArc
 50
207.645523
 51
332.354477
  0
ARC
  5
20E
100
AcDbEntity
  8
LAY-1
  6
CONTINUOUS
 62
     3
100
AcDbCircle
 10
642.663983
 20
489.75
 30
0.0
 40
0.3
100
AcDbArc
 50
27.645523
 51
90.0
  0
LINE
  5
20F
100
AcDbEntity
  8
LAY-1
  6
CONTINUOUS
 62
     3
100
AcDbLine
 10
651.278571
 20
490.05
 30
0.0
 11
647.093159
 21
490.05
 31
0.0
  0
LINE
  5
210
100
AcDbEntity
  8
LAY-1
  6
CONTINUOUS
 62
     3
100
AcDbLine
 10
646.827409
 20
497.7108
 30
0.0
 11
646.827409
 21
489.8892
 31
0.0
  0
LINE
  5
211
100
AcDbEntity
  8
LAY-1
  6
CONTINUOUS
 62
     3
100
AcDbLine
 10
642.929734
 20
489.8892
 30
0.0
 11
642.929734
 21
497.7108
 31
0.0
  0
ARC
  5
212
100
AcDbEntity
  8
LAY-1
  6
CONTINUOUS
 62
     3
100
AcDbCircle
 10
590.093159
 20
497.85
 30
0.0
 40
0.3
100
AcDbArc
 50
207.645523
 51
270.0
  0
LINE
  5
213
100
AcDbEntity
  8
LAY-1
  6
CONTINUOUS
 62
     3
100
AcDbLine
 10
581.478571
 20
497.55
 30
0.0
 11
585.663983
 21
497.55
 31
0.0
  0
ARC
  5
214
100
AcDbEntity
  8
LAY-1
  6
CONTINUOUS
 62
     3
100
AcDbCircle
 10
587.878571
 20
496.69
 30
0.0
 40
2.2
100
AcDbArc
 50
27.645523
 51
152.354477
  0
ARC
  5
215
100
AcDbEntity
  8
LAY-1
  6
CONTINUOUS
 62
     3
100
AcDbCircle
 10
585.663983
 20
497.85
 30
0.0
 40
0.3
100
AcDbArc
 50
270.0
 51
332.354477
  0
ARC
  5
216
100
AcDbEntity
  8
LAY-1
  6
CONTINUOUS
 62
     3
100
AcDbCircle
 10
585.663983
 20
489.75
 30
0.0
 40
0.3
100
AcDbArc
 50
27.645523
 51
90.0
  0
ARC
  5
217
100
AcDbEntity
  8
LAY-1
  6
CONTINUOUS
 62
     3
100
AcDbCircle
 10
587.878571
 20
490.91
 30
0.0
 40
2.2
100
AcDbArc
 50
207.645523
 51
332.354477
  0
ARC
  5
218
100
AcDbEntity
  8
LAY-1
  6
CONTINUOUS
 62
     3
100
AcDbCircle
 10
590.093159
 20
489.75
 30
0.0
 40
0.3
100
AcDbArc
 50
90.0
 51
152.354477
  0
LINE
  5
219
100
AcDbEntity
  8
LAY-1
  6
CONTINUOUS
 62
     3
100
AcDbLine
 10
581.478571
 20
490.05
 30
0.0
 11
585.663983
 21
490.05
 31
0.0
  0
LINE
  5
21A
100
AcDbEntity
  8
LAY-1
  6
CONTINUOUS
 62
     3
100
AcDbLine
 10
585.929734
 20
497.7108
 30
0.0
 11
585.929734
 21
489.8892
 31
0.0
  0
LINE
  5
21B
100
AcDbEntity
  8
LAY-1
  6
CONTINUOUS
 62
     3
100
AcDbLine
 10
589.827409
 20
489.8892
 30
0.0
 11
589.827409
 21
497.7108
 31
0.0
  0
LINE
  5
21C
100
AcDbEntity
  8
LAY-1
  6
EXLTYPE3
 62
     1
100
AcDbLine
 10
576.134552
 20
493.8
 30
0.0
 11
656.734552
 21
493.8
 31
0.0
  0
ARC
  5
21D
100
AcDbEntity
  8
LAY-1
  6
CONTINUOUS
 62
     3
100
AcDbCircle
 10
599.593159
 20
497.85
 30
0.0
 40
0.3
100
AcDbArc
 50
207.645523
 51
270.0
  0
ARC
  5
21E
100
AcDbEntity
  8
LAY-1
  6
CONTINUOUS
 62
     3
100
AcDbCircle
 10
597.378571
 20
496.69
 30
0.0
 40
2.2
100
AcDbArc
 50
27.645523
 51
152.354477
  0
ARC
  5
21F
100
AcDbEntity
  8
LAY-1
  6
CONTINUOUS
 62
     3
100
AcDbCircle
 10
595.163983
 20
497.85
 30
0.0
 40
0.3
100
AcDbArc
 50
270.0
 51
332.354477
  0
ARC
  5
220
100
AcDbEntity
  8
LAY-1
  6
CONTINUOUS
 62
     3
100
AcDbCircle
 10
595.163983
 20
489.75
 30
0.0
 40
0.3
100
AcDbArc
 50
27.645523
 51
90.0
  0
ARC
  5
221
100
AcDbEntity
  8
LAY-1
  6
CONTINUOUS
 62
     3
100
AcDbCircle
 10
597.378571
 20
490.91
 30
0.0
 40
2.2
100
AcDbArc
 50
207.645523
 51
332.354477
  0
ARC
  5
222
100
AcDbEntity
  8
LAY-1
  6
CONTINUOUS
 62
     3
100
AcDbCircle
 10
599.593159
 20
489.75
 30
0.0
 40
0.3
100
AcDbArc
 50
90.0
 51
152.354477
  0
LINE
  5
223
100
AcDbEntity
  8
LAY-1
  6
CONTINUOUS
 62
     3
100
AcDbLine
 10
595.429734
 20
497.7108
 30
0.0
 11
595.429734
 21
489.8892
 31
0.0
  0
LINE
  5
224
100
AcDbEntity
  8
LAY-1
  6
CONTINUOUS
 62
     3
100
AcDbLine
 10
599.327409
 20
489.8892
 30
0.0
 11
599.327409
 21
497.7108
 31
0.0
  0
ARC
  5
225
100
AcDbEntity
  8
LAY-1
  6
CONTINUOUS
 62
     3
100
AcDbCircle
 10
609.093159
 20
497.85
 30
0.0
 40
0.3
100
AcDbArc
 50
207.645523
 51
270.0
  0
ARC
  5
226
100
AcDbEntity
  8
LAY-1
  6
CONTINUOUS
 62
     3
100
AcDbCircle
 10
606.878571
 20
496.69
 30
0.0
 40
2.2
100
AcDbArc
 50
27.645523
 51
152.354477
  0
ARC
  5
227
100
AcDbEntity
  8
LAY-1
  6
CONTINUOUS
 62
     3
100
AcDbCircle
 10
604.663983
 20
497.85
 30
0.0
 40
0.3
100
AcDbArc
 50
270.0
 51
332.354477
  0
ARC
  5
228
100
AcDbEntity
  8
LAY-1
  6
CONTINUOUS
 62
     3
100
AcDbCircle
 10
604.663983
 20
489.75
 30
0.0
 40
0.3
100
AcDbArc
 50
27.645523
 51
90.0
  0
ARC
  5
229
100
AcDbEntity
  8
LAY-1
  6
CONTINUOUS
 62
     3
100
AcDbCircle
 10
606.878571
 20
490.91
 30
0.0
 40
2.2
100
AcDbArc
 50
207.645523
 51
332.354477
  0
ARC
  5
22A
100
AcDbEntity
  8
LAY-1
  6
CONTINUOUS
 62
     3
100
AcDbCircle
 10
609.093159
 20
489.75
 30
0.0
 40
0.3
100
AcDbArc
 50
90.0
 51
152.354477
  0
LINE
  5
22B
100
AcDbEntity
  8
LAY-1
  6
CONTINUOUS
 62
     3
100
AcDbLine
 10
604.929734
 20
497.7108
 30
0.0
 11
604.929734
 21
489.8892
 31
0.0
  0
LINE
  5
22C
100
AcDbEntity
  8
LAY-1
  6
CONTINUOUS
 62
     3
100
AcDbLine
 10
608.827409
 20
489.8892
 30
0.0
 11
608.827409
 21
497.7108
 31
0.0
  0
ARC
  5
22D
100
AcDbEntity
  8
LAY-1
  6
CONTINUOUS
 62
     3
100
AcDbCircle
 10
618.593159
 20
497.85
 30
0.0
 40
0.3
100
AcDbArc
 50
207.645523
 51
270.0
  0
ARC
  5
22E
100
AcDbEntity
  8
LAY-1
  6
CONTINUOUS
 62
     3
100
AcDbCircle
 10
616.378571
 20
496.69
 30
0.0
 40
2.2
100
AcDbArc
 50
27.645523
 51
152.354477
  0
ARC
  5
22F
100
AcDbEntity
  8
LAY-1
  6
CONTINUOUS
 62
     3
100
AcDbCircle
 10
614.163983
 20
497.85
 30
0.0
 40
0.3
100
AcDbArc
 50
270.0
 51
332.354477
  0
ARC
  5
230
100
AcDbEntity
  8
LAY-1
  6
CONTINUOUS
 62
     3
100
AcDbCircle
 10
614.163983
 20
489.75
 30
0.0
 40
0.3
100
AcDbArc
 50
27.645523
 51
90.0
  0
ARC
  5
231
100
AcDbEntity
  8
LAY-1
  6
CONTINUOUS
 62
     3
100
AcDbCircle
 10
616.378571
 20
490.91
 30
0.0
 40
2.2
100
AcDbArc
 50
207.645523
 51
332.354477
  0
ARC
  5
232
100
AcDbEntity
  8
LAY-1
  6
CONTINUOUS
 62
     3
100
AcDbCircle
 10
618.593159
 20
489.75
 30
0.0
 40
0.3
100
AcDbArc
 50
90.0
 51
152.354477
  0
LINE
  5
233
100
AcDbEntity
  8
LAY-1
  6
CONTINUOUS
 62
     3
100
AcDbLine
 10
614.429734
 20
497.7108
 30
0.0
 11
614.429734
 21
489.8892
 31
0.0
  0
LINE
  5
234
100
AcDbEntity
  8
LAY-1
  6
CONTINUOUS
 62
     3
100
AcDbLine
 10
618.327409
 20
489.8892
 30
0.0
 11
618.327409
 21
497.7108
 31
0.0
  0
ARC
  5
235
100
AcDbEntity
  8
LAY-1
  6
CONTINUOUS
 62
     3
100
AcDbCircle
 10
628.093159
 20
497.85
 30
0.0
 40
0.3
100
AcDbArc
 50
207.645523
 51
270.0
  0
ARC
  5
236
100
AcDbEntity
  8
LAY-1
  6
CONTINUOUS
 62
     3
100
AcDbCircle
 10
625.878571
 20
496.69
 30
0.0
 40
2.2
100
AcDbArc
 50
27.645523
 51
152.354477
  0
ARC
  5
237
100
AcDbEntity
  8
LAY-1
  6
CONTINUOUS
 62
     3
100
AcDbCircle
 10
623.663983
 20
497.85
 30
0.0
 40
0.3
100
AcDbArc
 50
270.0
 51
332.354477
  0
ARC
  5
238
100
AcDbEntity
  8
LAY-1
  6
CONTINUOUS
 62
     3
100
AcDbCircle
 10
623.663983
 20
489.75
 30
0.0
 40
0.3
100
AcDbArc
 50
27.645523
 51
90.0
  0
ARC
  5
239
100
AcDbEntity
  8
LAY-1
  6
CONTINUOUS
 62
     3
100
AcDbCircle
 10
625.878571
 20
490.91
 30
0.0
 40
2.2
100
AcDbArc
 50
207.645523
 51
332.354477
  0
ARC
  5
23A
100
AcDbEntity
  8
LAY-1
  6
CONTINUOUS
 62
     3
100
AcDbCircle
 10
628.093159
 20
489.75
 30
0.0
 40
0.3
100
AcDbArc
 50
90.0
 51
152.354477
  0
LINE
  5
23B
100
AcDbEntity
  8
LAY-1
  6
CONTINUOUS
 62
     3
100
AcDbLine
 10
623.929734
 20
497.7108
 30
0.0
 11
623.929734
 21
489.8892
 31
0.0
  0
LINE
  5
23C
100
AcDbEntity
  8
LAY-1
  6
CONTINUOUS
 62
     3
100
AcDbLine
 10
627.827409
 20
489.8892
 30
0.0
 11
627.827409
 21
497.7108
 31
0.0
  0
ARC
  5
23D
100
AcDbEntity
  8
LAY-1
  6
CONTINUOUS
 62
     3
100
AcDbCircle
 10
637.593159
 20
497.85
 30
0.0
 40
0.3
100
AcDbArc
 50
207.645523
 51
270.0
  0
ARC
  5
23E
100
AcDbEntity
  8
LAY-1
  6
CONTINUOUS
 62
     3
100
AcDbCircle
 10
635.378571
 20
496.69
 30
0.0
 40
2.2
100
AcDbArc
 50
27.645523
 51
152.354477
  0
ARC
  5
23F
100
AcDbEntity
  8
LAY-1
  6
CONTINUOUS
 62
     3
100
AcDbCircle
 10
633.163983
 20
497.85
 30
0.0
 40
0.3
100
AcDbArc
 50
270.0
 51
332.354477
  0
ARC
  5
240
100
AcDbEntity
  8
LAY-1
  6
CONTINUOUS
 62
     3
100
AcDbCircle
 10
633.163983
 20
489.75
 30
0.0
 40
0.3
100
AcDbArc
 50
27.645523
 51
90.0
  0
ARC
  5
241
100
AcDbEntity
  8
LAY-1
  6
CONTINUOUS
 62
     3
100
AcDbCircle
 10
635.378571
 20
490.91
 30
0.0
 40
2.2
100
AcDbArc
 50
207.645523
 51
332.354477
  0
ARC
  5
242
100
AcDbEntity
  8
LAY-1
  6
CONTINUOUS
 62
     3
100
AcDbCircle
 10
637.593159
 20
489.75
 30
0.0
 40
0.3
100
AcDbArc
 50
90.0
 51
152.354477
  0
LINE
  5
243
100
AcDbEntity
  8
LAY-1
  6
CONTINUOUS
 62
     3
100
AcDbLine
 10
633.429734
 20
497.7108
 30
0.0
 11
633.429734
 21
489.8892
 31
0.0
  0
LINE
  5
244
100
AcDbEntity
  8
LAY-1
  6
CONTINUOUS
 62
     3
100
AcDbLine
 10
637.327409
 20
489.8892
 30
0.0
 11
637.327409
 21
497.7108
 31
0.0
  0
LINE
  5
245
100
AcDbEntity
  8
LAY-1
  6
CONTINUOUS
 62
     3
100
AcDbLine
 10
590.093159
 20
497.55
 30
0.0
 11
595.163983
 21
497.55
 31
0.0
  0
LINE
  5
246
100
AcDbEntity
  8
LAY-1
  6
CONTINUOUS
 62
     3
100
AcDbLine
 10
595.163983
 20
490.05
 30
0.0
 11
590.093159
 21
490.05
 31
0.0
  0
LINE
  5
247
100
AcDbEntity
  8
LAY-1
  6
CONTINUOUS
 62
     3
100
AcDbLine
 10
604.663983
 20
490.05
 30
0.0
 11
599.593159
 21
490.05
 31
0.0
  0
LINE
  5
248
100
AcDbEntity
  8
LAY-1
  6
CONTINUOUS
 62
     3
100
AcDbLine
 10
599.593159
 20
497.55
 30
0.0
 11
604.663983
 21
497.55
 31
0.0
  0
LINE
  5
249
100
AcDbEntity
  8
LAY-1
  6
CONTINUOUS
 62
     3
100
AcDbLine
 10
609.093159
 20
497.55
 30
0.0
 11
614.163983
 21
497.55
 31
0.0
  0
LINE
  5
24A
100
AcDbEntity
  8
LAY-1
  6
CONTINUOUS
 62
     3
100
AcDbLine
 10
614.163983
 20
490.05
 30
0.0
 11
609.093159
 21
490.05
 31
0.0
  0
LINE
  5
24B
100
AcDbEntity
  8
LAY-1
  6
CONTINUOUS
 62
     3
100
AcDbLine
 10
618.593159
 20
497.55
 30
0.0
 11
623.663983
 21
497.55
 31
0.0
  0
LINE
  5
24C
100
AcDbEntity
  8
LAY-1
  6
CONTINUOUS
 62
     3
100
AcDbLine
 10
623.663983
 20
490.05
 30
0.0
 11
618.593159
 21
490.05
 31
0.0
  0
LINE
  5
24D
100
AcDbEntity
  8
LAY-1
  6
CONTINUOUS
 62
     3
100
AcDbLine
 10
642.663983
 20
490.05
 30
0.0
 11
637.593159
 21
490.05
 31
0.0
  0
LINE
  5
24E
100
AcDbEntity
  8
LAY-1
  6
CONTINUOUS
 62
     3
100
AcDbLine
 10
633.163983
 20
490.05
 30
0.0
 11
628.093159
 21
490.05
 31
0.0
  0
LINE
  5
24F
100
AcDbEntity
  8
LAY-1
  6
CONTINUOUS
 62
     3
100
AcDbLine
 10
628.093159
 20
497.55
 30
0.0
 11
633.163983
 21
497.55
 31
0.0
  0
LINE
  5
250
100
AcDbEntity
  8
LAY-1
  6
CONTINUOUS
 62
     3
100
AcDbLine
 10
637.593159
 20
497.55
 30
0.0
 11
642.663983
 21
497.55
 31
0.0
  0
LINE
  5
251
100
AcDbEntity
  8
LAY-1
  6
CONTINUOUS
 62
     3
100
AcDbLine
 10
709.928571
 20
502.55
 30
0.0
 11
711.728571
 21
502.55
 31
0.0
  0
LINE
  5
252
100
AcDbEntity
  8
LAY-1
  6
CONTINUOUS
 62
     3
100
AcDbLine
 10
709.928571
 20
485.05
 30
0.0
 11
711.728571
 21
485.05
 31
0.0
  0
LINE
  5
253
100
AcDbEntity
  8
LAY-1
  6
CONTINUOUS
 62
     3
100
AcDbLine
 10
708.928571
 20
499.55
 30
0.0
 11
709.928571
 21
499.55
 31
0.0
  0
LINE
  5
254
100
AcDbEntity
  8
LAY-1
  6
CONTINUOUS
 62
     3
100
AcDbLine
 10
708.928571
 20
488.05
 30
0.0
 11
709.928571
 21
488.05
 31
0.0
  0
LINE
  5
255
100
AcDbEntity
  8
LAY-1
  6
CONTINUOUS
 62
     3
100
AcDbLine
 10
708.928571
 20
499.55
 30
0.0
 11
708.928571
 21
488.05
 31
0.0
  0
LINE
  5
256
100
AcDbEntity
  8
LAY-1
  6
CONTINUOUS
 62
     3
100
AcDbLine
 10
709.928571
 20
502.55
 30
0.0
 11
709.928571
 21
485.05
 31
0.0
  0
LINE
  5
257
100
AcDbEntity
  8
LAY-1
  6
CONTINUOUS
 62
     3
100
AcDbLine
 10
711.728571
 20
502.55
 30
0.0
 11
711.728571
 21
485.05
 31
0.0
  0
ARC
  5
258
100
AcDbEntity
  8
LAY-1
  6
CONTINUOUS
 62
     3
100
AcDbCircle
 10
721.143159
 20
498.85
 30
0.0
 40
0.3
100
AcDbArc
 50
207.645523
 51
270.0
  0
LINE
  5
259
100
AcDbEntity
  8
LAY-1
  6
CONTINUOUS
 62
     3
100
AcDbLine
 10
711.728571
 20
498.55
 30
0.0
 11
716.979734
 21
498.55
 31
0.0
  0
ARC
  5
25A
100
AcDbEntity
  8
LAY-1
  6
CONTINUOUS
 62
     3
100
AcDbCircle
 10
718.928571
 20
497.69
 30
0.0
 40
2.2
100
AcDbArc
 50
27.645523
 51
152.354477
  0
ARC
  5
25B
100
AcDbEntity
  8
LAY-1
  6
CONTINUOUS
 62
     3
100
AcDbCircle
 10
716.713983
 20
498.85
 30
0.0
 40
0.3
100
AcDbArc
 50
270.0
 51
332.354477
  0
ARC
  5
25C
100
AcDbEntity
  8
LAY-1
  6
CONTINUOUS
 62
     3
100
AcDbCircle
 10
716.713983
 20
488.75
 30
0.0
 40
0.3
100
AcDbArc
 50
27.645523
 51
90.0
  0
ARC
  5
25D
100
AcDbEntity
  8
LAY-1
  6
CONTINUOUS
 62
     3
100
AcDbCircle
 10
718.928571
 20
489.91
 30
0.0
 40
2.2
100
AcDbArc
 50
207.645523
 51
332.354477
  0
ARC
  5
25E
100
AcDbEntity
  8
LAY-1
  6
CONTINUOUS
 62
     3
100
AcDbCircle
 10
721.143159
 20
488.75
 30
0.0
 40
0.3
100
AcDbArc
 50
90.0
 51
152.354477
  0
LINE
  5
25F
100
AcDbEntity
  8
LAY-1
  6
CONTINUOUS
 62
     3
100
AcDbLine
 10
711.728571
 20
489.05
 30
0.0
 11
716.979734
 21
489.05
 31
0.0
  0
LINE
  5
260
100
AcDbEntity
  8
LAY-1
  6
CONTINUOUS
 62
     3
100
AcDbLine
 10
716.979734
 20
498.7108
 30
0.0
 11
716.979734
 21
488.8892
 31
0.0
  0
LINE
  5
261
100
AcDbEntity
  8
LAY-1
  6
CONTINUOUS
 62
     3
100
AcDbLine
 10
720.877409
 20
488.8892
 30
0.0
 11
720.877409
 21
498.7108
 31
0.0
  0
LINE
  5
262
100
AcDbEntity
  8
LAY-1
  6
CONTINUOUS
 62
     3
100
AcDbLine
 10
782.928571
 20
502.55
 30
0.0
 11
781.128571
 21
502.55
 31
0.0
  0
LINE
  5
263
100
AcDbEntity
  8
LAY-1
  6
CONTINUOUS
 62
     3
100
AcDbLine
 10
782.928571
 20
485.05
 30
0.0
 11
781.128571
 21
485.05
 31
0.0
  0
LINE
  5
264
100
AcDbEntity
  8
LAY-1
  6
CONTINUOUS
 62
     3
100
AcDbLine
 10
783.928571
 20
499.55
 30
0.0
 11
782.928571
 21
499.55
 31
0.0
  0
LINE
  5
265
100
AcDbEntity
  8
LAY-1
  6
CONTINUOUS
 62
     3
100
AcDbLine
 10
783.928571
 20
488.05
 30
0.0
 11
782.928571
 21
488.05
 31
0.0
  0
LINE
  5
266
100
AcDbEntity
  8
LAY-1
  6
CONTINUOUS
 62
     3
100
AcDbLine
 10
783.928571
 20
499.55
 30
0.0
 11
783.928571
 21
488.05
 31
0.0
  0
LINE
  5
267
100
AcDbEntity
  8
LAY-1
  6
CONTINUOUS
 62
     3
100
AcDbLine
 10
782.928571
 20
502.55
 30
0.0
 11
782.928571
 21
485.05
 31
0.0
  0
LINE
  5
268
100
AcDbEntity
  8
LAY-1
  6
CONTINUOUS
 62
     3
100
AcDbLine
 10
781.128571
 20
502.55
 30
0.0
 11
781.128571
 21
485.05
 31
0.0
  0
ARC
  5
269
100
AcDbEntity
  8
LAY-1
  6
CONTINUOUS
 62
     3
100
AcDbCircle
 10
771.713983
 20
498.85
 30
0.0
 40
0.3
100
AcDbArc
 50
270.0
 51
332.354477
  0
ARC
  5
26A
100
AcDbEntity
  8
LAY-1
  6
CONTINUOUS
 62
     3
100
AcDbCircle
 10
773.928571
 20
497.69
 30
0.0
 40
2.2
100
AcDbArc
 50
27.645523
 51
152.354477
  0
ARC
  5
26B
100
AcDbEntity
  8
LAY-1
  6
CONTINUOUS
 62
     3
100
AcDbCircle
 10
776.143159
 20
498.85
 30
0.0
 40
0.3
100
AcDbArc
 50
207.645523
 51
270.0
  0
LINE
  5
26C
100
AcDbEntity
  8
LAY-1
  6
CONTINUOUS
 62
     3
100
AcDbLine
 10
781.128571
 20
498.55
 30
0.0
 11
775.877409
 21
498.55
 31
0.0
  0
ARC
  5
26D
100
AcDbEntity
  8
LAY-1
  6
CONTINUOUS
 62
     3
100
AcDbCircle
 10
776.143159
 20
488.75
 30
0.0
 40
0.3
100
AcDbArc
 50
90.0
 51
152.354477
  0
ARC
  5
26E
100
AcDbEntity
  8
LAY-1
  6
CONTINUOUS
 62
     3
100
AcDbCircle
 10
773.928571
 20
489.91
 30
0.0
 40
2.2
100
AcDbArc
 50
207.645523
 51
332.354477
  0
ARC
  5
26F
100
AcDbEntity
  8
LAY-1
  6
CONTINUOUS
 62
     3
100
AcDbCircle
 10
771.713983
 20
488.75
 30
0.0
 40
0.3
100
AcDbArc
 50
27.645523
 51
90.0
  0
LINE
  5
270
100
AcDbEntity
  8
LAY-1
  6
CONTINUOUS
 62
     3
100
AcDbLine
 10
781.128571
 20
489.05
 30
0.0
 11
775.877409
 21
489.05
 31
0.0
  0
LINE
  5
271
100
AcDbEntity
  8
LAY-1
  6
CONTINUOUS
 62
     3
100
AcDbLine
 10
775.877409
 20
498.7108
 30
0.0
 11
775.877409
 21
488.8892
 31
0.0
  0
LINE
  5
272
100
AcDbEntity
  8
LAY-1
  6
CONTINUOUS
 62
     3
100
AcDbLine
 10
771.979734
 20
488.8892
 30
0.0
 11
771.979734
 21
498.7108
 31
0.0
  0
ARC
  5
273
100
AcDbEntity
  8
LAY-1
  6
CONTINUOUS
 62
     3
100
AcDbCircle
 10
732.143159
 20
498.85
 30
0.0
 40
0.3
100
AcDbArc
 50
207.645523
 51
270.0
  0
ARC
  5
274
100
AcDbEntity
  8
LAY-1
  6
CONTINUOUS
 62
     3
100
AcDbCircle
 10
729.928571
 20
497.69
 30
0.0
 40
2.2
100
AcDbArc
 50
27.645523
 51
152.354477
  0
ARC
  5
275
100
AcDbEntity
  8
LAY-1
  6
CONTINUOUS
 62
     3
100
AcDbCircle
 10
727.713983
 20
498.85
 30
0.0
 40
0.3
100
AcDbArc
 50
270.0
 51
332.354477
  0
ARC
  5
276
100
AcDbEntity
  8
LAY-1
  6
CONTINUOUS
 62
     3
100
AcDbCircle
 10
727.713983
 20
488.75
 30
0.0
 40
0.3
100
AcDbArc
 50
27.645523
 51
90.0
  0
ARC
  5
277
100
AcDbEntity
  8
LAY-1
  6
CONTINUOUS
 62
     3
100
AcDbCircle
 10
729.928571
 20
489.91
 30
0.0
 40
2.2
100
AcDbArc
 50
207.645523
 51
332.354477
  0
ARC
  5
278
100
AcDbEntity
  8
LAY-1
  6
CONTINUOUS
 62
     3
100
AcDbCircle
 10
732.143159
 20
488.75
 30
0.0
 40
0.3
100
AcDbArc
 50
90.0
 51
152.354477
  0
LINE
  5
279
100
AcDbEntity
  8
LAY-1
  6
CONTINUOUS
 62
     3
100
AcDbLine
 10
727.979734
 20
498.7108
 30
0.0
 11
727.979734
 21
488.8892
 31
0.0
  0
LINE
  5
27A
100
AcDbEntity
  8
LAY-1
  6
CONTINUOUS
 62
     3
100
AcDbLine
 10
731.877409
 20
488.8892
 30
0.0
 11
731.877409
 21
498.7108
 31
0.0
  0
ARC
  5
27B
100
AcDbEntity
  8
LAY-1
  6
CONTINUOUS
 62
     3
100
AcDbCircle
 10
743.143159
 20
498.85
 30
0.0
 40
0.3
100
AcDbArc
 50
207.645523
 51
270.0
  0
ARC
  5
27C
100
AcDbEntity
  8
LAY-1
  6
CONTINUOUS
 62
     3
100
AcDbCircle
 10
740.928571
 20
497.69
 30
0.0
 40
2.2
100
AcDbArc
 50
27.645523
 51
152.354477
  0
ARC
  5
27D
100
AcDbEntity
  8
LAY-1
  6
CONTINUOUS
 62
     3
100
AcDbCircle
 10
738.713983
 20
498.85
 30
0.0
 40
0.3
100
AcDbArc
 50
270.0
 51
332.354477
  0
ARC
  5
27E
100
AcDbEntity
  8
LAY-1
  6
CONTINUOUS
 62
     3
100
AcDbCircle
 10
738.713983
 20
488.75
 30
0.0
 40
0.3
100
AcDbArc
 50
27.645523
 51
90.0
  0
ARC
  5
27F
100
AcDbEntity
  8
LAY-1
  6
CONTINUOUS
 62
     3
100
AcDbCircle
 10
740.928571
 20
489.91
 30
0.0
 40
2.2
100
AcDbArc
 50
207.645523
 51
332.354477
  0
ARC
  5
280
100
AcDbEntity
  8
LAY-1
  6
CONTINUOUS
 62
     3
100
AcDbCircle
 10
743.143159
 20
488.75
 30
0.0
 40
0.3
100
AcDbArc
 50
90.0
 51
152.354477
  0
LINE
  5
281
100
AcDbEntity
  8
LAY-1
  6
CONTINUOUS
 62
     3
100
AcDbLine
 10
738.979734
 20
498.7108
 30
0.0
 11
738.979734
 21
488.8892
 31
0.0
  0
LINE
  5
282
100
AcDbEntity
  8
LAY-1
  6
CONTINUOUS
 62
     3
100
AcDbLine
 10
742.877409
 20
488.8892
 30
0.0
 11
742.877409
 21
498.7108
 31
0.0
  0
ARC
  5
283
100
AcDbEntity
  8
LAY-1
  6
CONTINUOUS
 62
     3
100
AcDbCircle
 10
754.143159
 20
498.85
 30
0.0
 40
0.3
100
AcDbArc
 50
207.645523
 51
270.0
  0
ARC
  5
284
100
AcDbEntity
  8
LAY-1
  6
CONTINUOUS
 62
     3
100
AcDbCircle
 10
751.928571
 20
497.69
 30
0.0
 40
2.2
100
AcDbArc
 50
27.645523
 51
152.354477
  0
ARC
  5
285
100
AcDbEntity
  8
LAY-1
  6
CONTINUOUS
 62
     3
100
AcDbCircle
 10
749.713983
 20
498.85
 30
0.0
 40
0.3
100
AcDbArc
 50
270.0
 51
332.354477
  0
ARC
  5
286
100
AcDbEntity
  8
LAY-1
  6
CONTINUOUS
 62
     3
100
AcDbCircle
 10
749.713983
 20
488.75
 30
0.0
 40
0.3
100
AcDbArc
 50
27.645523
 51
90.0
  0
ARC
  5
287
100
AcDbEntity
  8
LAY-1
  6
CONTINUOUS
 62
     3
100
AcDbCircle
 10
751.928571
 20
489.91
 30
0.0
 40
2.2
100
AcDbArc
 50
207.645523
 51
332.354477
  0
ARC
  5
288
100
AcDbEntity
  8
LAY-1
  6
CONTINUOUS
 62
     3
100
AcDbCircle
 10
754.143159
 20
488.75
 30
0.0
 40
0.3
100
AcDbArc
 50
90.0
 51
152.354477
  0
LINE
  5
289
100
AcDbEntity
  8
LAY-1
  6
CONTINUOUS
 62
     3
100
AcDbLine
 10
749.979734
 20
498.7108
 30
0.0
 11
749.979734
 21
488.8892
 31
0.0
  0
LINE
  5
28A
100
AcDbEntity
  8
LAY-1
  6
CONTINUOUS
 62
     3
100
AcDbLine
 10
753.877409
 20
488.8892
 30
0.0
 11
753.877409
 21
498.7108
 31
0.0
  0
LINE
  5
28B
100
AcDbEntity
  8
LAY-1
  6
EXLTYPE3
 62
     1
100
AcDbLine
 10
703.618571
 20
493.8
 30
0.0
 11
788.178269
 21
493.8
 31
0.0
  0
ARC
  5
28C
100
AcDbEntity
  8
LAY-1
  6
CONTINUOUS
 62
     3
100
AcDbCircle
 10
765.143159
 20
498.85
 30
0.0
 40
0.3
100
AcDbArc
 50
207.645523
 51
270.0
  0
ARC
  5
28D
100
AcDbEntity
  8
LAY-1
  6
CONTINUOUS
 62
     3
100
AcDbCircle
 10
762.928571
 20
497.69
 30
0.0
 40
2.2
100
AcDbArc
 50
27.645523
 51
152.354477
  0
ARC
  5
28E
100
AcDbEntity
  8
LAY-1
  6
CONTINUOUS
 62
     3
100
AcDbCircle
 10
760.713983
 20
498.85
 30
0.0
 40
0.3
100
AcDbArc
 50
270.0
 51
332.354477
  0
ARC
  5
28F
100
AcDbEntity
  8
LAY-1
  6
CONTINUOUS
 62
     3
100
AcDbCircle
 10
760.713983
 20
488.75
 30
0.0
 40
0.3
100
AcDbArc
 50
27.645523
 51
90.0
  0
ARC
  5
290
100
AcDbEntity
  8
LAY-1
  6
CONTINUOUS
 62
     3
100
AcDbCircle
 10
762.928571
 20
489.91
 30
0.0
 40
2.2
100
AcDbArc
 50
207.645523
 51
332.354477
  0
ARC
  5
291
100
AcDbEntity
  8
LAY-1
  6
CONTINUOUS
 62
     3
100
AcDbCircle
 10
765.143159
 20
488.75
 30
0.0
 40
0.3
100
AcDbArc
 50
90.0
 51
152.354477
  0
LINE
  5
292
100
AcDbEntity
  8
LAY-1
  6
CONTINUOUS
 62
     3
100
AcDbLine
 10
760.979734
 20
498.7108
 30
0.0
 11
760.979734
 21
488.8892
 31
0.0
  0
LINE
  5
293
100
AcDbEntity
  8
LAY-1
  6
CONTINUOUS
 62
     3
100
AcDbLine
 10
764.877409
 20
488.8892
 30
0.0
 11
764.877409
 21
498.7108
 31
0.0
  0
LINE
  5
294
100
AcDbEntity
  8
LAY-1
  6
CONTINUOUS
 62
     3
100
AcDbLine
 10
721.143159
 20
498.55
 30
0.0
 11
727.713983
 21
498.55
 31
0.0
  0
LINE
  5
295
100
AcDbEntity
  8
LAY-1
  6
CONTINUOUS
 62
     3
100
AcDbLine
 10
727.713983
 20
489.05
 30
0.0
 11
721.143159
 21
489.05
 31
0.0
  0
LINE
  5
296
100
AcDbEntity
  8
LAY-1
  6
CONTINUOUS
 62
     3
100
AcDbLine
 10
738.713983
 20
489.05
 30
0.0
 11
732.143159
 21
489.05
 31
0.0
  0
LINE
  5
297
100
AcDbEntity
  8
LAY-1
  6
CONTINUOUS
 62
     3
100
AcDbLine
 10
732.143159
 20
498.55
 30
0.0
 11
738.713983
 21
498.55
 31
0.0
  0
LINE
  5
298
100
AcDbEntity
  8
LAY-1
  6
CONTINUOUS
 62
     3
100
AcDbLine
 10
743.143159
 20
498.55
 30
0.0
 11
749.713983
 21
498.55
 31
0.0
  0
LINE
  5
299
100
AcDbEntity
  8
LAY-1
  6
CONTINUOUS
 62
     3
100
AcDbLine
 10
749.713983
 20
489.05
 30
0.0
 11
743.143159
 21
489.05
 31
0.0
  0
LINE
  5
29A
100
AcDbEntity
  8
LAY-1
  6
CONTINUOUS
 62
     3
100
AcDbLine
 10
771.713983
 20
489.05
 30
0.0
 11
765.143159
 21
489.05
 31
0.0
  0
LINE
  5
29B
100
AcDbEntity
  8
LAY-1
  6
CONTINUOUS
 62
     3
100
AcDbLine
 10
760.713983
 20
489.05
 30
0.0
 11
754.143159
 21
489.05
 31
0.0
  0
LINE
  5
29C
100
AcDbEntity
  8
LAY-1
  6
CONTINUOUS
 62
     3
100
AcDbLine
 10
754.143159
 20
498.55
 30
0.0
 11
760.713983
 21
498.55
 31
0.0
  0
LINE
  5
29D
100
AcDbEntity
  8
LAY-1
  6
CONTINUOUS
 62
     3
100
AcDbLine
 10
765.143159
 20
498.55
 30
0.0
 11
771.713983
 21
498.55
 31
0.0
  0
LINE
  5
29E
100
AcDbEntity
  8
LAY-1
  6
CONTINUOUS
 62
     3
100
AcDbLine
 10
59.878571
 20
428.05
 30
0.0
 11
61.678571
 21
428.05
 31
0.0
  0
LINE
  5
29F
100
AcDbEntity
  8
LAY-1
  6
CONTINUOUS
 62
     3
100
AcDbLine
 10
59.878571
 20
409.55
 30
0.0
 11
61.678571
 21
409.55
 31
0.0
  0
LINE
  5
2A0
100
AcDbEntity
  8
LAY-1
  6
CONTINUOUS
 62
     3
100
AcDbLine
 10
58.878571
 20
425.05
 30
0.0
 11
59.878571
 21
425.05
 31
0.0
  0
LINE
  5
2A1
100
AcDbEntity
  8
LAY-1
  6
CONTINUOUS
 62
     3
100
AcDbLine
 10
58.878571
 20
412.55
 30
0.0
 11
59.878571
 21
412.55
 31
0.0
  0
LINE
  5
2A2
100
AcDbEntity
  8
LAY-1
  6
CONTINUOUS
 62
     3
100
AcDbLine
 10
58.878571
 20
425.05
 30
0.0
 11
58.878571
 21
412.55
 31
0.0
  0
LINE
  5
2A3
100
AcDbEntity
  8
LAY-1
  6
CONTINUOUS
 62
     3
100
AcDbLine
 10
59.878571
 20
428.05
 30
0.0
 11
59.878571
 21
409.55
 31
0.0
  0
LINE
  5
2A4
100
AcDbEntity
  8
LAY-1
  6
CONTINUOUS
 62
     3
100
AcDbLine
 10
61.678571
 20
428.05
 30
0.0
 11
61.678571
 21
409.55
 31
0.0
  0
ARC
  5
2A5
100
AcDbEntity
  8
LAY-1
  6
CONTINUOUS
 62
     3
100
AcDbCircle
 10
71.093159
 20
424.35
 30
0.0
 40
0.3
100
AcDbArc
 50
207.645523
 51
270.0
  0
LINE
  5
2A6
100
AcDbEntity
  8
LAY-1
  6
CONTINUOUS
 62
     3
100
AcDbLine
 10
61.678571
 20
424.05
 30
0.0
 11
66.929734
 21
424.05
 31
0.0
  0
ARC
  5
2A7
100
AcDbEntity
  8
LAY-1
  6
CONTINUOUS
 62
     3
100
AcDbCircle
 10
68.878571
 20
423.19
 30
0.0
 40
2.2
100
AcDbArc
 50
27.645523
 51
152.354477
  0
ARC
  5
2A8
100
AcDbEntity
  8
LAY-1
  6
CONTINUOUS
 62
     3
100
AcDbCircle
 10
66.663983
 20
424.35
 30
0.0
 40
0.3
100
AcDbArc
 50
270.0
 51
332.354477
  0
ARC
  5
2A9
100
AcDbEntity
  8
LAY-1
  6
CONTINUOUS
 62
     3
100
AcDbCircle
 10
66.663983
 20
413.25
 30
0.0
 40
0.3
100
AcDbArc
 50
27.645523
 51
90.0
  0
ARC
  5
2AA
100
AcDbEntity
  8
LAY-1
  6
CONTINUOUS
 62
     3
100
AcDbCircle
 10
68.878571
 20
414.41
 30
0.0
 40
2.2
100
AcDbArc
 50
207.645523
 51
332.354477
  0
ARC
  5
2AB
100
AcDbEntity
  8
LAY-1
  6
CONTINUOUS
 62
     3
100
AcDbCircle
 10
71.093159
 20
413.25
 30
0.0
 40
0.3
100
AcDbArc
 50
90.0
 51
152.354477
  0
LINE
  5
2AC
100
AcDbEntity
  8
LAY-1
  6
CONTINUOUS
 62
     3
100
AcDbLine
 10
61.678571
 20
413.55
 30
0.0
 11
66.929734
 21
413.55
 31
0.0
  0
LINE
  5
2AD
100
AcDbEntity
  8
LAY-1
  6
CONTINUOUS
 62
     3
100
AcDbLine
 10
66.929734
 20
424.2108
 30
0.0
 11
66.929734
 21
413.3892
 31
0.0
  0
LINE
  5
2AE
100
AcDbEntity
  8
LAY-1
  6
CONTINUOUS
 62
     3
100
AcDbLine
 10
70.827409
 20
413.3892
 30
0.0
 11
70.827409
 21
424.2108
 31
0.0
  0
LINE
  5
2AF
100
AcDbEntity
  8
LAY-1
  6
CONTINUOUS
 62
     3
100
AcDbLine
 10
132.878571
 20
428.05
 30
0.0
 11
131.078571
 21
428.05
 31
0.0
  0
LINE
  5
2B0
100
AcDbEntity
  8
LAY-1
  6
CONTINUOUS
 62
     3
100
AcDbLine
 10
132.878571
 20
409.55
 30
0.0
 11
131.078571
 21
409.55
 31
0.0
  0
LINE
  5
2B1
100
AcDbEntity
  8
LAY-1
  6
CONTINUOUS
 62
     3
100
AcDbLine
 10
133.878571
 20
425.05
 30
0.0
 11
132.878571
 21
425.05
 31
0.0
  0
LINE
  5
2B2
100
AcDbEntity
  8
LAY-1
  6
CONTINUOUS
 62
     3
100
AcDbLine
 10
133.878571
 20
412.55
 30
0.0
 11
132.878571
 21
412.55
 31
0.0
  0
LINE
  5
2B3
100
AcDbEntity
  8
LAY-1
  6
CONTINUOUS
 62
     3
100
AcDbLine
 10
133.878571
 20
425.05
 30
0.0
 11
133.878571
 21
412.55
 31
0.0
  0
LINE
  5
2B4
100
AcDbEntity
  8
LAY-1
  6
CONTINUOUS
 62
     3
100
AcDbLine
 10
132.878571
 20
428.05
 30
0.0
 11
132.878571
 21
409.55
 31
0.0
  0
LINE
  5
2B5
100
AcDbEntity
  8
LAY-1
  6
CONTINUOUS
 62
     3
100
AcDbLine
 10
131.078571
 20
428.05
 30
0.0
 11
131.078571
 21
409.55
 31
0.0
  0
ARC
  5
2B6
100
AcDbEntity
  8
LAY-1
  6
CONTINUOUS
 62
     3
100
AcDbCircle
 10
121.663983
 20
424.35
 30
0.0
 40
0.3
100
AcDbArc
 50
270.0
 51
332.354477
  0
ARC
  5
2B7
100
AcDbEntity
  8
LAY-1
  6
CONTINUOUS
 62
     3
100
AcDbCircle
 10
123.878571
 20
423.19
 30
0.0
 40
2.2
100
AcDbArc
 50
27.645523
 51
152.354477
  0
ARC
  5
2B8
100
AcDbEntity
  8
LAY-1
  6
CONTINUOUS
 62
     3
100
AcDbCircle
 10
126.093159
 20
424.35
 30
0.0
 40
0.3
100
AcDbArc
 50
207.645523
 51
270.0
  0
LINE
  5
2B9
100
AcDbEntity
  8
LAY-1
  6
CONTINUOUS
 62
     3
100
AcDbLine
 10
131.078571
 20
424.05
 30
0.0
 11
125.827409
 21
424.05
 31
0.0
  0
ARC
  5
2BA
100
AcDbEntity
  8
LAY-1
  6
CONTINUOUS
 62
     3
100
AcDbCircle
 10
126.093159
 20
413.25
 30
0.0
 40
0.3
100
AcDbArc
 50
90.0
 51
152.354477
  0
ARC
  5
2BB
100
AcDbEntity
  8
LAY-1
  6
CONTINUOUS
 62
     3
100
AcDbCircle
 10
123.878571
 20
414.41
 30
0.0
 40
2.2
100
AcDbArc
 50
207.645523
 51
332.354477
  0
ARC
  5
2BC
100
AcDbEntity
  8
LAY-1
  6
CONTINUOUS
 62
     3
100
AcDbCircle
 10
121.663983
 20
413.25
 30
0.0
 40
0.3
100
AcDbArc
 50
27.645523
 51
90.0
  0
LINE
  5
2BD
100
AcDbEntity
  8
LAY-1
  6
CONTINUOUS
 62
     3
100
AcDbLine
 10
131.078571
 20
413.55
 30
0.0
 11
125.827409
 21
413.55
 31
0.0
  0
LINE
  5
2BE
100
AcDbEntity
  8
LAY-1
  6
CONTINUOUS
 62
     3
100
AcDbLine
 10
125.827409
 20
424.2108
 30
0.0
 11
125.827409
 21
413.3892
 31
0.0
  0
LINE
  5
2BF
100
AcDbEntity
  8
LAY-1
  6
CONTINUOUS
 62
     3
100
AcDbLine
 10
121.929734
 20
413.3892
 30
0.0
 11
121.929734
 21
424.2108
 31
0.0
  0
LINE
  5
2C0
100
AcDbEntity
  8
LAY-1
  6
EXLTYPE3
 62
     1
100
AcDbLine
 10
52.318571
 20
418.8
 30
0.0
 11
138.105412
 21
418.8
 31
0.0
  0
LINE
  5
2C1
100
AcDbEntity
  8
LAY-1
  6
CONTINUOUS
 62
     3
100
AcDbLine
 10
319.878571
 20
431.3
 30
0.0
 11
321.678571
 21
431.3
 31
0.0
  0
LINE
  5
2C2
100
AcDbEntity
  8
LAY-1
  6
CONTINUOUS
 62
     3
100
AcDbLine
 10
319.878571
 20
406.3
 30
0.0
 11
321.678571
 21
406.3
 31
0.0
  0
LINE
  5
2C3
100
AcDbEntity
  8
LAY-1
  6
CONTINUOUS
 62
     3
100
AcDbLine
 10
318.878571
 20
427.8
 30
0.0
 11
319.878571
 21
427.8
 31
0.0
  0
LINE
  5
2C4
100
AcDbEntity
  8
LAY-1
  6
CONTINUOUS
 62
     3
100
AcDbLine
 10
318.878571
 20
409.8
 30
0.0
 11
319.878571
 21
409.8
 31
0.0
  0
LINE
  5
2C5
100
AcDbEntity
  8
LAY-1
  6
CONTINUOUS
 62
     3
100
AcDbLine
 10
318.878571
 20
427.8
 30
0.0
 11
318.878571
 21
409.8
 31
0.0
  0
LINE
  5
2C6
100
AcDbEntity
  8
LAY-1
  6
CONTINUOUS
 62
     3
100
AcDbLine
 10
319.878571
 20
431.3
 30
0.0
 11
319.878571
 21
406.3
 31
0.0
  0
LINE
  5
2C7
100
AcDbEntity
  8
LAY-1
  6
CONTINUOUS
 62
     3
100
AcDbLine
 10
321.678571
 20
431.3
 30
0.0
 11
321.678571
 21
406.3
 31
0.0
  0
LINE
  5
2C8
100
AcDbEntity
  8
LAY-1
  6
CONTINUOUS
 62
     3
100
AcDbLine
 10
330.827409
 20
410.6392
 30
0.0
 11
330.827409
 21
426.9608
 31
0.0
  0
LINE
  5
2C9
100
AcDbEntity
  8
LAY-1
  6
CONTINUOUS
 62
     3
100
AcDbLine
 10
326.929734
 20
426.9608
 30
0.0
 11
326.929734
 21
410.6392
 31
0.0
  0
LINE
  5
2CA
100
AcDbEntity
  8
LAY-1
  6
CONTINUOUS
 62
     3
100
AcDbLine
 10
321.678571
 20
410.8
 30
0.0
 11
326.663983
 21
410.8
 31
0.0
  0
ARC
  5
2CB
100
AcDbEntity
  8
LAY-1
  6
CONTINUOUS
 62
     3
100
AcDbCircle
 10
331.093159
 20
410.5
 30
0.0
 40
0.3
100
AcDbArc
 50
90.0
 51
152.354477
  0
ARC
  5
2CC
100
AcDbEntity
  8
LAY-1
  6
CONTINUOUS
 62
     3
100
AcDbCircle
 10
328.878571
 20
411.66
 30
0.0
 40
2.2
100
AcDbArc
 50
207.645523
 51
332.354477
  0
ARC
  5
2CD
100
AcDbEntity
  8
LAY-1
  6
CONTINUOUS
 62
     3
100
AcDbCircle
 10
326.663983
 20
410.5
 30
0.0
 40
0.3
100
AcDbArc
 50
27.645523
 51
90.0
  0
ARC
  5
2CE
100
AcDbEntity
  8
LAY-1
  6
CONTINUOUS
 62
     3
100
AcDbCircle
 10
326.663983
 20
427.1
 30
0.0
 40
0.3
100
AcDbArc
 50
270.0
 51
332.354477
  0
ARC
  5
2CF
100
AcDbEntity
  8
LAY-1
  6
CONTINUOUS
 62
     3
100
AcDbCircle
 10
328.878571
 20
425.94
 30
0.0
 40
2.2
100
AcDbArc
 50
27.645523
 51
152.354477
  0
LINE
  5
2D0
100
AcDbEntity
  8
LAY-1
  6
CONTINUOUS
 62
     3
100
AcDbLine
 10
321.678571
 20
426.8
 30
0.0
 11
326.663983
 21
426.8
 31
0.0
  0
ARC
  5
2D1
100
AcDbEntity
  8
LAY-1
  6
CONTINUOUS
 62
     3
100
AcDbCircle
 10
331.093159
 20
427.1
 30
0.0
 40
0.3
100
AcDbArc
 50
207.645523
 51
270.0
  0
LINE
  5
2D2
100
AcDbEntity
  8
LAY-1
  6
CONTINUOUS
 62
     2
100
AcDbLine
 10
291.378571
 20
536.3
 30
0.0
 11
291.378571
 21
31.3
 31
0.0
  0
LINE
  5
2D3
100
AcDbEntity
  8
LAY-1
  6
CONTINUOUS
 62
     3
100
AcDbLine
 10
381.929734
 20
410.6392
 30
0.0
 11
381.929734
 21
426.9608
 31
0.0
  0
LINE
  5
2D4
100
AcDbEntity
  8
LAY-1
  6
CONTINUOUS
 62
     3
100
AcDbLine
 10
385.827409
 20
426.9608
 30
0.0
 11
385.827409
 21
410.6392
 31
0.0
  0
LINE
  5
2D5
100
AcDbEntity
  8
LAY-1
  6
CONTINUOUS
 62
     3
100
AcDbLine
 10
391.078571
 20
410.8
 30
0.0
 11
386.093159
 21
410.8
 31
0.0
  0
ARC
  5
2D6
100
AcDbEntity
  8
LAY-1
  6
CONTINUOUS
 62
     3
100
AcDbCircle
 10
381.663983
 20
410.5
 30
0.0
 40
0.3
100
AcDbArc
 50
27.645523
 51
90.0
  0
ARC
  5
2D7
100
AcDbEntity
  8
LAY-1
  6
CONTINUOUS
 62
     3
100
AcDbCircle
 10
383.878571
 20
411.66
 30
0.0
 40
2.2
100
AcDbArc
 50
207.645523
 51
332.354477
  0
ARC
  5
2D8
100
AcDbEntity
  8
LAY-1
  6
CONTINUOUS
 62
     3
100
AcDbCircle
 10
386.093159
 20
410.5
 30
0.0
 40
0.3
100
AcDbArc
 50
90.0
 51
152.354477
  0
LINE
  5
2D9
100
AcDbEntity
  8
LAY-1
  6
CONTINUOUS
 62
     3
100
AcDbLine
 10
391.078571
 20
426.8
 30
0.0
 11
386.093159
 21
426.8
 31
0.0
  0
ARC
  5
2DA
100
AcDbEntity
  8
LAY-1
  6
CONTINUOUS
 62
     3
100
AcDbCircle
 10
386.093159
 20
427.1
 30
0.0
 40
0.3
100
AcDbArc
 50
207.645523
 51
270.0
  0
ARC
  5
2DB
100
AcDbEntity
  8
LAY-1
  6
CONTINUOUS
 62
     3
100
AcDbCircle
 10
383.878571
 20
425.94
 30
0.0
 40
2.2
100
AcDbArc
 50
27.645523
 51
152.354477
  0
ARC
  5
2DC
100
AcDbEntity
  8
LAY-1
  6
CONTINUOUS
 62
     3
100
AcDbCircle
 10
381.663983
 20
427.1
 30
0.0
 40
0.3
100
AcDbArc
 50
270.0
 51
332.354477
  0
LINE
  5
2DD
100
AcDbEntity
  8
LAY-1
  6
CONTINUOUS
 62
     3
100
AcDbLine
 10
391.078571
 20
431.3
 30
0.0
 11
391.078571
 21
406.3
 31
0.0
  0
LINE
  5
2DE
100
AcDbEntity
  8
LAY-1
  6
CONTINUOUS
 62
     3
100
AcDbLine
 10
392.878571
 20
431.3
 30
0.0
 11
392.878571
 21
406.3
 31
0.0
  0
LINE
  5
2DF
100
AcDbEntity
  8
LAY-1
  6
CONTINUOUS
 62
     3
100
AcDbLine
 10
393.878571
 20
427.8
 30
0.0
 11
393.878571
 21
409.8
 31
0.0
  0
LINE
  5
2E0
100
AcDbEntity
  8
LAY-1
  6
CONTINUOUS
 62
     3
100
AcDbLine
 10
393.878571
 20
409.8
 30
0.0
 11
392.878571
 21
409.8
 31
0.0
  0
LINE
  5
2E1
100
AcDbEntity
  8
LAY-1
  6
CONTINUOUS
 62
     3
100
AcDbLine
 10
393.878571
 20
427.8
 30
0.0
 11
392.878571
 21
427.8
 31
0.0
  0
LINE
  5
2E2
100
AcDbEntity
  8
LAY-1
  6
CONTINUOUS
 62
     3
100
AcDbLine
 10
392.878571
 20
406.3
 30
0.0
 11
391.078571
 21
406.3
 31
0.0
  0
LINE
  5
2E3
100
AcDbEntity
  8
LAY-1
  6
CONTINUOUS
 62
     3
100
AcDbLine
 10
392.878571
 20
431.3
 30
0.0
 11
391.078571
 21
431.3
 31
0.0
  0
LINE
  5
2E4
100
AcDbEntity
  8
LAY-1
  6
EXLTYPE3
 62
     1
100
AcDbLine
 10
315.1
 20
418.8
 30
0.0
 11
396.9
 21
418.8
 31
0.0
  0
LINE
  5
2E5
100
AcDbEntity
  8
LAY-1
  6
CONTINUOUS
 62
     3
100
AcDbLine
 10
449.878571
 20
432.8
 30
0.0
 11
451.678571
 21
432.8
 31
0.0
  0
LINE
  5
2E6
100
AcDbEntity
  8
LAY-1
  6
CONTINUOUS
 62
     3
100
AcDbLine
 10
449.878571
 20
404.8
 30
0.0
 11
451.678571
 21
404.8
 31
0.0
  0
LINE
  5
2E7
100
AcDbEntity
  8
LAY-1
  6
CONTINUOUS
 62
     3
100
AcDbLine
 10
448.878571
 20
429.3
 30
0.0
 11
449.878571
 21
429.3
 31
0.0
  0
LINE
  5
2E8
100
AcDbEntity
  8
LAY-1
  6
CONTINUOUS
 62
     3
100
AcDbLine
 10
448.878571
 20
408.3
 30
0.0
 11
449.878571
 21
408.3
 31
0.0
  0
LINE
  5
2E9
100
AcDbEntity
  8
LAY-1
  6
CONTINUOUS
 62
     3
100
AcDbLine
 10
451.678571
 20
409.3
 30
0.0
 11
451.678571
 21
404.8
 31
0.0
  0
LINE
  5
2EA
100
AcDbEntity
  8
LAY-1
  6
CONTINUOUS
 62
     3
100
AcDbLine
 10
448.878571
 20
429.3
 30
0.0
 11
448.878571
 21
408.3
 31
0.0
  0
LINE
  5
2EB
100
AcDbEntity
  8
LAY-1
  6
CONTINUOUS
 62
     3
100
AcDbLine
 10
449.878571
 20
432.8
 30
0.0
 11
449.878571
 21
404.8
 31
0.0
  0
LINE
  5
2EC
100
AcDbEntity
  8
LAY-1
  6
CONTINUOUS
 62
     3
100
AcDbLine
 10
451.678571
 20
432.8
 30
0.0
 11
451.678571
 21
409.3
 31
0.0
  0
LINE
  5
2ED
100
AcDbEntity
  8
LAY-1
  6
CONTINUOUS
 62
     2
100
AcDbLine
 10
421.378571
 20
536.3
 30
0.0
 11
421.378571
 21
241.3
 31
0.0
  0
LINE
  5
2EE
100
AcDbEntity
  8
LAY-1
  6
CONTINUOUS
 62
     3
100
AcDbLine
 10
522.878571
 20
432.8
 30
0.0
 11
521.078571
 21
432.8
 31
0.0
  0
LINE
  5
2EF
100
AcDbEntity
  8
LAY-1
  6
CONTINUOUS
 62
     3
100
AcDbLine
 10
522.878571
 20
404.8
 30
0.0
 11
521.078571
 21
404.8
 31
0.0
  0
LINE
  5
2F0
100
AcDbEntity
  8
LAY-1
  6
CONTINUOUS
 62
     3
100
AcDbLine
 10
523.878571
 20
429.3
 30
0.0
 11
522.878571
 21
429.3
 31
0.0
  0
LINE
  5
2F1
100
AcDbEntity
  8
LAY-1
  6
CONTINUOUS
 62
     3
100
AcDbLine
 10
523.878571
 20
408.3
 30
0.0
 11
522.878571
 21
408.3
 31
0.0
  0
LINE
  5
2F2
100
AcDbEntity
  8
LAY-1
  6
CONTINUOUS
 62
     3
100
AcDbLine
 10
521.078571
 20
409.3
 30
0.0
 11
521.078571
 21
404.8
 31
0.0
  0
LINE
  5
2F3
100
AcDbEntity
  8
LAY-1
  6
CONTINUOUS
 62
     3
100
AcDbLine
 10
523.878571
 20
429.3
 30
0.0
 11
523.878571
 21
408.3
 31
0.0
  0
LINE
  5
2F4
100
AcDbEntity
  8
LAY-1
  6
CONTINUOUS
 62
     3
100
AcDbLine
 10
522.878571
 20
432.8
 30
0.0
 11
522.878571
 21
404.8
 31
0.0
  0
LINE
  5
2F5
100
AcDbEntity
  8
LAY-1
  6
CONTINUOUS
 62
     3
100
AcDbLine
 10
521.078571
 20
432.8
 30
0.0
 11
521.078571
 21
409.3
 31
0.0
  0
LINE
  5
2F6
100
AcDbEntity
  8
LAY-1
  6
CONTINUOUS
 62
     3
100
AcDbLine
 10
575.378571
 20
435.3
 30
0.0
 11
577.178571
 21
435.3
 31
0.0
  0
LINE
  5
2F7
100
AcDbEntity
  8
LAY-1
  6
CONTINUOUS
 62
     3
100
AcDbLine
 10
575.378571
 20
402.3
 30
0.0
 11
577.178571
 21
402.3
 31
0.0
  0
LINE
  5
2F8
100
AcDbEntity
  8
LAY-1
  6
CONTINUOUS
 62
     3
100
AcDbLine
 10
573.878571
 20
431.65
 30
0.0
 11
575.378571
 21
431.65
 31
0.0
  0
LINE
  5
2F9
100
AcDbEntity
  8
LAY-1
  6
CONTINUOUS
 62
     3
100
AcDbLine
 10
573.878571
 20
405.95
 30
0.0
 11
575.378571
 21
405.95
 31
0.0
  0
LINE
  5
2FA
100
AcDbEntity
  8
LAY-1
  6
CONTINUOUS
 62
     3
100
AcDbLine
 10
573.878571
 20
431.65
 30
0.0
 11
573.878571
 21
405.95
 31
0.0
  0
LINE
  5
2FB
100
AcDbEntity
  8
LAY-1
  6
CONTINUOUS
 62
     3
100
AcDbLine
 10
575.378571
 20
435.3
 30
0.0
 11
575.378571
 21
402.3
 31
0.0
  0
LINE
  5
2FC
100
AcDbEntity
  8
LAY-1
  6
CONTINUOUS
 62
     3
100
AcDbLine
 10
577.178571
 20
435.3
 30
0.0
 11
577.178571
 21
402.3
 31
0.0
  0
LINE
  5
2FD
100
AcDbEntity
  8
LAY-1
  6
CONTINUOUS
 62
     3
100
AcDbLine
 10
657.378571
 20
435.3
 30
0.0
 11
655.578571
 21
435.3
 31
0.0
  0
LINE
  5
2FE
100
AcDbEntity
  8
LAY-1
  6
CONTINUOUS
 62
     3
100
AcDbLine
 10
657.378571
 20
402.3
 30
0.0
 11
655.578571
 21
402.3
 31
0.0
  0
LINE
  5
2FF
100
AcDbEntity
  8
LAY-1
  6
CONTINUOUS
 62
     3
100
AcDbLine
 10
658.878571
 20
431.65
 30
0.0
 11
657.378571
 21
431.65
 31
0.0
  0
LINE
  5
300
100
AcDbEntity
  8
LAY-1
  6
CONTINUOUS
 62
     3
100
AcDbLine
 10
658.878571
 20
405.95
 30
0.0
 11
657.378571
 21
405.95
 31
0.0
  0
LINE
  5
301
100
AcDbEntity
  8
LAY-1
  6
CONTINUOUS
 62
     3
100
AcDbLine
 10
658.878571
 20
431.65
 30
0.0
 11
658.878571
 21
405.95
 31
0.0
  0
LINE
  5
302
100
AcDbEntity
  8
LAY-1
  6
CONTINUOUS
 62
     3
100
AcDbLine
 10
657.378571
 20
435.3
 30
0.0
 11
657.378571
 21
402.3
 31
0.0
  0
LINE
  5
303
100
AcDbEntity
  8
LAY-1
  6
CONTINUOUS
 62
     3
100
AcDbLine
 10
655.578571
 20
435.3
 30
0.0
 11
655.578571
 21
402.3
 31
0.0
  0
ARC
  5
304
100
AcDbEntity
  8
LAY-1
  6
CONTINUOUS
 62
     3
100
AcDbCircle
 10
82.093159
 20
424.35
 30
0.0
 40
0.3
100
AcDbArc
 50
207.645523
 51
270.0
  0
ARC
  5
305
100
AcDbEntity
  8
LAY-1
  6
CONTINUOUS
 62
     3
100
AcDbCircle
 10
79.878571
 20
423.19
 30
0.0
 40
2.2
100
AcDbArc
 50
27.645523
 51
152.354477
  0
ARC
  5
306
100
AcDbEntity
  8
LAY-1
  6
CONTINUOUS
 62
     3
100
AcDbCircle
 10
77.663983
 20
424.35
 30
0.0
 40
0.3
100
AcDbArc
 50
270.0
 51
332.354477
  0
ARC
  5
307
100
AcDbEntity
  8
LAY-1
  6
CONTINUOUS
 62
     3
100
AcDbCircle
 10
77.663983
 20
413.25
 30
0.0
 40
0.3
100
AcDbArc
 50
27.645523
 51
90.0
  0
ARC
  5
308
100
AcDbEntity
  8
LAY-1
  6
CONTINUOUS
 62
     3
100
AcDbCircle
 10
79.878571
 20
414.41
 30
0.0
 40
2.2
100
AcDbArc
 50
207.645523
 51
332.354477
  0
ARC
  5
309
100
AcDbEntity
  8
LAY-1
  6
CONTINUOUS
 62
     3
100
AcDbCircle
 10
82.093159
 20
413.25
 30
0.0
 40
0.3
100
AcDbArc
 50
90.0
 51
152.354477
  0
LINE
  5
30A
100
AcDbEntity
  8
LAY-1
  6
CONTINUOUS
 62
     3
100
AcDbLine
 10
77.929734
 20
424.2108
 30
0.0
 11
77.929734
 21
413.3892
 31
0.0
  0
LINE
  5
30B
100
AcDbEntity
  8
LAY-1
  6
CONTINUOUS
 62
     3
100
AcDbLine
 10
81.827409
 20
413.3892
 30
0.0
 11
81.827409
 21
424.2108
 31
0.0
  0
ARC
  5
30C
100
AcDbEntity
  8
LAY-1
  6
CONTINUOUS
 62
     3
100
AcDbCircle
 10
93.093159
 20
424.35
 30
0.0
 40
0.3
100
AcDbArc
 50
207.645523
 51
270.0
  0
ARC
  5
30D
100
AcDbEntity
  8
LAY-1
  6
CONTINUOUS
 62
     3
100
AcDbCircle
 10
90.878571
 20
423.19
 30
0.0
 40
2.2
100
AcDbArc
 50
27.645523
 51
152.354477
  0
ARC
  5
30E
100
AcDbEntity
  8
LAY-1
  6
CONTINUOUS
 62
     3
100
AcDbCircle
 10
88.663983
 20
424.35
 30
0.0
 40
0.3
100
AcDbArc
 50
270.0
 51
332.354477
  0
ARC
  5
30F
100
AcDbEntity
  8
LAY-1
  6
CONTINUOUS
 62
     3
100
AcDbCircle
 10
88.663983
 20
413.25
 30
0.0
 40
0.3
100
AcDbArc
 50
27.645523
 51
90.0
  0
ARC
  5
310
100
AcDbEntity
  8
LAY-1
  6
CONTINUOUS
 62
     3
100
AcDbCircle
 10
90.878571
 20
414.41
 30
0.0
 40
2.2
100
AcDbArc
 50
207.645523
 51
332.354477
  0
ARC
  5
311
100
AcDbEntity
  8
LAY-1
  6
CONTINUOUS
 62
     3
100
AcDbCircle
 10
93.093159
 20
413.25
 30
0.0
 40
0.3
100
AcDbArc
 50
90.0
 51
152.354477
  0
LINE
  5
312
100
AcDbEntity
  8
LAY-1
  6
CONTINUOUS
 62
     3
100
AcDbLine
 10
88.929734
 20
424.2108
 30
0.0
 11
88.929734
 21
413.3892
 31
0.0
  0
LINE
  5
313
100
AcDbEntity
  8
LAY-1
  6
CONTINUOUS
 62
     3
100
AcDbLine
 10
92.827409
 20
413.3892
 30
0.0
 11
92.827409
 21
424.2108
 31
0.0
  0
ARC
  5
314
100
AcDbEntity
  8
LAY-1
  6
CONTINUOUS
 62
     3
100
AcDbCircle
 10
104.093159
 20
424.35
 30
0.0
 40
0.3
100
AcDbArc
 50
207.645523
 51
270.0
  0
ARC
  5
315
100
AcDbEntity
  8
LAY-1
  6
CONTINUOUS
 62
     3
100
AcDbCircle
 10
101.878571
 20
423.19
 30
0.0
 40
2.2
100
AcDbArc
 50
27.645523
 51
152.354477
  0
ARC
  5
316
100
AcDbEntity
  8
LAY-1
  6
CONTINUOUS
 62
     3
100
AcDbCircle
 10
99.663983
 20
424.35
 30
0.0
 40
0.3
100
AcDbArc
 50
270.0
 51
332.354477
  0
ARC
  5
317
100
AcDbEntity
  8
LAY-1
  6
CONTINUOUS
 62
     3
100
AcDbCircle
 10
99.663983
 20
413.25
 30
0.0
 40
0.3
100
AcDbArc
 50
27.645523
 51
90.0
  0
ARC
  5
318
100
AcDbEntity
  8
LAY-1
  6
CONTINUOUS
 62
     3
100
AcDbCircle
 10
101.878571
 20
414.41
 30
0.0
 40
2.2
100
AcDbArc
 50
207.645523
 51
332.354477
  0
ARC
  5
319
100
AcDbEntity
  8
LAY-1
  6
CONTINUOUS
 62
     3
100
AcDbCircle
 10
104.093159
 20
413.25
 30
0.0
 40
0.3
100
AcDbArc
 50
90.0
 51
152.354477
  0
LINE
  5
31A
100
AcDbEntity
  8
LAY-1
  6
CONTINUOUS
 62
     3
100
AcDbLine
 10
99.929734
 20
424.2108
 30
0.0
 11
99.929734
 21
413.3892
 31
0.0
  0
LINE
  5
31B
100
AcDbEntity
  8
LAY-1
  6
CONTINUOUS
 62
     3
100
AcDbLine
 10
103.827409
 20
413.3892
 30
0.0
 11
103.827409
 21
424.2108
 31
0.0
  0
LINE
  5
31C
100
AcDbEntity
  8
LAY-1
  6
CONTINUOUS
 62
     3
100
AcDbLine
 10
341.827409
 20
410.6392
 30
0.0
 11
341.827409
 21
426.9608
 31
0.0
  0
LINE
  5
31D
100
AcDbEntity
  8
LAY-1
  6
CONTINUOUS
 62
     3
100
AcDbLine
 10
337.929734
 20
426.9608
 30
0.0
 11
337.929734
 21
410.6392
 31
0.0
  0
ARC
  5
31E
100
AcDbEntity
  8
LAY-1
  6
CONTINUOUS
 62
     3
100
AcDbCircle
 10
342.093159
 20
410.5
 30
0.0
 40
0.3
100
AcDbArc
 50
90.0
 51
152.354477
  0
ARC
  5
31F
100
AcDbEntity
  8
LAY-1
  6
CONTINUOUS
 62
     3
100
AcDbCircle
 10
339.878571
 20
411.66
 30
0.0
 40
2.2
100
AcDbArc
 50
207.645523
 51
332.354477
  0
ARC
  5
320
100
AcDbEntity
  8
LAY-1
  6
CONTINUOUS
 62
     3
100
AcDbCircle
 10
337.663983
 20
410.5
 30
0.0
 40
0.3
100
AcDbArc
 50
27.645523
 51
90.0
  0
ARC
  5
321
100
AcDbEntity
  8
LAY-1
  6
CONTINUOUS
 62
     3
100
AcDbCircle
 10
337.663983
 20
427.1
 30
0.0
 40
0.3
100
AcDbArc
 50
270.0
 51
332.354477
  0
ARC
  5
322
100
AcDbEntity
  8
LAY-1
  6
CONTINUOUS
 62
     3
100
AcDbCircle
 10
339.878571
 20
425.94
 30
0.0
 40
2.2
100
AcDbArc
 50
27.645523
 51
152.354477
  0
ARC
  5
323
100
AcDbEntity
  8
LAY-1
  6
CONTINUOUS
 62
     3
100
AcDbCircle
 10
342.093159
 20
427.1
 30
0.0
 40
0.3
100
AcDbArc
 50
207.645523
 51
270.0
  0
LINE
  5
324
100
AcDbEntity
  8
LAY-1
  6
CONTINUOUS
 62
     3
100
AcDbLine
 10
341.827409
 20
410.6392
 30
0.0
 11
341.827409
 21
426.9608
 31
0.0
  0
LINE
  5
325
100
AcDbEntity
  8
LAY-1
  6
CONTINUOUS
 62
     3
100
AcDbLine
 10
337.929734
 20
426.9608
 30
0.0
 11
337.929734
 21
410.6392
 31
0.0
  0
ARC
  5
326
100
AcDbEntity
  8
LAY-1
  6
CONTINUOUS
 62
     3
100
AcDbCircle
 10
342.093159
 20
410.5
 30
0.0
 40
0.3
100
AcDbArc
 50
90.0
 51
152.354477
  0
ARC
  5
327
100
AcDbEntity
  8
LAY-1
  6
CONTINUOUS
 62
     3
100
AcDbCircle
 10
339.878571
 20
411.66
 30
0.0
 40
2.2
100
AcDbArc
 50
207.645523
 51
332.354477
  0
ARC
  5
328
100
AcDbEntity
  8
LAY-1
  6
CONTINUOUS
 62
     3
100
AcDbCircle
 10
337.663983
 20
410.5
 30
0.0
 40
0.3
100
AcDbArc
 50
27.645523
 51
90.0
  0
ARC
  5
329
100
AcDbEntity
  8
LAY-1
  6
CONTINUOUS
 62
     3
100
AcDbCircle
 10
337.663983
 20
427.1
 30
0.0
 40
0.3
100
AcDbArc
 50
270.0
 51
332.354477
  0
ARC
  5
32A
100
AcDbEntity
  8
LAY-1
  6
CONTINUOUS
 62
     3
100
AcDbCircle
 10
339.878571
 20
425.94
 30
0.0
 40
2.2
100
AcDbArc
 50
27.645523
 51
152.354477
  0
ARC
  5
32B
100
AcDbEntity
  8
LAY-1
  6
CONTINUOUS
 62
     3
100
AcDbCircle
 10
342.093159
 20
427.1
 30
0.0
 40
0.3
100
AcDbArc
 50
207.645523
 51
270.0
  0
LINE
  5
32C
100
AcDbEntity
  8
LAY-1
  6
CONTINUOUS
 62
     3
100
AcDbLine
 10
352.827409
 20
410.6392
 30
0.0
 11
352.827409
 21
426.9608
 31
0.0
  0
LINE
  5
32D
100
AcDbEntity
  8
LAY-1
  6
CONTINUOUS
 62
     3
100
AcDbLine
 10
348.929734
 20
426.9608
 30
0.0
 11
348.929734
 21
410.6392
 31
0.0
  0
ARC
  5
32E
100
AcDbEntity
  8
LAY-1
  6
CONTINUOUS
 62
     3
100
AcDbCircle
 10
353.093159
 20
410.5
 30
0.0
 40
0.3
100
AcDbArc
 50
90.0
 51
152.354477
  0
ARC
  5
32F
100
AcDbEntity
  8
LAY-1
  6
CONTINUOUS
 62
     3
100
AcDbCircle
 10
350.878571
 20
411.66
 30
0.0
 40
2.2
100
AcDbArc
 50
207.645523
 51
332.354477
  0
ARC
  5
330
100
AcDbEntity
  8
LAY-1
  6
CONTINUOUS
 62
     3
100
AcDbCircle
 10
348.663983
 20
410.5
 30
0.0
 40
0.3
100
AcDbArc
 50
27.645523
 51
90.0
  0
ARC
  5
331
100
AcDbEntity
  8
LAY-1
  6
CONTINUOUS
 62
     3
100
AcDbCircle
 10
348.663983
 20
427.1
 30
0.0
 40
0.3
100
AcDbArc
 50
270.0
 51
332.354477
  0
ARC
  5
332
100
AcDbEntity
  8
LAY-1
  6
CONTINUOUS
 62
     3
100
AcDbCircle
 10
350.878571
 20
425.94
 30
0.0
 40
2.2
100
AcDbArc
 50
27.645523
 51
152.354477
  0
ARC
  5
333
100
AcDbEntity
  8
LAY-1
  6
CONTINUOUS
 62
     3
100
AcDbCircle
 10
353.093159
 20
427.1
 30
0.0
 40
0.3
100
AcDbArc
 50
207.645523
 51
270.0
  0
LINE
  5
334
100
AcDbEntity
  8
LAY-1
  6
CONTINUOUS
 62
     3
100
AcDbLine
 10
352.827409
 20
410.6392
 30
0.0
 11
352.827409
 21
426.9608
 31
0.0
  0
LINE
  5
335
100
AcDbEntity
  8
LAY-1
  6
CONTINUOUS
 62
     3
100
AcDbLine
 10
348.929734
 20
426.9608
 30
0.0
 11
348.929734
 21
410.6392
 31
0.0
  0
ARC
  5
336
100
AcDbEntity
  8
LAY-1
  6
CONTINUOUS
 62
     3
100
AcDbCircle
 10
353.093159
 20
410.5
 30
0.0
 40
0.3
100
AcDbArc
 50
90.0
 51
152.354477
  0
ARC
  5
337
100
AcDbEntity
  8
LAY-1
  6
CONTINUOUS
 62
     3
100
AcDbCircle
 10
350.878571
 20
411.66
 30
0.0
 40
2.2
100
AcDbArc
 50
207.645523
 51
332.354477
  0
ARC
  5
338
100
AcDbEntity
  8
LAY-1
  6
CONTINUOUS
 62
     3
100
AcDbCircle
 10
348.663983
 20
410.5
 30
0.0
 40
0.3
100
AcDbArc
 50
27.645523
 51
90.0
  0
ARC
  5
339
100
AcDbEntity
  8
LAY-1
  6
CONTINUOUS
 62
     3
100
AcDbCircle
 10
348.663983
 20
427.1
 30
0.0
 40
0.3
100
AcDbArc
 50
270.0
 51
332.354477
  0
ARC
  5
33A
100
AcDbEntity
  8
LAY-1
  6
CONTINUOUS
 62
     3
100
AcDbCircle
 10
350.878571
 20
425.94
 30
0.0
 40
2.2
100
AcDbArc
 50
27.645523
 51
152.354477
  0
ARC
  5
33B
100
AcDbEntity
  8
LAY-1
  6
CONTINUOUS
 62
     3
100
AcDbCircle
 10
353.093159
 20
427.1
 30
0.0
 40
0.3
100
AcDbArc
 50
207.645523
 51
270.0
  0
LINE
  5
33C
100
AcDbEntity
  8
LAY-1
  6
CONTINUOUS
 62
     3
100
AcDbLine
 10
363.827409
 20
410.6392
 30
0.0
 11
363.827409
 21
426.9608
 31
0.0
  0
LINE
  5
33D
100
AcDbEntity
  8
LAY-1
  6
CONTINUOUS
 62
     3
100
AcDbLine
 10
359.929734
 20
426.9608
 30
0.0
 11
359.929734
 21
410.6392
 31
0.0
  0
ARC
  5
33E
100
AcDbEntity
  8
LAY-1
  6
CONTINUOUS
 62
     3
100
AcDbCircle
 10
364.093159
 20
410.5
 30
0.0
 40
0.3
100
AcDbArc
 50
90.0
 51
152.354477
  0
ARC
  5
33F
100
AcDbEntity
  8
LAY-1
  6
CONTINUOUS
 62
     3
100
AcDbCircle
 10
361.878571
 20
411.66
 30
0.0
 40
2.2
100
AcDbArc
 50
207.645523
 51
332.354477
  0
ARC
  5
340
100
AcDbEntity
  8
LAY-1
  6
CONTINUOUS
 62
     3
100
AcDbCircle
 10
359.663983
 20
410.5
 30
0.0
 40
0.3
100
AcDbArc
 50
27.645523
 51
90.0
  0
ARC
  5
341
100
AcDbEntity
  8
LAY-1
  6
CONTINUOUS
 62
     3
100
AcDbCircle
 10
359.663983
 20
427.1
 30
0.0
 40
0.3
100
AcDbArc
 50
270.0
 51
332.354477
  0
ARC
  5
342
100
AcDbEntity
  8
LAY-1
  6
CONTINUOUS
 62
     3
100
AcDbCircle
 10
361.878571
 20
425.94
 30
0.0
 40
2.2
100
AcDbArc
 50
27.645523
 51
152.354477
  0
ARC
  5
343
100
AcDbEntity
  8
LAY-1
  6
CONTINUOUS
 62
     3
100
AcDbCircle
 10
364.093159
 20
427.1
 30
0.0
 40
0.3
100
AcDbArc
 50
207.645523
 51
270.0
  0
LINE
  5
344
100
AcDbEntity
  8
LAY-1
  6
CONTINUOUS
 62
     3
100
AcDbLine
 10
363.827409
 20
410.6392
 30
0.0
 11
363.827409
 21
426.9608
 31
0.0
  0
LINE
  5
345
100
AcDbEntity
  8
LAY-1
  6
CONTINUOUS
 62
     3
100
AcDbLine
 10
359.929734
 20
426.9608
 30
0.0
 11
359.929734
 21
410.6392
 31
0.0
  0
ARC
  5
346
100
AcDbEntity
  8
LAY-1
  6
CONTINUOUS
 62
     3
100
AcDbCircle
 10
364.093159
 20
410.5
 30
0.0
 40
0.3
100
AcDbArc
 50
90.0
 51
152.354477
  0
ARC
  5
347
100
AcDbEntity
  8
LAY-1
  6
CONTINUOUS
 62
     3
100
AcDbCircle
 10
361.878571
 20
411.66
 30
0.0
 40
2.2
100
AcDbArc
 50
207.645523
 51
332.354477
  0
ARC
  5
348
100
AcDbEntity
  8
LAY-1
  6
CONTINUOUS
 62
     3
100
AcDbCircle
 10
359.663983
 20
410.5
 30
0.0
 40
0.3
100
AcDbArc
 50
27.645523
 51
90.0
  0
ARC
  5
349
100
AcDbEntity
  8
LAY-1
  6
CONTINUOUS
 62
     3
100
AcDbCircle
 10
359.663983
 20
427.1
 30
0.0
 40
0.3
100
AcDbArc
 50
270.0
 51
332.354477
  0
ARC
  5
34A
100
AcDbEntity
  8
LAY-1
  6
CONTINUOUS
 62
     3
100
AcDbCircle
 10
361.878571
 20
425.94
 30
0.0
 40
2.2
100
AcDbArc
 50
27.645523
 51
152.354477
  0
ARC
  5
34B
100
AcDbEntity
  8
LAY-1
  6
CONTINUOUS
 62
     3
100
AcDbCircle
 10
364.093159
 20
427.1
 30
0.0
 40
0.3
100
AcDbArc
 50
207.645523
 51
270.0
  0
LINE
  5
34C
100
AcDbEntity
  8
LAY-1
  6
CONTINUOUS
 62
     3
100
AcDbLine
 10
374.827409
 20
410.6392
 30
0.0
 11
374.827409
 21
426.9608
 31
0.0
  0
LINE
  5
34D
100
AcDbEntity
  8
LAY-1
  6
CONTINUOUS
 62
     3
100
AcDbLine
 10
370.929734
 20
426.9608
 30
0.0
 11
370.929734
 21
410.6392
 31
0.0
  0
ARC
  5
34E
100
AcDbEntity
  8
LAY-1
  6
CONTINUOUS
 62
     3
100
AcDbCircle
 10
375.093159
 20
410.5
 30
0.0
 40
0.3
100
AcDbArc
 50
90.0
 51
152.354477
  0
ARC
  5
34F
100
AcDbEntity
  8
LAY-1
  6
CONTINUOUS
 62
     3
100
AcDbCircle
 10
372.878571
 20
411.66
 30
0.0
 40
2.2
100
AcDbArc
 50
207.645523
 51
332.354477
  0
ARC
  5
350
100
AcDbEntity
  8
LAY-1
  6
CONTINUOUS
 62
     3
100
AcDbCircle
 10
370.663983
 20
410.5
 30
0.0
 40
0.3
100
AcDbArc
 50
27.645523
 51
90.0
  0
ARC
  5
351
100
AcDbEntity
  8
LAY-1
  6
CONTINUOUS
 62
     3
100
AcDbCircle
 10
370.663983
 20
427.1
 30
0.0
 40
0.3
100
AcDbArc
 50
270.0
 51
332.354477
  0
ARC
  5
352
100
AcDbEntity
  8
LAY-1
  6
CONTINUOUS
 62
     3
100
AcDbCircle
 10
372.878571
 20
425.94
 30
0.0
 40
2.2
100
AcDbArc
 50
27.645523
 51
152.354477
  0
ARC
  5
353
100
AcDbEntity
  8
LAY-1
  6
CONTINUOUS
 62
     3
100
AcDbCircle
 10
375.093159
 20
427.1
 30
0.0
 40
0.3
100
AcDbArc
 50
207.645523
 51
270.0
  0
LINE
  5
354
100
AcDbEntity
  8
LAY-1
  6
CONTINUOUS
 62
     3
100
AcDbLine
 10
374.827409
 20
410.6392
 30
0.0
 11
374.827409
 21
426.9608
 31
0.0
  0
LINE
  5
355
100
AcDbEntity
  8
LAY-1
  6
CONTINUOUS
 62
     3
100
AcDbLine
 10
370.929734
 20
426.9608
 30
0.0
 11
370.929734
 21
410.6392
 31
0.0
  0
ARC
  5
356
100
AcDbEntity
  8
LAY-1
  6
CONTINUOUS
 62
     3
100
AcDbCircle
 10
375.093159
 20
410.5
 30
0.0
 40
0.3
100
AcDbArc
 50
90.0
 51
152.354477
  0
ARC
  5
357
100
AcDbEntity
  8
LAY-1
  6
CONTINUOUS
 62
     3
100
AcDbCircle
 10
372.878571
 20
411.66
 30
0.0
 40
2.2
100
AcDbArc
 50
207.645523
 51
332.354477
  0
ARC
  5
358
100
AcDbEntity
  8
LAY-1
  6
CONTINUOUS
 62
     3
100
AcDbCircle
 10
370.663983
 20
410.5
 30
0.0
 40
0.3
100
AcDbArc
 50
27.645523
 51
90.0
  0
ARC
  5
359
100
AcDbEntity
  8
LAY-1
  6
CONTINUOUS
 62
     3
100
AcDbCircle
 10
370.663983
 20
427.1
 30
0.0
 40
0.3
100
AcDbArc
 50
270.0
 51
332.354477
  0
ARC
  5
35A
100
AcDbEntity
  8
LAY-1
  6
CONTINUOUS
 62
     3
100
AcDbCircle
 10
372.878571
 20
425.94
 30
0.0
 40
2.2
100
AcDbArc
 50
27.645523
 51
152.354477
  0
ARC
  5
35B
100
AcDbEntity
  8
LAY-1
  6
CONTINUOUS
 62
     3
100
AcDbCircle
 10
375.093159
 20
427.1
 30
0.0
 40
0.3
100
AcDbArc
 50
207.645523
 51
270.0
  0
ARC
  5
35C
100
AcDbEntity
  8
LAY-1
  6
CONTINUOUS
 62
     3
100
AcDbCircle
 10
458.878571
 20
427.149775
 30
0.0
 40
3.0
100
AcDbArc
 50
27.125984
 51
152.874016
  0
ARC
  5
35D
100
AcDbEntity
  8
LAY-1
  6
CONTINUOUS
 62
     3
100
AcDbCircle
 10
455.852551
 20
428.7
 30
0.0
 40
0.4
100
AcDbArc
 50
270.0
 51
332.874016
  0
ARC
  5
35E
100
AcDbEntity
  8
LAY-1
  6
CONTINUOUS
 62
     3
100
AcDbCircle
 10
461.904592
 20
428.7
 30
0.0
 40
0.4
100
AcDbArc
 50
207.125984
 51
270.0
  0
LINE
  5
35F
100
AcDbEntity
  8
LAY-1
  6
CONTINUOUS
 62
     3
100
AcDbLine
 10
455.852551
 20
428.3
 30
0.0
 11
451.678571
 21
428.3
 31
0.0
  0
ARC
  5
360
100
AcDbEntity
  8
LAY-1
  6
CONTINUOUS
 62
     3
100
AcDbCircle
 10
461.904592
 20
408.9
 30
0.0
 40
0.4
100
AcDbArc
 50
90.0
 51
152.874016
  0
LINE
  5
361
100
AcDbEntity
  8
LAY-1
  6
CONTINUOUS
 62
     3
100
AcDbLine
 10
455.852551
 20
409.3
 30
0.0
 11
451.678571
 21
409.3
 31
0.0
  0
ARC
  5
362
100
AcDbEntity
  8
LAY-1
  6
CONTINUOUS
 62
     3
100
AcDbCircle
 10
458.878571
 20
410.450225
 30
0.0
 40
3.0
100
AcDbArc
 50
207.125984
 51
332.874016
  0
ARC
  5
363
100
AcDbEntity
  8
LAY-1
  6
CONTINUOUS
 62
     3
100
AcDbCircle
 10
455.852551
 20
408.9
 30
0.0
 40
0.4
100
AcDbArc
 50
27.125984
 51
90.0
  0
LINE
  5
364
100
AcDbEntity
  8
LAY-1
  6
CONTINUOUS
 62
     3
100
AcDbLine
 10
456.208553
 20
428.517621
 30
0.0
 11
456.208553
 21
409.082379
 31
0.0
  0
LINE
  5
365
100
AcDbEntity
  8
LAY-1
  6
CONTINUOUS
 62
     3
100
AcDbLine
 10
461.54859
 20
409.082379
 30
0.0
 11
461.54859
 21
428.517621
 31
0.0
  0
ARC
  5
366
100
AcDbEntity
  8
LAY-1
  6
CONTINUOUS
 62
     3
100
AcDbCircle
 10
469.878571
 20
427.149775
 30
0.0
 40
3.0
100
AcDbArc
 50
27.125984
 51
152.874016
  0
ARC
  5
367
100
AcDbEntity
  8
LAY-1
  6
CONTINUOUS
 62
     3
100
AcDbCircle
 10
466.852551
 20
428.7
 30
0.0
 40
0.4
100
AcDbArc
 50
270.0
 51
332.874016
  0
ARC
  5
368
100
AcDbEntity
  8
LAY-1
  6
CONTINUOUS
 62
     3
100
AcDbCircle
 10
472.904592
 20
428.7
 30
0.0
 40
0.4
100
AcDbArc
 50
207.125984
 51
270.0
  0
ARC
  5
369
100
AcDbEntity
  8
LAY-1
  6
CONTINUOUS
 62
     3
100
AcDbCircle
 10
472.904592
 20
408.9
 30
0.0
 40
0.4
100
AcDbArc
 50
90.0
 51
152.874016
  0
ARC
  5
36A
100
AcDbEntity
  8
LAY-1
  6
CONTINUOUS
 62
     3
100
AcDbCircle
 10
469.878571
 20
410.450225
 30
0.0
 40
3.0
100
AcDbArc
 50
207.125984
 51
332.874016
  0
ARC
  5
36B
100
AcDbEntity
  8
LAY-1
  6
CONTINUOUS
 62
     3
100
AcDbCircle
 10
466.852551
 20
408.9
 30
0.0
 40
0.4
100
AcDbArc
 50
27.125984
 51
90.0
  0
LINE
  5
36C
100
AcDbEntity
  8
LAY-1
  6
CONTINUOUS
 62
     3
100
AcDbLine
 10
467.208553
 20
428.517621
 30
0.0
 11
467.208553
 21
409.082379
 31
0.0
  0
LINE
  5
36D
100
AcDbEntity
  8
LAY-1
  6
CONTINUOUS
 62
     3
100
AcDbLine
 10
472.54859
 20
409.082379
 30
0.0
 11
472.54859
 21
428.517621
 31
0.0
  0
ARC
  5
36E
100
AcDbEntity
  8
LAY-1
  6
CONTINUOUS
 62
     3
100
AcDbCircle
 10
513.878571
 20
427.149775
 30
0.0
 40
3.0
100
AcDbArc
 50
27.125984
 51
152.874016
  0
ARC
  5
36F
100
AcDbEntity
  8
LAY-1
  6
CONTINUOUS
 62
     3
100
AcDbCircle
 10
516.904592
 20
428.7
 30
0.0
 40
0.4
100
AcDbArc
 50
207.125984
 51
270.0
  0
ARC
  5
370
100
AcDbEntity
  8
LAY-1
  6
CONTINUOUS
 62
     3
100
AcDbCircle
 10
510.852551
 20
428.7
 30
0.0
 40
0.4
100
AcDbArc
 50
270.0
 51
332.874016
  0
LINE
  5
371
100
AcDbEntity
  8
LAY-1
  6
CONTINUOUS
 62
     3
100
AcDbLine
 10
516.904592
 20
428.3
 30
0.0
 11
521.078571
 21
428.3
 31
0.0
  0
ARC
  5
372
100
AcDbEntity
  8
LAY-1
  6
CONTINUOUS
 62
     3
100
AcDbCircle
 10
510.852551
 20
408.9
 30
0.0
 40
0.4
100
AcDbArc
 50
27.125984
 51
90.0
  0
ARC
  5
373
100
AcDbEntity
  8
LAY-1
  6
CONTINUOUS
 62
     3
100
AcDbCircle
 10
513.878571
 20
410.450225
 30
0.0
 40
3.0
100
AcDbArc
 50
207.125984
 51
332.874016
  0
ARC
  5
374
100
AcDbEntity
  8
LAY-1
  6
CONTINUOUS
 62
     3
100
AcDbCircle
 10
516.904592
 20
408.9
 30
0.0
 40
0.4
100
AcDbArc
 50
90.0
 51
152.874016
  0
LINE
  5
375
100
AcDbEntity
  8
LAY-1
  6
CONTINUOUS
 62
     3
100
AcDbLine
 10
516.904592
 20
409.3
 30
0.0
 11
521.078571
 21
409.3
 31
0.0
  0
LINE
  5
376
100
AcDbEntity
  8
LAY-1
  6
CONTINUOUS
 62
     3
100
AcDbLine
 10
516.54859
 20
428.517621
 30
0.0
 11
516.54859
 21
409.082379
 31
0.0
  0
LINE
  5
377
100
AcDbEntity
  8
LAY-1
  6
CONTINUOUS
 62
     3
100
AcDbLine
 10
511.208553
 20
409.082379
 30
0.0
 11
511.208553
 21
428.517621
 31
0.0
  0
LINE
  5
378
100
AcDbEntity
  8
LAY-1
  6
EXLTYPE3
 62
     1
100
AcDbLine
 10
443.445408
 20
418.8
 30
0.0
 11
527.7
 21
418.8
 31
0.0
  0
ARC
  5
379
100
AcDbEntity
  8
LAY-1
  6
CONTINUOUS
 62
     3
100
AcDbCircle
 10
480.878571
 20
427.149775
 30
0.0
 40
3.0
100
AcDbArc
 50
27.125984
 51
152.874016
  0
ARC
  5
37A
100
AcDbEntity
  8
LAY-1
  6
CONTINUOUS
 62
     3
100
AcDbCircle
 10
477.852551
 20
428.7
 30
0.0
 40
0.4
100
AcDbArc
 50
270.0
 51
332.874016
  0
ARC
  5
37B
100
AcDbEntity
  8
LAY-1
  6
CONTINUOUS
 62
     3
100
AcDbCircle
 10
483.904592
 20
428.7
 30
0.0
 40
0.4
100
AcDbArc
 50
207.125984
 51
270.0
  0
ARC
  5
37C
100
AcDbEntity
  8
LAY-1
  6
CONTINUOUS
 62
     3
100
AcDbCircle
 10
483.904592
 20
408.9
 30
0.0
 40
0.4
100
AcDbArc
 50
90.0
 51
152.874016
  0
ARC
  5
37D
100
AcDbEntity
  8
LAY-1
  6
CONTINUOUS
 62
     3
100
AcDbCircle
 10
480.878571
 20
410.450225
 30
0.0
 40
3.0
100
AcDbArc
 50
207.125984
 51
332.874016
  0
ARC
  5
37E
100
AcDbEntity
  8
LAY-1
  6
CONTINUOUS
 62
     3
100
AcDbCircle
 10
477.852551
 20
408.9
 30
0.0
 40
0.4
100
AcDbArc
 50
27.125984
 51
90.0
  0
LINE
  5
37F
100
AcDbEntity
  8
LAY-1
  6
CONTINUOUS
 62
     3
100
AcDbLine
 10
478.208553
 20
428.517621
 30
0.0
 11
478.208553
 21
409.082379
 31
0.0
  0
LINE
  5
380
100
AcDbEntity
  8
LAY-1
  6
CONTINUOUS
 62
     3
100
AcDbLine
 10
483.54859
 20
409.082379
 30
0.0
 11
483.54859
 21
428.517621
 31
0.0
  0
ARC
  5
381
100
AcDbEntity
  8
LAY-1
  6
CONTINUOUS
 62
     3
100
AcDbCircle
 10
491.878571
 20
427.149775
 30
0.0
 40
3.0
100
AcDbArc
 50
27.125984
 51
152.874016
  0
ARC
  5
382
100
AcDbEntity
  8
LAY-1
  6
CONTINUOUS
 62
     3
100
AcDbCircle
 10
488.852551
 20
428.7
 30
0.0
 40
0.4
100
AcDbArc
 50
270.0
 51
332.874016
  0
ARC
  5
383
100
AcDbEntity
  8
LAY-1
  6
CONTINUOUS
 62
     3
100
AcDbCircle
 10
494.904592
 20
428.7
 30
0.0
 40
0.4
100
AcDbArc
 50
207.125984
 51
270.0
  0
ARC
  5
384
100
AcDbEntity
  8
LAY-1
  6
CONTINUOUS
 62
     3
100
AcDbCircle
 10
494.904592
 20
408.9
 30
0.0
 40
0.4
100
AcDbArc
 50
90.0
 51
152.874016
  0
ARC
  5
385
100
AcDbEntity
  8
LAY-1
  6
CONTINUOUS
 62
     3
100
AcDbCircle
 10
491.878571
 20
410.450225
 30
0.0
 40
3.0
100
AcDbArc
 50
207.125984
 51
332.874016
  0
ARC
  5
386
100
AcDbEntity
  8
LAY-1
  6
CONTINUOUS
 62
     3
100
AcDbCircle
 10
488.852551
 20
408.9
 30
0.0
 40
0.4
100
AcDbArc
 50
27.125984
 51
90.0
  0
LINE
  5
387
100
AcDbEntity
  8
LAY-1
  6
CONTINUOUS
 62
     3
100
AcDbLine
 10
489.208553
 20
428.517621
 30
0.0
 11
489.208553
 21
409.082379
 31
0.0
  0
LINE
  5
388
100
AcDbEntity
  8
LAY-1
  6
CONTINUOUS
 62
     3
100
AcDbLine
 10
494.54859
 20
409.082379
 30
0.0
 11
494.54859
 21
428.517621
 31
0.0
  0
ARC
  5
389
100
AcDbEntity
  8
LAY-1
  6
CONTINUOUS
 62
     3
100
AcDbCircle
 10
502.878571
 20
427.149775
 30
0.0
 40
3.0
100
AcDbArc
 50
27.125984
 51
152.874016
  0
ARC
  5
38A
100
AcDbEntity
  8
LAY-1
  6
CONTINUOUS
 62
     3
100
AcDbCircle
 10
499.852551
 20
428.7
 30
0.0
 40
0.4
100
AcDbArc
 50
270.0
 51
332.874016
  0
ARC
  5
38B
100
AcDbEntity
  8
LAY-1
  6
CONTINUOUS
 62
     3
100
AcDbCircle
 10
505.904592
 20
428.7
 30
0.0
 40
0.4
100
AcDbArc
 50
207.125984
 51
270.0
  0
ARC
  5
38C
100
AcDbEntity
  8
LAY-1
  6
CONTINUOUS
 62
     3
100
AcDbCircle
 10
505.904592
 20
408.9
 30
0.0
 40
0.4
100
AcDbArc
 50
90.0
 51
152.874016
  0
ARC
  5
38D
100
AcDbEntity
  8
LAY-1
  6
CONTINUOUS
 62
     3
100
AcDbCircle
 10
502.878571
 20
410.450225
 30
0.0
 40
3.0
100
AcDbArc
 50
207.125984
 51
332.874016
  0
ARC
  5
38E
100
AcDbEntity
  8
LAY-1
  6
CONTINUOUS
 62
     3
100
AcDbCircle
 10
499.852551
 20
408.9
 30
0.0
 40
0.4
100
AcDbArc
 50
27.125984
 51
90.0
  0
LINE
  5
38F
100
AcDbEntity
  8
LAY-1
  6
CONTINUOUS
 62
     3
100
AcDbLine
 10
500.208553
 20
428.517621
 30
0.0
 11
500.208553
 21
409.082379
 31
0.0
  0
LINE
  5
390
100
AcDbEntity
  8
LAY-1
  6
CONTINUOUS
 62
     3
100
AcDbLine
 10
505.54859
 20
409.082379
 30
0.0
 11
505.54859
 21
428.517621
 31
0.0
  0
LINE
  5
391
100
AcDbEntity
  8
LAY-1
  6
CONTINUOUS
 62
     3
100
AcDbLine
 10
71.093159
 20
424.05
 30
0.0
 11
77.663983
 21
424.05
 31
0.0
  0
LINE
  5
392
100
AcDbEntity
  8
LAY-1
  6
CONTINUOUS
 62
     3
100
AcDbLine
 10
77.663983
 20
413.55
 30
0.0
 11
71.093159
 21
413.55
 31
0.0
  0
LINE
  5
393
100
AcDbEntity
  8
LAY-1
  6
CONTINUOUS
 62
     3
100
AcDbLine
 10
88.663983
 20
413.55
 30
0.0
 11
82.093159
 21
413.55
 31
0.0
  0
LINE
  5
394
100
AcDbEntity
  8
LAY-1
  6
CONTINUOUS
 62
     3
100
AcDbLine
 10
82.093159
 20
424.05
 30
0.0
 11
88.663983
 21
424.05
 31
0.0
  0
LINE
  5
395
100
AcDbEntity
  8
LAY-1
  6
CONTINUOUS
 62
     3
100
AcDbLine
 10
93.093159
 20
424.05
 30
0.0
 11
99.663983
 21
424.05
 31
0.0
  0
LINE
  5
396
100
AcDbEntity
  8
LAY-1
  6
CONTINUOUS
 62
     3
100
AcDbLine
 10
99.663983
 20
413.55
 30
0.0
 11
93.093159
 21
413.55
 31
0.0
  0
ARC
  5
397
100
AcDbEntity
  8
LAY-1
  6
CONTINUOUS
 62
     3
100
AcDbCircle
 10
115.093159
 20
424.35
 30
0.0
 40
0.3
100
AcDbArc
 50
207.645523
 51
270.0
  0
ARC
  5
398
100
AcDbEntity
  8
LAY-1
  6
CONTINUOUS
 62
     3
100
AcDbCircle
 10
112.878571
 20
423.19
 30
0.0
 40
2.2
100
AcDbArc
 50
27.645523
 51
152.354477
  0
ARC
  5
399
100
AcDbEntity
  8
LAY-1
  6
CONTINUOUS
 62
     3
100
AcDbCircle
 10
110.663983
 20
424.35
 30
0.0
 40
0.3
100
AcDbArc
 50
270.0
 51
332.354477
  0
ARC
  5
39A
100
AcDbEntity
  8
LAY-1
  6
CONTINUOUS
 62
     3
100
AcDbCircle
 10
110.663983
 20
413.25
 30
0.0
 40
0.3
100
AcDbArc
 50
27.645523
 51
90.0
  0
ARC
  5
39B
100
AcDbEntity
  8
LAY-1
  6
CONTINUOUS
 62
     3
100
AcDbCircle
 10
112.878571
 20
414.41
 30
0.0
 40
2.2
100
AcDbArc
 50
207.645523
 51
332.354477
  0
ARC
  5
39C
100
AcDbEntity
  8
LAY-1
  6
CONTINUOUS
 62
     3
100
AcDbCircle
 10
115.093159
 20
413.25
 30
0.0
 40
0.3
100
AcDbArc
 50
90.0
 51
152.354477
  0
LINE
  5
39D
100
AcDbEntity
  8
LAY-1
  6
CONTINUOUS
 62
     3
100
AcDbLine
 10
110.929734
 20
424.2108
 30
0.0
 11
110.929734
 21
413.3892
 31
0.0
  0
LINE
  5
39E
100
AcDbEntity
  8
LAY-1
  6
CONTINUOUS
 62
     3
100
AcDbLine
 10
114.827409
 20
413.3892
 30
0.0
 11
114.827409
 21
424.2108
 31
0.0
  0
LINE
  5
39F
100
AcDbEntity
  8
LAY-1
  6
CONTINUOUS
 62
     3
100
AcDbLine
 10
104.093159
 20
424.05
 30
0.0
 11
110.663983
 21
424.05
 31
0.0
  0
LINE
  5
3A0
100
AcDbEntity
  8
LAY-1
  6
CONTINUOUS
 62
     3
100
AcDbLine
 10
115.093159
 20
424.05
 30
0.0
 11
121.663983
 21
424.05
 31
0.0
  0
LINE
  5
3A1
100
AcDbEntity
  8
LAY-1
  6
CONTINUOUS
 62
     3
100
AcDbLine
 10
121.663983
 20
413.55
 30
0.0
 11
115.093159
 21
413.55
 31
0.0
  0
LINE
  5
3A2
100
AcDbEntity
  8
LAY-1
  6
CONTINUOUS
 62
     3
100
AcDbLine
 10
110.663983
 20
413.55
 30
0.0
 11
104.093159
 21
413.55
 31
0.0
  0
LINE
  5
3A3
100
AcDbEntity
  8
LAY-1
  6
CONTINUOUS
 62
     3
100
AcDbLine
 10
331.093159
 20
426.8
 30
0.0
 11
337.663983
 21
426.8
 31
0.0
  0
LINE
  5
3A4
100
AcDbEntity
  8
LAY-1
  6
CONTINUOUS
 62
     3
100
AcDbLine
 10
337.663983
 20
410.8
 30
0.0
 11
331.093159
 21
410.8
 31
0.0
  0
LINE
  5
3A5
100
AcDbEntity
  8
LAY-1
  6
CONTINUOUS
 62
     3
100
AcDbLine
 10
348.663983
 20
410.8
 30
0.0
 11
342.093159
 21
410.8
 31
0.0
  0
LINE
  5
3A6
100
AcDbEntity
  8
LAY-1
  6
CONTINUOUS
 62
     3
100
AcDbLine
 10
342.093159
 20
426.8
 30
0.0
 11
348.663983
 21
426.8
 31
0.0
  0
LINE
  5
3A7
100
AcDbEntity
  8
LAY-1
  6
CONTINUOUS
 62
     3
100
AcDbLine
 10
353.093159
 20
426.8
 30
0.0
 11
359.663983
 21
426.8
 31
0.0
  0
LINE
  5
3A8
100
AcDbEntity
  8
LAY-1
  6
CONTINUOUS
 62
     3
100
AcDbLine
 10
359.663983
 20
410.8
 30
0.0
 11
353.093159
 21
410.8
 31
0.0
  0
LINE
  5
3A9
100
AcDbEntity
  8
LAY-1
  6
CONTINUOUS
 62
     3
100
AcDbLine
 10
381.663983
 20
410.8
 30
0.0
 11
375.093159
 21
410.8
 31
0.0
  0
LINE
  5
3AA
100
AcDbEntity
  8
LAY-1
  6
CONTINUOUS
 62
     3
100
AcDbLine
 10
370.663983
 20
410.8
 30
0.0
 11
364.093159
 21
410.8
 31
0.0
  0
LINE
  5
3AB
100
AcDbEntity
  8
LAY-1
  6
CONTINUOUS
 62
     3
100
AcDbLine
 10
364.093159
 20
426.8
 30
0.0
 11
370.663983
 21
426.8
 31
0.0
  0
LINE
  5
3AC
100
AcDbEntity
  8
LAY-1
  6
CONTINUOUS
 62
     3
100
AcDbLine
 10
375.093159
 20
426.8
 30
0.0
 11
381.663983
 21
426.8
 31
0.0
  0
ARC
  5
3AD
100
AcDbEntity
  8
LAY-1
  6
CONTINUOUS
 62
     3
100
AcDbCircle
 10
234.093159
 20
425.6
 30
0.0
 40
0.3
100
AcDbArc
 50
207.645523
 51
270.0
  0
ARC
  5
3AE
100
AcDbEntity
  8
LAY-1
  6
CONTINUOUS
 62
     3
100
AcDbCircle
 10
231.878571
 20
424.44
 30
0.0
 40
2.2
100
AcDbArc
 50
27.645523
 51
152.354477
  0
ARC
  5
3AF
100
AcDbEntity
  8
LAY-1
  6
CONTINUOUS
 62
     3
100
AcDbCircle
 10
229.663983
 20
425.6
 30
0.0
 40
0.3
100
AcDbArc
 50
270.0
 51
332.354477
  0
ARC
  5
3B0
100
AcDbEntity
  8
LAY-1
  6
CONTINUOUS
 62
     3
100
AcDbCircle
 10
229.663983
 20
412.0
 30
0.0
 40
0.3
100
AcDbArc
 50
27.645523
 51
90.0
  0
ARC
  5
3B1
100
AcDbEntity
  8
LAY-1
  6
CONTINUOUS
 62
     3
100
AcDbCircle
 10
231.878571
 20
413.16
 30
0.0
 40
2.2
100
AcDbArc
 50
207.645523
 51
332.354477
  0
ARC
  5
3B2
100
AcDbEntity
  8
LAY-1
  6
CONTINUOUS
 62
     3
100
AcDbCircle
 10
234.093159
 20
412.0
 30
0.0
 40
0.3
100
AcDbArc
 50
90.0
 51
152.354477
  0
LINE
  5
3B3
100
AcDbEntity
  8
LAY-1
  6
CONTINUOUS
 62
     3
100
AcDbLine
 10
229.929734
 20
425.4608
 30
0.0
 11
229.929734
 21
412.1392
 31
0.0
  0
LINE
  5
3B4
100
AcDbEntity
  8
LAY-1
  6
CONTINUOUS
 62
     3
100
AcDbLine
 10
233.827409
 20
412.1392
 30
0.0
 11
233.827409
 21
425.4608
 31
0.0
  0
ARC
  5
3B5
100
AcDbEntity
  8
LAY-1
  6
CONTINUOUS
 62
     3
100
AcDbCircle
 10
245.093159
 20
425.6
 30
0.0
 40
0.3
100
AcDbArc
 50
207.645523
 51
270.0
  0
ARC
  5
3B6
100
AcDbEntity
  8
LAY-1
  6
CONTINUOUS
 62
     3
100
AcDbCircle
 10
242.878571
 20
424.44
 30
0.0
 40
2.2
100
AcDbArc
 50
27.645523
 51
152.354477
  0
ARC
  5
3B7
100
AcDbEntity
  8
LAY-1
  6
CONTINUOUS
 62
     3
100
AcDbCircle
 10
240.663983
 20
425.6
 30
0.0
 40
0.3
100
AcDbArc
 50
270.0
 51
332.354477
  0
ARC
  5
3B8
100
AcDbEntity
  8
LAY-1
  6
CONTINUOUS
 62
     3
100
AcDbCircle
 10
240.663983
 20
412.0
 30
0.0
 40
0.3
100
AcDbArc
 50
27.645523
 51
90.0
  0
ARC
  5
3B9
100
AcDbEntity
  8
LAY-1
  6
CONTINUOUS
 62
     3
100
AcDbCircle
 10
242.878571
 20
413.16
 30
0.0
 40
2.2
100
AcDbArc
 50
207.645523
 51
332.354477
  0
ARC
  5
3BA
100
AcDbEntity
  8
LAY-1
  6
CONTINUOUS
 62
     3
100
AcDbCircle
 10
245.093159
 20
412.0
 30
0.0
 40
0.3
100
AcDbArc
 50
90.0
 51
152.354477
  0
LINE
  5
3BB
100
AcDbEntity
  8
LAY-1
  6
CONTINUOUS
 62
     3
100
AcDbLine
 10
240.929734
 20
425.4608
 30
0.0
 11
240.929734
 21
412.1392
 31
0.0
  0
LINE
  5
3BC
100
AcDbEntity
  8
LAY-1
  6
CONTINUOUS
 62
     3
100
AcDbLine
 10
244.827409
 20
412.1392
 30
0.0
 11
244.827409
 21
425.4608
 31
0.0
  0
LINE
  5
3BD
100
AcDbEntity
  8
LAY-1
  6
CONTINUOUS
 62
     3
100
AcDbLine
 10
240.663983
 20
412.3
 30
0.0
 11
234.093159
 21
412.3
 31
0.0
  0
LINE
  5
3BE
100
AcDbEntity
  8
LAY-1
  6
CONTINUOUS
 62
     3
100
AcDbLine
 10
234.093159
 20
425.3
 30
0.0
 11
240.663983
 21
425.3
 31
0.0
  0
LINE
  5
3BF
100
AcDbEntity
  8
LAY-1
  6
CONTINUOUS
 62
     3
100
AcDbLine
 10
262.878571
 20
429.3
 30
0.0
 11
261.078571
 21
429.3
 31
0.0
  0
LINE
  5
3C0
100
AcDbEntity
  8
LAY-1
  6
CONTINUOUS
 62
     3
100
AcDbLine
 10
262.878571
 20
408.3
 30
0.0
 11
261.078571
 21
408.3
 31
0.0
  0
LINE
  5
3C1
100
AcDbEntity
  8
LAY-1
  6
CONTINUOUS
 62
     3
100
AcDbLine
 10
263.878571
 20
426.3
 30
0.0
 11
262.878571
 21
426.3
 31
0.0
  0
LINE
  5
3C2
100
AcDbEntity
  8
LAY-1
  6
CONTINUOUS
 62
     3
100
AcDbLine
 10
263.878571
 20
411.3
 30
0.0
 11
262.878571
 21
411.3
 31
0.0
  0
LINE
  5
3C3
100
AcDbEntity
  8
LAY-1
  6
CONTINUOUS
 62
     3
100
AcDbLine
 10
263.878571
 20
426.3
 30
0.0
 11
263.878571
 21
411.3
 31
0.0
  0
LINE
  5
3C4
100
AcDbEntity
  8
LAY-1
  6
CONTINUOUS
 62
     3
100
AcDbLine
 10
262.878571
 20
429.3
 30
0.0
 11
262.878571
 21
408.3
 31
0.0
  0
LINE
  5
3C5
100
AcDbEntity
  8
LAY-1
  6
CONTINUOUS
 62
     3
100
AcDbLine
 10
261.078571
 20
429.3
 30
0.0
 11
261.078571
 21
408.3
 31
0.0
  0
ARC
  5
3C6
100
AcDbEntity
  8
LAY-1
  6
CONTINUOUS
 62
     3
100
AcDbCircle
 10
251.663983
 20
425.6
 30
0.0
 40
0.3
100
AcDbArc
 50
270.0
 51
332.354477
  0
ARC
  5
3C7
100
AcDbEntity
  8
LAY-1
  6
CONTINUOUS
 62
     3
100
AcDbCircle
 10
253.878571
 20
424.44
 30
0.0
 40
2.2
100
AcDbArc
 50
27.645523
 51
152.354477
  0
ARC
  5
3C8
100
AcDbEntity
  8
LAY-1
  6
CONTINUOUS
 62
     3
100
AcDbCircle
 10
256.093159
 20
425.6
 30
0.0
 40
0.3
100
AcDbArc
 50
207.645523
 51
270.0
  0
LINE
  5
3C9
100
AcDbEntity
  8
LAY-1
  6
CONTINUOUS
 62
     3
100
AcDbLine
 10
261.078571
 20
425.3
 30
0.0
 11
256.093159
 21
425.3
 31
0.0
  0
ARC
  5
3CA
100
AcDbEntity
  8
LAY-1
  6
CONTINUOUS
 62
     3
100
AcDbCircle
 10
256.093159
 20
412.0
 30
0.0
 40
0.3
100
AcDbArc
 50
90.0
 51
152.354477
  0
ARC
  5
3CB
100
AcDbEntity
  8
LAY-1
  6
CONTINUOUS
 62
     3
100
AcDbCircle
 10
253.878571
 20
413.16
 30
0.0
 40
2.2
100
AcDbArc
 50
207.645523
 51
332.354477
  0
ARC
  5
3CC
100
AcDbEntity
  8
LAY-1
  6
CONTINUOUS
 62
     3
100
AcDbCircle
 10
251.663983
 20
412.0
 30
0.0
 40
0.3
100
AcDbArc
 50
27.645523
 51
90.0
  0
LINE
  5
3CD
100
AcDbEntity
  8
LAY-1
  6
CONTINUOUS
 62
     3
100
AcDbLine
 10
261.078571
 20
412.3
 30
0.0
 11
256.093159
 21
412.3
 31
0.0
  0
LINE
  5
3CE
100
AcDbEntity
  8
LAY-1
  6
CONTINUOUS
 62
     3
100
AcDbLine
 10
255.827409
 20
425.4608
 30
0.0
 11
255.827409
 21
412.1392
 31
0.0
  0
LINE
  5
3CF
100
AcDbEntity
  8
LAY-1
  6
CONTINUOUS
 62
     3
100
AcDbLine
 10
251.929734
 20
412.1392
 30
0.0
 11
251.929734
 21
425.4608
 31
0.0
  0
LINE
  5
3D0
100
AcDbEntity
  8
LAY-1
  6
CONTINUOUS
 62
     3
100
AcDbLine
 10
251.663983
 20
412.3
 30
0.0
 11
245.093159
 21
412.3
 31
0.0
  0
LINE
  5
3D1
100
AcDbEntity
  8
LAY-1
  6
CONTINUOUS
 62
     3
100
AcDbLine
 10
245.093159
 20
425.3
 30
0.0
 11
251.663983
 21
425.3
 31
0.0
  0
ARC
  5
3D2
100
AcDbEntity
  8
LAY-1
  6
CONTINUOUS
 62
     3
100
AcDbCircle
 10
223.093159
 20
425.6
 30
0.0
 40
0.3
100
AcDbArc
 50
207.645523
 51
270.0
  0
ARC
  5
3D3
100
AcDbEntity
  8
LAY-1
  6
CONTINUOUS
 62
     3
100
AcDbCircle
 10
220.878571
 20
424.44
 30
0.0
 40
2.2
100
AcDbArc
 50
27.645523
 51
152.354477
  0
ARC
  5
3D4
100
AcDbEntity
  8
LAY-1
  6
CONTINUOUS
 62
     3
100
AcDbCircle
 10
218.663983
 20
425.6
 30
0.0
 40
0.3
100
AcDbArc
 50
270.0
 51
332.354477
  0
ARC
  5
3D5
100
AcDbEntity
  8
LAY-1
  6
CONTINUOUS
 62
     3
100
AcDbCircle
 10
218.663983
 20
412.0
 30
0.0
 40
0.3
100
AcDbArc
 50
27.645523
 51
90.0
  0
ARC
  5
3D6
100
AcDbEntity
  8
LAY-1
  6
CONTINUOUS
 62
     3
100
AcDbCircle
 10
220.878571
 20
413.16
 30
0.0
 40
2.2
100
AcDbArc
 50
207.645523
 51
332.354477
  0
ARC
  5
3D7
100
AcDbEntity
  8
LAY-1
  6
CONTINUOUS
 62
     3
100
AcDbCircle
 10
223.093159
 20
412.0
 30
0.0
 40
0.3
100
AcDbArc
 50
90.0
 51
152.354477
  0
LINE
  5
3D8
100
AcDbEntity
  8
LAY-1
  6
CONTINUOUS
 62
     3
100
AcDbLine
 10
218.929734
 20
425.4608
 30
0.0
 11
218.929734
 21
412.1392
 31
0.0
  0
LINE
  5
3D9
100
AcDbEntity
  8
LAY-1
  6
CONTINUOUS
 62
     3
100
AcDbLine
 10
222.827409
 20
412.1392
 30
0.0
 11
222.827409
 21
425.4608
 31
0.0
  0
LINE
  5
3DA
100
AcDbEntity
  8
LAY-1
  6
CONTINUOUS
 62
     3
100
AcDbLine
 10
223.093159
 20
425.3
 30
0.0
 11
229.663983
 21
425.3
 31
0.0
  0
LINE
  5
3DB
100
AcDbEntity
  8
LAY-1
  6
CONTINUOUS
 62
     3
100
AcDbLine
 10
229.663983
 20
412.3
 30
0.0
 11
223.093159
 21
412.3
 31
0.0
  0
ARC
  5
3DC
100
AcDbEntity
  8
LAY-1
  6
CONTINUOUS
 62
     3
100
AcDbCircle
 10
212.093159
 20
425.6
 30
0.0
 40
0.3
100
AcDbArc
 50
207.645523
 51
270.0
  0
ARC
  5
3DD
100
AcDbEntity
  8
LAY-1
  6
CONTINUOUS
 62
     3
100
AcDbCircle
 10
209.878571
 20
424.44
 30
0.0
 40
2.2
100
AcDbArc
 50
27.645523
 51
152.354477
  0
ARC
  5
3DE
100
AcDbEntity
  8
LAY-1
  6
CONTINUOUS
 62
     3
100
AcDbCircle
 10
207.663983
 20
425.6
 30
0.0
 40
0.3
100
AcDbArc
 50
270.0
 51
332.354477
  0
ARC
  5
3DF
100
AcDbEntity
  8
LAY-1
  6
CONTINUOUS
 62
     3
100
AcDbCircle
 10
207.663983
 20
412.0
 30
0.0
 40
0.3
100
AcDbArc
 50
27.645523
 51
90.0
  0
ARC
  5
3E0
100
AcDbEntity
  8
LAY-1
  6
CONTINUOUS
 62
     3
100
AcDbCircle
 10
209.878571
 20
413.16
 30
0.0
 40
2.2
100
AcDbArc
 50
207.645523
 51
332.354477
  0
ARC
  5
3E1
100
AcDbEntity
  8
LAY-1
  6
CONTINUOUS
 62
     3
100
AcDbCircle
 10
212.093159
 20
412.0
 30
0.0
 40
0.3
100
AcDbArc
 50
90.0
 51
152.354477
  0
LINE
  5
3E2
100
AcDbEntity
  8
LAY-1
  6
CONTINUOUS
 62
     3
100
AcDbLine
 10
207.929734
 20
425.4608
 30
0.0
 11
207.929734
 21
412.1392
 31
0.0
  0
LINE
  5
3E3
100
AcDbEntity
  8
LAY-1
  6
CONTINUOUS
 62
     3
100
AcDbLine
 10
211.827409
 20
412.1392
 30
0.0
 11
211.827409
 21
425.4608
 31
0.0
  0
LINE
  5
3E4
100
AcDbEntity
  8
LAY-1
  6
CONTINUOUS
 62
     3
100
AcDbLine
 10
218.663983
 20
412.3
 30
0.0
 11
212.093159
 21
412.3
 31
0.0
  0
LINE
  5
3E5
100
AcDbEntity
  8
LAY-1
  6
CONTINUOUS
 62
     3
100
AcDbLine
 10
212.093159
 20
425.3
 30
0.0
 11
218.663983
 21
425.3
 31
0.0
  0
LINE
  5
3E6
100
AcDbEntity
  8
LAY-1
  6
CONTINUOUS
 62
     3
100
AcDbLine
 10
189.878571
 20
429.3
 30
0.0
 11
191.678571
 21
429.3
 31
0.0
  0
LINE
  5
3E7
100
AcDbEntity
  8
LAY-1
  6
CONTINUOUS
 62
     3
100
AcDbLine
 10
189.878571
 20
408.3
 30
0.0
 11
191.678571
 21
408.3
 31
0.0
  0
LINE
  5
3E8
100
AcDbEntity
  8
LAY-1
  6
CONTINUOUS
 62
     3
100
AcDbLine
 10
188.878571
 20
426.3
 30
0.0
 11
189.878571
 21
426.3
 31
0.0
  0
LINE
  5
3E9
100
AcDbEntity
  8
LAY-1
  6
CONTINUOUS
 62
     3
100
AcDbLine
 10
188.878571
 20
411.3
 30
0.0
 11
189.878571
 21
411.3
 31
0.0
  0
LINE
  5
3EA
100
AcDbEntity
  8
LAY-1
  6
CONTINUOUS
 62
     3
100
AcDbLine
 10
188.878571
 20
426.3
 30
0.0
 11
188.878571
 21
411.3
 31
0.0
  0
LINE
  5
3EB
100
AcDbEntity
  8
LAY-1
  6
CONTINUOUS
 62
     3
100
AcDbLine
 10
189.878571
 20
429.3
 30
0.0
 11
189.878571
 21
408.3
 31
0.0
  0
LINE
  5
3EC
100
AcDbEntity
  8
LAY-1
  6
CONTINUOUS
 62
     3
100
AcDbLine
 10
191.678571
 20
429.3
 30
0.0
 11
191.678571
 21
408.3
 31
0.0
  0
ARC
  5
3ED
100
AcDbEntity
  8
LAY-1
  6
CONTINUOUS
 62
     3
100
AcDbCircle
 10
201.093159
 20
425.6
 30
0.0
 40
0.3
100
AcDbArc
 50
207.645523
 51
270.0
  0
LINE
  5
3EE
100
AcDbEntity
  8
LAY-1
  6
CONTINUOUS
 62
     3
100
AcDbLine
 10
191.678571
 20
425.3
 30
0.0
 11
196.663983
 21
425.3
 31
0.0
  0
ARC
  5
3EF
100
AcDbEntity
  8
LAY-1
  6
CONTINUOUS
 62
     3
100
AcDbCircle
 10
198.878571
 20
424.44
 30
0.0
 40
2.2
100
AcDbArc
 50
27.645523
 51
152.354477
  0
ARC
  5
3F0
100
AcDbEntity
  8
LAY-1
  6
CONTINUOUS
 62
     3
100
AcDbCircle
 10
196.663983
 20
425.6
 30
0.0
 40
0.3
100
AcDbArc
 50
270.0
 51
332.354477
  0
ARC
  5
3F1
100
AcDbEntity
  8
LAY-1
  6
CONTINUOUS
 62
     3
100
AcDbCircle
 10
196.663983
 20
412.0
 30
0.0
 40
0.3
100
AcDbArc
 50
27.645523
 51
90.0
  0
ARC
  5
3F2
100
AcDbEntity
  8
LAY-1
  6
CONTINUOUS
 62
     3
100
AcDbCircle
 10
198.878571
 20
413.16
 30
0.0
 40
2.2
100
AcDbArc
 50
207.645523
 51
332.354477
  0
ARC
  5
3F3
100
AcDbEntity
  8
LAY-1
  6
CONTINUOUS
 62
     3
100
AcDbCircle
 10
201.093159
 20
412.0
 30
0.0
 40
0.3
100
AcDbArc
 50
90.0
 51
152.354477
  0
LINE
  5
3F4
100
AcDbEntity
  8
LAY-1
  6
CONTINUOUS
 62
     3
100
AcDbLine
 10
191.678571
 20
412.3
 30
0.0
 11
196.663983
 21
412.3
 31
0.0
  0
LINE
  5
3F5
100
AcDbEntity
  8
LAY-1
  6
CONTINUOUS
 62
     3
100
AcDbLine
 10
196.929734
 20
425.4608
 30
0.0
 11
196.929734
 21
412.1392
 31
0.0
  0
LINE
  5
3F6
100
AcDbEntity
  8
LAY-1
  6
CONTINUOUS
 62
     3
100
AcDbLine
 10
200.827409
 20
412.1392
 30
0.0
 11
200.827409
 21
425.4608
 31
0.0
  0
LINE
  5
3F7
100
AcDbEntity
  8
LAY-1
  6
CONTINUOUS
 62
     3
100
AcDbLine
 10
201.093159
 20
425.3
 30
0.0
 11
207.663983
 21
425.3
 31
0.0
  0
LINE
  5
3F8
100
AcDbEntity
  8
LAY-1
  6
CONTINUOUS
 62
     3
100
AcDbLine
 10
207.663983
 20
412.3
 30
0.0
 11
201.093159
 21
412.3
 31
0.0
  0
LINE
  5
3F9
100
AcDbEntity
  8
LAY-1
  6
EXLTYPE3
 62
     1
100
AcDbLine
 10
181.478571
 20
418.8
 30
0.0
 11
267.3
 21
418.8
 31
0.0
  0
LINE
  5
3FA
100
AcDbEntity
  8
LAY-1
  6
CONTINUOUS
 62
     3
100
AcDbLine
 10
461.904592
 20
428.3
 30
0.0
 11
466.852551
 21
428.3
 31
0.0
  0
LINE
  5
3FB
100
AcDbEntity
  8
LAY-1
  6
CONTINUOUS
 62
     3
100
AcDbLine
 10
466.852551
 20
409.3
 30
0.0
 11
461.904592
 21
409.3
 31
0.0
  0
LINE
  5
3FC
100
AcDbEntity
  8
LAY-1
  6
CONTINUOUS
 62
     3
100
AcDbLine
 10
477.852551
 20
409.3
 30
0.0
 11
472.904592
 21
409.3
 31
0.0
  0
LINE
  5
3FD
100
AcDbEntity
  8
LAY-1
  6
CONTINUOUS
 62
     3
100
AcDbLine
 10
472.904592
 20
428.3
 30
0.0
 11
477.852551
 21
428.3
 31
0.0
  0
LINE
  5
3FE
100
AcDbEntity
  8
LAY-1
  6
CONTINUOUS
 62
     3
100
AcDbLine
 10
483.904592
 20
428.3
 30
0.0
 11
488.852551
 21
428.3
 31
0.0
  0
LINE
  5
3FF
100
AcDbEntity
  8
LAY-1
  6
CONTINUOUS
 62
     3
100
AcDbLine
 10
494.904592
 20
428.3
 30
0.0
 11
499.852551
 21
428.3
 31
0.0
  0
LINE
  5
400
100
AcDbEntity
  8
LAY-1
  6
CONTINUOUS
 62
     3
100
AcDbLine
 10
505.904592
 20
428.3
 30
0.0
 11
510.852551
 21
428.3
 31
0.0
  0
LINE
  5
401
100
AcDbEntity
  8
LAY-1
  6
CONTINUOUS
 62
     3
100
AcDbLine
 10
510.852551
 20
409.3
 30
0.0
 11
505.904592
 21
409.3
 31
0.0
  0
LINE
  5
402
100
AcDbEntity
  8
LAY-1
  6
CONTINUOUS
 62
     3
100
AcDbLine
 10
499.852551
 20
409.3
 30
0.0
 11
494.904592
 21
409.3
 31
0.0
  0
LINE
  5
403
100
AcDbEntity
  8
LAY-1
  6
CONTINUOUS
 62
     3
100
AcDbLine
 10
488.852551
 20
409.3
 30
0.0
 11
483.904592
 21
409.3
 31
0.0
  0
ARC
  5
404
100
AcDbEntity
  8
LAY-1
  6
CONTINUOUS
 62
     3
100
AcDbCircle
 10
649.404592
 20
431.05
 30
0.0
 40
0.4
100
AcDbArc
 50
207.125984
 51
270.0
  0
ARC
  5
405
100
AcDbEntity
  8
LAY-1
  6
CONTINUOUS
 62
     3
100
AcDbCircle
 10
646.378571
 20
429.499775
 30
0.0
 40
3.0
100
AcDbArc
 50
27.125984
 51
152.874016
  0
ARC
  5
406
100
AcDbEntity
  8
LAY-1
  6
CONTINUOUS
 62
     3
100
AcDbCircle
 10
643.352551
 20
431.05
 30
0.0
 40
0.4
100
AcDbArc
 50
270.0
 51
332.874016
  0
LINE
  5
407
100
AcDbEntity
  8
LAY-1
  6
CONTINUOUS
 62
     3
100
AcDbLine
 10
655.578571
 20
430.65
 30
0.0
 11
649.404592
 21
430.65
 31
0.0
  0
ARC
  5
408
100
AcDbEntity
  8
LAY-1
  6
CONTINUOUS
 62
     3
100
AcDbCircle
 10
643.352551
 20
406.55
 30
0.0
 40
0.4
100
AcDbArc
 50
27.125984
 51
90.0
  0
ARC
  5
409
100
AcDbEntity
  8
LAY-1
  6
CONTINUOUS
 62
     3
100
AcDbCircle
 10
646.378571
 20
408.100225
 30
0.0
 40
3.0
100
AcDbArc
 50
207.125984
 51
332.874016
  0
ARC
  5
40A
100
AcDbEntity
  8
LAY-1
  6
CONTINUOUS
 62
     3
100
AcDbCircle
 10
649.404592
 20
406.55
 30
0.0
 40
0.4
100
AcDbArc
 50
90.0
 51
152.874016
  0
LINE
  5
40B
100
AcDbEntity
  8
LAY-1
  6
CONTINUOUS
 62
     3
100
AcDbLine
 10
649.404592
 20
406.95
 30
0.0
 11
655.578571
 21
406.95
 31
0.0
  0
LINE
  5
40C
100
AcDbEntity
  8
LAY-1
  6
CONTINUOUS
 62
     3
100
AcDbLine
 10
649.04859
 20
430.867621
 30
0.0
 11
649.04859
 21
406.732379
 31
0.0
  0
LINE
  5
40D
100
AcDbEntity
  8
LAY-1
  6
CONTINUOUS
 62
     3
100
AcDbLine
 10
643.708553
 20
406.732379
 30
0.0
 11
643.708553
 21
430.867621
 31
0.0
  0
ARC
  5
40E
100
AcDbEntity
  8
LAY-1
  6
CONTINUOUS
 62
     3
100
AcDbCircle
 10
583.352551
 20
431.05
 30
0.0
 40
0.4
100
AcDbArc
 50
270.0
 51
332.874016
  0
ARC
  5
40F
100
AcDbEntity
  8
LAY-1
  6
CONTINUOUS
 62
     3
100
AcDbCircle
 10
586.378571
 20
429.499775
 30
0.0
 40
3.0
100
AcDbArc
 50
27.125984
 51
152.874016
  0
ARC
  5
410
100
AcDbEntity
  8
LAY-1
  6
CONTINUOUS
 62
     3
100
AcDbCircle
 10
589.404592
 20
431.05
 30
0.0
 40
0.4
100
AcDbArc
 50
207.125984
 51
270.0
  0
LINE
  5
411
100
AcDbEntity
  8
LAY-1
  6
CONTINUOUS
 62
     3
100
AcDbLine
 10
577.178571
 20
430.65
 30
0.0
 11
583.352551
 21
430.65
 31
0.0
  0
ARC
  5
412
100
AcDbEntity
  8
LAY-1
  6
CONTINUOUS
 62
     3
100
AcDbCircle
 10
589.404592
 20
406.55
 30
0.0
 40
0.4
100
AcDbArc
 50
90.0
 51
152.874016
  0
LINE
  5
413
100
AcDbEntity
  8
LAY-1
  6
CONTINUOUS
 62
     3
100
AcDbLine
 10
583.352551
 20
406.95
 30
0.0
 11
577.178571
 21
406.95
 31
0.0
  0
ARC
  5
414
100
AcDbEntity
  8
LAY-1
  6
CONTINUOUS
 62
     3
100
AcDbCircle
 10
586.378571
 20
408.100225
 30
0.0
 40
3.0
100
AcDbArc
 50
207.125984
 51
332.874016
  0
ARC
  5
415
100
AcDbEntity
  8
LAY-1
  6
CONTINUOUS
 62
     3
100
AcDbCircle
 10
583.352551
 20
406.55
 30
0.0
 40
0.4
100
AcDbArc
 50
27.125984
 51
90.0
  0
LINE
  5
416
100
AcDbEntity
  8
LAY-1
  6
CONTINUOUS
 62
     3
100
AcDbLine
 10
583.708553
 20
430.867621
 30
0.0
 11
583.708553
 21
406.732379
 31
0.0
  0
LINE
  5
417
100
AcDbEntity
  8
LAY-1
  6
CONTINUOUS
 62
     3
100
AcDbLine
 10
589.04859
 20
406.732379
 30
0.0
 11
589.04859
 21
430.867621
 31
0.0
  0
LINE
  5
418
100
AcDbEntity
  8
LAY-1
  6
CONTINUOUS
 62
     3
100
AcDbLine
 10
639.04859
 20
406.732379
 30
0.0
 11
639.04859
 21
430.867621
 31
0.0
  0
LINE
  5
419
100
AcDbEntity
  8
LAY-1
  6
CONTINUOUS
 62
     3
100
AcDbLine
 10
633.708553
 20
430.867621
 30
0.0
 11
633.708553
 21
406.732379
 31
0.0
  0
ARC
  5
41A
100
AcDbEntity
  8
LAY-1
  6
CONTINUOUS
 62
     3
100
AcDbCircle
 10
633.352551
 20
406.55
 30
0.0
 40
0.4
100
AcDbArc
 50
27.125984
 51
90.0
  0
ARC
  5
41B
100
AcDbEntity
  8
LAY-1
  6
CONTINUOUS
 62
     3
100
AcDbCircle
 10
636.378571
 20
408.100225
 30
0.0
 40
3.0
100
AcDbArc
 50
207.125984
 51
332.874016
  0
ARC
  5
41C
100
AcDbEntity
  8
LAY-1
  6
CONTINUOUS
 62
     3
100
AcDbCircle
 10
639.404592
 20
406.55
 30
0.0
 40
0.4
100
AcDbArc
 50
90.0
 51
152.874016
  0
ARC
  5
41D
100
AcDbEntity
  8
LAY-1
  6
CONTINUOUS
 62
     3
100
AcDbCircle
 10
639.404592
 20
431.05
 30
0.0
 40
0.4
100
AcDbArc
 50
207.125984
 51
270.0
  0
ARC
  5
41E
100
AcDbEntity
  8
LAY-1
  6
CONTINUOUS
 62
     3
100
AcDbCircle
 10
636.378571
 20
429.499775
 30
0.0
 40
3.0
100
AcDbArc
 50
27.125984
 51
152.874016
  0
ARC
  5
41F
100
AcDbEntity
  8
LAY-1
  6
CONTINUOUS
 62
     3
100
AcDbCircle
 10
633.352551
 20
431.05
 30
0.0
 40
0.4
100
AcDbArc
 50
270.0
 51
332.874016
  0
LINE
  5
420
100
AcDbEntity
  8
LAY-1
  6
CONTINUOUS
 62
     3
100
AcDbLine
 10
629.04859
 20
406.732379
 30
0.0
 11
629.04859
 21
430.867621
 31
0.0
  0
LINE
  5
421
100
AcDbEntity
  8
LAY-1
  6
CONTINUOUS
 62
     3
100
AcDbLine
 10
623.708553
 20
430.867621
 30
0.0
 11
623.708553
 21
406.732379
 31
0.0
  0
ARC
  5
422
100
AcDbEntity
  8
LAY-1
  6
CONTINUOUS
 62
     3
100
AcDbCircle
 10
623.352551
 20
406.55
 30
0.0
 40
0.4
100
AcDbArc
 50
27.125984
 51
90.0
  0
ARC
  5
423
100
AcDbEntity
  8
LAY-1
  6
CONTINUOUS
 62
     3
100
AcDbCircle
 10
626.378571
 20
408.100225
 30
0.0
 40
3.0
100
AcDbArc
 50
207.125984
 51
332.874016
  0
ARC
  5
424
100
AcDbEntity
  8
LAY-1
  6
CONTINUOUS
 62
     3
100
AcDbCircle
 10
629.404592
 20
406.55
 30
0.0
 40
0.4
100
AcDbArc
 50
90.0
 51
152.874016
  0
ARC
  5
425
100
AcDbEntity
  8
LAY-1
  6
CONTINUOUS
 62
     3
100
AcDbCircle
 10
629.404592
 20
431.05
 30
0.0
 40
0.4
100
AcDbArc
 50
207.125984
 51
270.0
  0
ARC
  5
426
100
AcDbEntity
  8
LAY-1
  6
CONTINUOUS
 62
     3
100
AcDbCircle
 10
626.378571
 20
429.499775
 30
0.0
 40
3.0
100
AcDbArc
 50
27.125984
 51
152.874016
  0
ARC
  5
427
100
AcDbEntity
  8
LAY-1
  6
CONTINUOUS
 62
     3
100
AcDbCircle
 10
623.352551
 20
431.05
 30
0.0
 40
0.4
100
AcDbArc
 50
270.0
 51
332.874016
  0
LINE
  5
428
100
AcDbEntity
  8
LAY-1
  6
CONTINUOUS
 62
     3
100
AcDbLine
 10
619.04859
 20
406.732379
 30
0.0
 11
619.04859
 21
430.867621
 31
0.0
  0
LINE
  5
429
100
AcDbEntity
  8
LAY-1
  6
CONTINUOUS
 62
     3
100
AcDbLine
 10
613.708553
 20
430.867621
 30
0.0
 11
613.708553
 21
406.732379
 31
0.0
  0
ARC
  5
42A
100
AcDbEntity
  8
LAY-1
  6
CONTINUOUS
 62
     3
100
AcDbCircle
 10
613.352551
 20
406.55
 30
0.0
 40
0.4
100
AcDbArc
 50
27.125984
 51
90.0
  0
ARC
  5
42B
100
AcDbEntity
  8
LAY-1
  6
CONTINUOUS
 62
     3
100
AcDbCircle
 10
616.378571
 20
408.100225
 30
0.0
 40
3.0
100
AcDbArc
 50
207.125984
 51
332.874016
  0
ARC
  5
42C
100
AcDbEntity
  8
LAY-1
  6
CONTINUOUS
 62
     3
100
AcDbCircle
 10
619.404592
 20
406.55
 30
0.0
 40
0.4
100
AcDbArc
 50
90.0
 51
152.874016
  0
ARC
  5
42D
100
AcDbEntity
  8
LAY-1
  6
CONTINUOUS
 62
     3
100
AcDbCircle
 10
619.404592
 20
431.05
 30
0.0
 40
0.4
100
AcDbArc
 50
207.125984
 51
270.0
  0
ARC
  5
42E
100
AcDbEntity
  8
LAY-1
  6
CONTINUOUS
 62
     3
100
AcDbCircle
 10
616.378571
 20
429.499775
 30
0.0
 40
3.0
100
AcDbArc
 50
27.125984
 51
152.874016
  0
ARC
  5
42F
100
AcDbEntity
  8
LAY-1
  6
CONTINUOUS
 62
     3
100
AcDbCircle
 10
613.352551
 20
431.05
 30
0.0
 40
0.4
100
AcDbArc
 50
270.0
 51
332.874016
  0
LINE
  5
430
100
AcDbEntity
  8
LAY-1
  6
CONTINUOUS
 62
     3
100
AcDbLine
 10
609.04859
 20
406.732379
 30
0.0
 11
609.04859
 21
430.867621
 31
0.0
  0
LINE
  5
431
100
AcDbEntity
  8
LAY-1
  6
CONTINUOUS
 62
     3
100
AcDbLine
 10
603.708553
 20
430.867621
 30
0.0
 11
603.708553
 21
406.732379
 31
0.0
  0
ARC
  5
432
100
AcDbEntity
  8
LAY-1
  6
CONTINUOUS
 62
     3
100
AcDbCircle
 10
603.352551
 20
406.55
 30
0.0
 40
0.4
100
AcDbArc
 50
27.125984
 51
90.0
  0
ARC
  5
433
100
AcDbEntity
  8
LAY-1
  6
CONTINUOUS
 62
     3
100
AcDbCircle
 10
606.378571
 20
408.100225
 30
0.0
 40
3.0
100
AcDbArc
 50
207.125984
 51
332.874016
  0
ARC
  5
434
100
AcDbEntity
  8
LAY-1
  6
CONTINUOUS
 62
     3
100
AcDbCircle
 10
609.404592
 20
406.55
 30
0.0
 40
0.4
100
AcDbArc
 50
90.0
 51
152.874016
  0
ARC
  5
435
100
AcDbEntity
  8
LAY-1
  6
CONTINUOUS
 62
     3
100
AcDbCircle
 10
609.404592
 20
431.05
 30
0.0
 40
0.4
100
AcDbArc
 50
207.125984
 51
270.0
  0
ARC
  5
436
100
AcDbEntity
  8
LAY-1
  6
CONTINUOUS
 62
     3
100
AcDbCircle
 10
606.378571
 20
429.499775
 30
0.0
 40
3.0
100
AcDbArc
 50
27.125984
 51
152.874016
  0
ARC
  5
437
100
AcDbEntity
  8
LAY-1
  6
CONTINUOUS
 62
     3
100
AcDbCircle
 10
603.352551
 20
431.05
 30
0.0
 40
0.4
100
AcDbArc
 50
270.0
 51
332.874016
  0
LINE
  5
438
100
AcDbEntity
  8
LAY-1
  6
CONTINUOUS
 62
     3
100
AcDbLine
 10
599.04859
 20
406.732379
 30
0.0
 11
599.04859
 21
430.867621
 31
0.0
  0
LINE
  5
439
100
AcDbEntity
  8
LAY-1
  6
CONTINUOUS
 62
     3
100
AcDbLine
 10
593.708553
 20
430.867621
 30
0.0
 11
593.708553
 21
406.732379
 31
0.0
  0
ARC
  5
43A
100
AcDbEntity
  8
LAY-1
  6
CONTINUOUS
 62
     3
100
AcDbCircle
 10
593.352551
 20
406.55
 30
0.0
 40
0.4
100
AcDbArc
 50
27.125984
 51
90.0
  0
ARC
  5
43B
100
AcDbEntity
  8
LAY-1
  6
CONTINUOUS
 62
     3
100
AcDbCircle
 10
596.378571
 20
408.100225
 30
0.0
 40
3.0
100
AcDbArc
 50
207.125984
 51
332.874016
  0
ARC
  5
43C
100
AcDbEntity
  8
LAY-1
  6
CONTINUOUS
 62
     3
100
AcDbCircle
 10
599.404592
 20
406.55
 30
0.0
 40
0.4
100
AcDbArc
 50
90.0
 51
152.874016
  0
ARC
  5
43D
100
AcDbEntity
  8
LAY-1
  6
CONTINUOUS
 62
     3
100
AcDbCircle
 10
599.404592
 20
431.05
 30
0.0
 40
0.4
100
AcDbArc
 50
207.125984
 51
270.0
  0
ARC
  5
43E
100
AcDbEntity
  8
LAY-1
  6
CONTINUOUS
 62
     3
100
AcDbCircle
 10
596.378571
 20
429.499775
 30
0.0
 40
3.0
100
AcDbArc
 50
27.125984
 51
152.874016
  0
ARC
  5
43F
100
AcDbEntity
  8
LAY-1
  6
CONTINUOUS
 62
     3
100
AcDbCircle
 10
593.352551
 20
431.05
 30
0.0
 40
0.4
100
AcDbArc
 50
270.0
 51
332.874016
  0
LINE
  5
440
100
AcDbEntity
  8
LAY-1
  6
EXLTYPE3
 62
     1
100
AcDbLine
 10
569.8
 20
418.8
 30
0.0
 11
662.602551
 21
418.8
 31
0.0
  0
LINE
  5
441
100
AcDbEntity
  8
LAY-1
  6
CONTINUOUS
 62
     3
100
AcDbLine
 10
643.352551
 20
406.95
 30
0.0
 11
589.404592
 21
406.95
 31
0.0
  0
LINE
  5
442
100
AcDbEntity
  8
LAY-1
  6
CONTINUOUS
 62
     3
100
AcDbLine
 10
643.352551
 20
406.95
 30
0.0
 11
593.480351
 21
406.95
 31
0.0
  0
LINE
  5
443
100
AcDbEntity
  8
LAY-1
  6
CONTINUOUS
 62
     3
100
AcDbLine
 10
589.404592
 20
430.65
 30
0.0
 11
643.352551
 21
430.65
 31
0.0
  0
LINE
  5
444
100
AcDbEntity
  8
LAY-1
  6
CONTINUOUS
 62
     2
100
AcDbLine
 10
811.378571
 20
559.6
 30
0.0
 11
811.378571
 21
31.3
 31
0.0
  0
LINE
  5
445
100
AcDbEntity
  8
LAY-1
  6
CONTINUOUS
 62
     3
100
AcDbLine
 10
787.428571
 20
438.8
 30
0.0
 11
785.628571
 21
438.8
 31
0.0
  0
LINE
  5
446
100
AcDbEntity
  8
LAY-1
  6
CONTINUOUS
 62
     3
100
AcDbLine
 10
787.428571
 20
398.8
 30
0.0
 11
785.628571
 21
398.8
 31
0.0
  0
LINE
  5
447
100
AcDbEntity
  8
LAY-1
  6
CONTINUOUS
 62
     3
100
AcDbLine
 10
788.928571
 20
435.0
 30
0.0
 11
787.428571
 21
435.0
 31
0.0
  0
LINE
  5
448
100
AcDbEntity
  8
LAY-1
  6
CONTINUOUS
 62
     3
100
AcDbLine
 10
788.928571
 20
402.6
 30
0.0
 11
787.428571
 21
402.6
 31
0.0
  0
LINE
  5
449
100
AcDbEntity
  8
LAY-1
  6
CONTINUOUS
 62
     3
100
AcDbLine
 10
788.928571
 20
435.0
 30
0.0
 11
788.928571
 21
402.6
 31
0.0
  0
LINE
  5
44A
100
AcDbEntity
  8
LAY-1
  6
CONTINUOUS
 62
     3
100
AcDbLine
 10
787.428571
 20
438.8
 30
0.0
 11
787.428571
 21
398.8
 31
0.0
  0
LINE
  5
44B
100
AcDbEntity
  8
LAY-1
  6
CONTINUOUS
 62
     3
100
AcDbLine
 10
785.628571
 20
438.8
 30
0.0
 11
785.628571
 21
398.8
 31
0.0
  0
LINE
  5
44C
100
AcDbEntity
  8
LAY-1
  6
CONTINUOUS
 62
     2
100
AcDbLine
 10
31.378571
 20
451.3
 30
0.0
 11
811.478571
 21
451.3
 31
0.0
  0
LINE
  5
44D
100
AcDbEntity
  8
LAY-1
  6
CONTINUOUS
 62
     2
100
AcDbLine
 10
681.378571
 20
536.3
 30
0.0
 11
681.378571
 21
386.3
 31
0.0
  0
LINE
  5
44E
100
AcDbEntity
  8
LAY-1
  6
CONTINUOUS
 62
     3
100
AcDbLine
 10
705.428571
 20
438.8
 30
0.0
 11
707.228571
 21
438.8
 31
0.0
  0
LINE
  5
44F
100
AcDbEntity
  8
LAY-1
  6
CONTINUOUS
 62
     3
100
AcDbLine
 10
705.428571
 20
398.8
 30
0.0
 11
707.228571
 21
398.8
 31
0.0
  0
LINE
  5
450
100
AcDbEntity
  8
LAY-1
  6
CONTINUOUS
 62
     3
100
AcDbLine
 10
703.928571
 20
435.0
 30
0.0
 11
705.428571
 21
435.0
 31
0.0
  0
LINE
  5
451
100
AcDbEntity
  8
LAY-1
  6
CONTINUOUS
 62
     3
100
AcDbLine
 10
703.928571
 20
402.6
 30
0.0
 11
705.428571
 21
402.6
 31
0.0
  0
LINE
  5
452
100
AcDbEntity
  8
LAY-1
  6
CONTINUOUS
 62
     3
100
AcDbLine
 10
703.928571
 20
435.0
 30
0.0
 11
703.928571
 21
402.6
 31
0.0
  0
LINE
  5
453
100
AcDbEntity
  8
LAY-1
  6
CONTINUOUS
 62
     3
100
AcDbLine
 10
705.428571
 20
438.8
 30
0.0
 11
705.428571
 21
398.8
 31
0.0
  0
LINE
  5
454
100
AcDbEntity
  8
LAY-1
  6
CONTINUOUS
 62
     3
100
AcDbLine
 10
707.228571
 20
438.8
 30
0.0
 11
707.228571
 21
398.8
 31
0.0
  0
LINE
  5
455
100
AcDbEntity
  8
LAY-1
  6
CONTINUOUS
 62
     3
100
AcDbLine
 10
707.228571
 20
434.0
 30
0.0
 11
713.402551
 21
434.0
 31
0.0
  0
ARC
  5
456
100
AcDbEntity
  8
LAY-1
  6
CONTINUOUS
 62
     3
100
AcDbCircle
 10
713.402551
 20
434.4
 30
0.0
 40
0.4
100
AcDbArc
 50
270.0
 51
332.874016
  0
ARC
  5
457
100
AcDbEntity
  8
LAY-1
  6
CONTINUOUS
 62
     3
100
AcDbCircle
 10
716.428571
 20
432.849775
 30
0.0
 40
3.0
100
AcDbArc
 50
27.125984
 51
152.874016
  0
ARC
  5
458
100
AcDbEntity
  8
LAY-1
  6
CONTINUOUS
 62
     3
100
AcDbCircle
 10
719.454592
 20
434.4
 30
0.0
 40
0.4
100
AcDbArc
 50
207.125984
 51
270.0
  0
ARC
  5
459
100
AcDbEntity
  8
LAY-1
  6
CONTINUOUS
 62
     3
100
AcDbCircle
 10
719.454592
 20
403.2
 30
0.0
 40
0.4
100
AcDbArc
 50
90.0
 51
152.874016
  0
LINE
  5
45A
100
AcDbEntity
  8
LAY-1
  6
CONTINUOUS
 62
     3
100
AcDbLine
 10
713.402551
 20
403.6
 30
0.0
 11
707.228571
 21
403.6
 31
0.0
  0
ARC
  5
45B
100
AcDbEntity
  8
LAY-1
  6
CONTINUOUS
 62
     3
100
AcDbCircle
 10
716.428571
 20
404.750225
 30
0.0
 40
3.0
100
AcDbArc
 50
207.125984
 51
332.874016
  0
ARC
  5
45C
100
AcDbEntity
  8
LAY-1
  6
CONTINUOUS
 62
     3
100
AcDbCircle
 10
713.402551
 20
403.2
 30
0.0
 40
0.4
100
AcDbArc
 50
27.125984
 51
90.0
  0
LINE
  5
45D
100
AcDbEntity
  8
LAY-1
  6
CONTINUOUS
 62
     3
100
AcDbLine
 10
713.758553
 20
434.217621
 30
0.0
 11
713.758553
 21
403.382379
 31
0.0
  0
LINE
  5
45E
100
AcDbEntity
  8
LAY-1
  6
CONTINUOUS
 62
     3
100
AcDbLine
 10
719.09859
 20
403.382379
 30
0.0
 11
719.09859
 21
434.217621
 31
0.0
  0
ARC
  5
45F
100
AcDbEntity
  8
LAY-1
  6
CONTINUOUS
 62
     3
100
AcDbCircle
 10
779.454592
 20
434.4
 30
0.0
 40
0.4
100
AcDbArc
 50
207.125984
 51
270.0
  0
ARC
  5
460
100
AcDbEntity
  8
LAY-1
  6
CONTINUOUS
 62
     3
100
AcDbCircle
 10
776.428571
 20
432.849775
 30
0.0
 40
3.0
100
AcDbArc
 50
27.125984
 51
152.874016
  0
ARC
  5
461
100
AcDbEntity
  8
LAY-1
  6
CONTINUOUS
 62
     3
100
AcDbCircle
 10
773.402551
 20
434.4
 30
0.0
 40
0.4
100
AcDbArc
 50
270.0
 51
332.874016
  0
LINE
  5
462
100
AcDbEntity
  8
LAY-1
  6
CONTINUOUS
 62
     3
100
AcDbLine
 10
785.628571
 20
434.0
 30
0.0
 11
779.454592
 21
434.0
 31
0.0
  0
ARC
  5
463
100
AcDbEntity
  8
LAY-1
  6
CONTINUOUS
 62
     3
100
AcDbCircle
 10
773.402551
 20
403.2
 30
0.0
 40
0.4
100
AcDbArc
 50
27.125984
 51
90.0
  0
ARC
  5
464
100
AcDbEntity
  8
LAY-1
  6
CONTINUOUS
 62
     3
100
AcDbCircle
 10
776.428571
 20
404.750225
 30
0.0
 40
3.0
100
AcDbArc
 50
207.125984
 51
332.874016
  0
ARC
  5
465
100
AcDbEntity
  8
LAY-1
  6
CONTINUOUS
 62
     3
100
AcDbCircle
 10
779.454592
 20
403.2
 30
0.0
 40
0.4
100
AcDbArc
 50
90.0
 51
152.874016
  0
LINE
  5
466
100
AcDbEntity
  8
LAY-1
  6
CONTINUOUS
 62
     3
100
AcDbLine
 10
779.454592
 20
403.6
 30
0.0
 11
785.628571
 21
403.6
 31
0.0
  0
LINE
  5
467
100
AcDbEntity
  8
LAY-1
  6
CONTINUOUS
 62
     3
100
AcDbLine
 10
779.09859
 20
434.217621
 30
0.0
 11
779.09859
 21
403.382379
 31
0.0
  0
LINE
  5
468
100
AcDbEntity
  8
LAY-1
  6
CONTINUOUS
 62
     3
100
AcDbLine
 10
773.758553
 20
403.382379
 30
0.0
 11
773.758553
 21
434.217621
 31
0.0
  0
LINE
  5
469
100
AcDbEntity
  8
LAY-1
  6
EXLTYPE3
 62
     1
100
AcDbLine
 10
701.309693
 20
418.8
 30
0.0
 11
791.909693
 21
418.8
 31
0.0
  0
ARC
  5
46A
100
AcDbEntity
  8
LAY-1
  6
CONTINUOUS
 62
     3
100
AcDbCircle
 10
723.402551
 20
434.4
 30
0.0
 40
0.4
100
AcDbArc
 50
270.0
 51
332.874016
  0
ARC
  5
46B
100
AcDbEntity
  8
LAY-1
  6
CONTINUOUS
 62
     3
100
AcDbCircle
 10
726.428571
 20
432.849775
 30
0.0
 40
3.0
100
AcDbArc
 50
27.125984
 51
152.874016
  0
ARC
  5
46C
100
AcDbEntity
  8
LAY-1
  6
CONTINUOUS
 62
     3
100
AcDbCircle
 10
729.454592
 20
434.4
 30
0.0
 40
0.4
100
AcDbArc
 50
207.125984
 51
270.0
  0
ARC
  5
46D
100
AcDbEntity
  8
LAY-1
  6
CONTINUOUS
 62
     3
100
AcDbCircle
 10
729.454592
 20
403.2
 30
0.0
 40
0.4
100
AcDbArc
 50
90.0
 51
152.874016
  0
ARC
  5
46E
100
AcDbEntity
  8
LAY-1
  6
CONTINUOUS
 62
     3
100
AcDbCircle
 10
726.428571
 20
404.750225
 30
0.0
 40
3.0
100
AcDbArc
 50
207.125984
 51
332.874016
  0
ARC
  5
46F
100
AcDbEntity
  8
LAY-1
  6
CONTINUOUS
 62
     3
100
AcDbCircle
 10
723.402551
 20
403.2
 30
0.0
 40
0.4
100
AcDbArc
 50
27.125984
 51
90.0
  0
LINE
  5
470
100
AcDbEntity
  8
LAY-1
  6
CONTINUOUS
 62
     3
100
AcDbLine
 10
723.758553
 20
434.217621
 30
0.0
 11
723.758553
 21
403.382379
 31
0.0
  0
LINE
  5
471
100
AcDbEntity
  8
LAY-1
  6
CONTINUOUS
 62
     3
100
AcDbLine
 10
729.09859
 20
403.382379
 30
0.0
 11
729.09859
 21
434.217621
 31
0.0
  0
ARC
  5
472
100
AcDbEntity
  8
LAY-1
  6
CONTINUOUS
 62
     3
100
AcDbCircle
 10
733.402551
 20
434.4
 30
0.0
 40
0.4
100
AcDbArc
 50
270.0
 51
332.874016
  0
ARC
  5
473
100
AcDbEntity
  8
LAY-1
  6
CONTINUOUS
 62
     3
100
AcDbCircle
 10
736.428571
 20
432.849775
 30
0.0
 40
3.0
100
AcDbArc
 50
27.125984
 51
152.874016
  0
ARC
  5
474
100
AcDbEntity
  8
LAY-1
  6
CONTINUOUS
 62
     3
100
AcDbCircle
 10
739.454592
 20
434.4
 30
0.0
 40
0.4
100
AcDbArc
 50
207.125984
 51
270.0
  0
ARC
  5
475
100
AcDbEntity
  8
LAY-1
  6
CONTINUOUS
 62
     3
100
AcDbCircle
 10
739.454592
 20
403.2
 30
0.0
 40
0.4
100
AcDbArc
 50
90.0
 51
152.874016
  0
ARC
  5
476
100
AcDbEntity
  8
LAY-1
  6
CONTINUOUS
 62
     3
100
AcDbCircle
 10
736.428571
 20
404.750225
 30
0.0
 40
3.0
100
AcDbArc
 50
207.125984
 51
332.874016
  0
ARC
  5
477
100
AcDbEntity
  8
LAY-1
  6
CONTINUOUS
 62
     3
100
AcDbCircle
 10
733.402551
 20
403.2
 30
0.0
 40
0.4
100
AcDbArc
 50
27.125984
 51
90.0
  0
LINE
  5
478
100
AcDbEntity
  8
LAY-1
  6
CONTINUOUS
 62
     3
100
AcDbLine
 10
733.758553
 20
434.217621
 30
0.0
 11
733.758553
 21
403.382379
 31
0.0
  0
LINE
  5
479
100
AcDbEntity
  8
LAY-1
  6
CONTINUOUS
 62
     3
100
AcDbLine
 10
739.09859
 20
403.382379
 30
0.0
 11
739.09859
 21
434.217621
 31
0.0
  0
ARC
  5
47A
100
AcDbEntity
  8
LAY-1
  6
CONTINUOUS
 62
     3
100
AcDbCircle
 10
743.402551
 20
434.4
 30
0.0
 40
0.4
100
AcDbArc
 50
270.0
 51
332.874016
  0
ARC
  5
47B
100
AcDbEntity
  8
LAY-1
  6
CONTINUOUS
 62
     3
100
AcDbCircle
 10
746.428571
 20
432.849775
 30
0.0
 40
3.0
100
AcDbArc
 50
27.125984
 51
152.874016
  0
ARC
  5
47C
100
AcDbEntity
  8
LAY-1
  6
CONTINUOUS
 62
     3
100
AcDbCircle
 10
749.454592
 20
434.4
 30
0.0
 40
0.4
100
AcDbArc
 50
207.125984
 51
270.0
  0
ARC
  5
47D
100
AcDbEntity
  8
LAY-1
  6
CONTINUOUS
 62
     3
100
AcDbCircle
 10
749.454592
 20
403.2
 30
0.0
 40
0.4
100
AcDbArc
 50
90.0
 51
152.874016
  0
ARC
  5
47E
100
AcDbEntity
  8
LAY-1
  6
CONTINUOUS
 62
     3
100
AcDbCircle
 10
746.428571
 20
404.750225
 30
0.0
 40
3.0
100
AcDbArc
 50
207.125984
 51
332.874016
  0
ARC
  5
47F
100
AcDbEntity
  8
LAY-1
  6
CONTINUOUS
 62
     3
100
AcDbCircle
 10
743.402551
 20
403.2
 30
0.0
 40
0.4
100
AcDbArc
 50
27.125984
 51
90.0
  0
LINE
  5
480
100
AcDbEntity
  8
LAY-1
  6
CONTINUOUS
 62
     3
100
AcDbLine
 10
743.758553
 20
434.217621
 30
0.0
 11
743.758553
 21
403.382379
 31
0.0
  0
LINE
  5
481
100
AcDbEntity
  8
LAY-1
  6
CONTINUOUS
 62
     3
100
AcDbLine
 10
749.09859
 20
403.382379
 30
0.0
 11
749.09859
 21
434.217621
 31
0.0
  0
ARC
  5
482
100
AcDbEntity
  8
LAY-1
  6
CONTINUOUS
 62
     3
100
AcDbCircle
 10
753.402551
 20
434.4
 30
0.0
 40
0.4
100
AcDbArc
 50
270.0
 51
332.874016
  0
ARC
  5
483
100
AcDbEntity
  8
LAY-1
  6
CONTINUOUS
 62
     3
100
AcDbCircle
 10
756.428571
 20
432.849775
 30
0.0
 40
3.0
100
AcDbArc
 50
27.125984
 51
152.874016
  0
ARC
  5
484
100
AcDbEntity
  8
LAY-1
  6
CONTINUOUS
 62
     3
100
AcDbCircle
 10
759.454592
 20
434.4
 30
0.0
 40
0.4
100
AcDbArc
 50
207.125984
 51
270.0
  0
ARC
  5
485
100
AcDbEntity
  8
LAY-1
  6
CONTINUOUS
 62
     3
100
AcDbCircle
 10
759.454592
 20
403.2
 30
0.0
 40
0.4
100
AcDbArc
 50
90.0
 51
152.874016
  0
ARC
  5
486
100
AcDbEntity
  8
LAY-1
  6
CONTINUOUS
 62
     3
100
AcDbCircle
 10
756.428571
 20
404.750225
 30
0.0
 40
3.0
100
AcDbArc
 50
207.125984
 51
332.874016
  0
ARC
  5
487
100
AcDbEntity
  8
LAY-1
  6
CONTINUOUS
 62
     3
100
AcDbCircle
 10
753.402551
 20
403.2
 30
0.0
 40
0.4
100
AcDbArc
 50
27.125984
 51
90.0
  0
LINE
  5
488
100
AcDbEntity
  8
LAY-1
  6
CONTINUOUS
 62
     3
100
AcDbLine
 10
753.758553
 20
434.217621
 30
0.0
 11
753.758553
 21
403.382379
 31
0.0
  0
LINE
  5
489
100
AcDbEntity
  8
LAY-1
  6
CONTINUOUS
 62
     3
100
AcDbLine
 10
759.09859
 20
403.382379
 30
0.0
 11
759.09859
 21
434.217621
 31
0.0
  0
ARC
  5
48A
100
AcDbEntity
  8
LAY-1
  6
CONTINUOUS
 62
     3
100
AcDbCircle
 10
763.402551
 20
434.4
 30
0.0
 40
0.4
100
AcDbArc
 50
270.0
 51
332.874016
  0
ARC
  5
48B
100
AcDbEntity
  8
LAY-1
  6
CONTINUOUS
 62
     3
100
AcDbCircle
 10
766.428571
 20
432.849775
 30
0.0
 40
3.0
100
AcDbArc
 50
27.125984
 51
152.874016
  0
ARC
  5
48C
100
AcDbEntity
  8
LAY-1
  6
CONTINUOUS
 62
     3
100
AcDbCircle
 10
769.454592
 20
434.4
 30
0.0
 40
0.4
100
AcDbArc
 50
207.125984
 51
270.0
  0
ARC
  5
48D
100
AcDbEntity
  8
LAY-1
  6
CONTINUOUS
 62
     3
100
AcDbCircle
 10
769.454592
 20
403.2
 30
0.0
 40
0.4
100
AcDbArc
 50
90.0
 51
152.874016
  0
ARC
  5
48E
100
AcDbEntity
  8
LAY-1
  6
CONTINUOUS
 62
     3
100
AcDbCircle
 10
766.428571
 20
404.750225
 30
0.0
 40
3.0
100
AcDbArc
 50
207.125984
 51
332.874016
  0
ARC
  5
48F
100
AcDbEntity
  8
LAY-1
  6
CONTINUOUS
 62
     3
100
AcDbCircle
 10
763.402551
 20
403.2
 30
0.0
 40
0.4
100
AcDbArc
 50
27.125984
 51
90.0
  0
LINE
  5
490
100
AcDbEntity
  8
LAY-1
  6
CONTINUOUS
 62
     3
100
AcDbLine
 10
763.758553
 20
434.217621
 30
0.0
 11
763.758553
 21
403.382379
 31
0.0
  0
LINE
  5
491
100
AcDbEntity
  8
LAY-1
  6
CONTINUOUS
 62
     3
100
AcDbLine
 10
769.09859
 20
403.382379
 30
0.0
 11
769.09859
 21
434.217621
 31
0.0
  0
LINE
  5
492
100
AcDbEntity
  8
LAY-1
  6
CONTINUOUS
 62
     3
100
AcDbLine
 10
719.454592
 20
434.0
 30
0.0
 11
723.402551
 21
434.0
 31
0.0
  0
LINE
  5
493
100
AcDbEntity
  8
LAY-1
  6
CONTINUOUS
 62
     3
100
AcDbLine
 10
723.402551
 20
403.6
 30
0.0
 11
719.454592
 21
403.6
 31
0.0
  0
LINE
  5
494
100
AcDbEntity
  8
LAY-1
  6
CONTINUOUS
 62
     3
100
AcDbLine
 10
733.402551
 20
403.6
 30
0.0
 11
729.454592
 21
403.6
 31
0.0
  0
LINE
  5
495
100
AcDbEntity
  8
LAY-1
  6
CONTINUOUS
 62
     3
100
AcDbLine
 10
743.402551
 20
403.6
 30
0.0
 11
739.454592
 21
403.6
 31
0.0
  0
LINE
  5
496
100
AcDbEntity
  8
LAY-1
  6
CONTINUOUS
 62
     3
100
AcDbLine
 10
753.402551
 20
403.6
 30
0.0
 11
749.454592
 21
403.6
 31
0.0
  0
LINE
  5
497
100
AcDbEntity
  8
LAY-1
  6
CONTINUOUS
 62
     3
100
AcDbLine
 10
773.402551
 20
403.6
 30
0.0
 11
769.454592
 21
403.6
 31
0.0
  0
LINE
  5
498
100
AcDbEntity
  8
LAY-1
  6
CONTINUOUS
 62
     3
100
AcDbLine
 10
763.402551
 20
403.6
 30
0.0
 11
759.454592
 21
403.6
 31
0.0
  0
LINE
  5
499
100
AcDbEntity
  8
LAY-1
  6
CONTINUOUS
 62
     3
100
AcDbLine
 10
769.454592
 20
434.0
 30
0.0
 11
773.402551
 21
434.0
 31
0.0
  0
LINE
  5
49A
100
AcDbEntity
  8
LAY-1
  6
CONTINUOUS
 62
     3
100
AcDbLine
 10
759.454592
 20
434.0
 30
0.0
 11
763.402551
 21
434.0
 31
0.0
  0
LINE
  5
49B
100
AcDbEntity
  8
LAY-1
  6
CONTINUOUS
 62
     3
100
AcDbLine
 10
749.454592
 20
434.0
 30
0.0
 11
753.402551
 21
434.0
 31
0.0
  0
LINE
  5
49C
100
AcDbEntity
  8
LAY-1
  6
CONTINUOUS
 62
     3
100
AcDbLine
 10
729.454592
 20
434.0
 30
0.0
 11
733.402551
 21
434.0
 31
0.0
  0
LINE
  5
49D
100
AcDbEntity
  8
LAY-1
  6
CONTINUOUS
 62
     3
100
AcDbLine
 10
739.454592
 20
434.0
 30
0.0
 11
743.402551
 21
434.0
 31
0.0
  0
LINE
  5
49E
100
AcDbEntity
  8
LAY-1
  6
CONTINUOUS
 62
     2
100
AcDbLine
 10
31.378571
 20
559.6
 30
0.0
 11
31.378571
 21
31.3
 31
0.0
  0
LINE
  5
49F
100
AcDbEntity
  8
LAY-1
  6
CONTINUOUS
 62
     3
100
AcDbLine
 10
50.378571
 20
328.8
 30
0.0
 11
52.178571
 21
328.8
 31
0.0
  0
LINE
  5
4A0
100
AcDbEntity
  8
LAY-1
  6
CONTINUOUS
 62
     3
100
AcDbLine
 10
50.378571
 20
288.8
 30
0.0
 11
52.178571
 21
288.8
 31
0.0
  0
LINE
  5
4A1
100
AcDbEntity
  8
LAY-1
  6
CONTINUOUS
 62
     3
100
AcDbLine
 10
48.878571
 20
325.0
 30
0.0
 11
50.378571
 21
325.0
 31
0.0
  0
LINE
  5
4A2
100
AcDbEntity
  8
LAY-1
  6
CONTINUOUS
 62
     3
100
AcDbLine
 10
48.878571
 20
292.6
 30
0.0
 11
50.378571
 21
292.6
 31
0.0
  0
LINE
  5
4A3
100
AcDbEntity
  8
LAY-1
  6
CONTINUOUS
 62
     3
100
AcDbLine
 10
48.878571
 20
325.0
 30
0.0
 11
48.878571
 21
292.6
 31
0.0
  0
LINE
  5
4A4
100
AcDbEntity
  8
LAY-1
  6
CONTINUOUS
 62
     3
100
AcDbLine
 10
50.378571
 20
328.8
 30
0.0
 11
50.378571
 21
288.8
 31
0.0
  0
LINE
  5
4A5
100
AcDbEntity
  8
LAY-1
  6
CONTINUOUS
 62
     3
100
AcDbLine
 10
52.178571
 20
328.8
 30
0.0
 11
52.178571
 21
288.8
 31
0.0
  0
LINE
  5
4A6
100
AcDbEntity
  8
LAY-1
  6
CONTINUOUS
 62
     3
100
AcDbLine
 10
142.378571
 20
328.8
 30
0.0
 11
140.578571
 21
328.8
 31
0.0
  0
LINE
  5
4A7
100
AcDbEntity
  8
LAY-1
  6
CONTINUOUS
 62
     3
100
AcDbLine
 10
142.378571
 20
288.8
 30
0.0
 11
140.578571
 21
288.8
 31
0.0
  0
LINE
  5
4A8
100
AcDbEntity
  8
LAY-1
  6
CONTINUOUS
 62
     3
100
AcDbLine
 10
143.878571
 20
325.0
 30
0.0
 11
142.378571
 21
325.0
 31
0.0
  0
LINE
  5
4A9
100
AcDbEntity
  8
LAY-1
  6
CONTINUOUS
 62
     3
100
AcDbLine
 10
143.878571
 20
292.6
 30
0.0
 11
142.378571
 21
292.6
 31
0.0
  0
LINE
  5
4AA
100
AcDbEntity
  8
LAY-1
  6
CONTINUOUS
 62
     3
100
AcDbLine
 10
143.878571
 20
325.0
 30
0.0
 11
143.878571
 21
292.6
 31
0.0
  0
LINE
  5
4AB
100
AcDbEntity
  8
LAY-1
  6
CONTINUOUS
 62
     3
100
AcDbLine
 10
142.378571
 20
328.8
 30
0.0
 11
142.378571
 21
288.8
 31
0.0
  0
LINE
  5
4AC
100
AcDbEntity
  8
LAY-1
  6
CONTINUOUS
 62
     3
100
AcDbLine
 10
140.578571
 20
328.8
 30
0.0
 11
140.578571
 21
288.8
 31
0.0
  0
LINE
  5
4AD
100
AcDbEntity
  8
LAY-1
  6
CONTINUOUS
 62
     2
100
AcDbLine
 10
161.378571
 20
536.3
 30
0.0
 11
161.378571
 21
241.3
 31
0.0
  0
LINE
  5
4AE
100
AcDbEntity
  8
LAY-1
  6
CONTINUOUS
 62
     3
100
AcDbLine
 10
52.178571
 20
324.0
 30
0.0
 11
57.352551
 21
324.0
 31
0.0
  0
ARC
  5
4AF
100
AcDbEntity
  8
LAY-1
  6
CONTINUOUS
 62
     3
100
AcDbCircle
 10
57.352551
 20
324.4
 30
0.0
 40
0.4
100
AcDbArc
 50
270.0
 51
332.874016
  0
ARC
  5
4B0
100
AcDbEntity
  8
LAY-1
  6
CONTINUOUS
 62
     3
100
AcDbCircle
 10
60.378571
 20
322.849775
 30
0.0
 40
3.0
100
AcDbArc
 50
27.125984
 51
152.874016
  0
ARC
  5
4B1
100
AcDbEntity
  8
LAY-1
  6
CONTINUOUS
 62
     3
100
AcDbCircle
 10
63.404592
 20
324.4
 30
0.0
 40
0.4
100
AcDbArc
 50
207.125984
 51
270.0
  0
ARC
  5
4B2
100
AcDbEntity
  8
LAY-1
  6
CONTINUOUS
 62
     3
100
AcDbCircle
 10
63.404592
 20
293.2
 30
0.0
 40
0.4
100
AcDbArc
 50
90.0
 51
152.874016
  0
LINE
  5
4B3
100
AcDbEntity
  8
LAY-1
  6
CONTINUOUS
 62
     3
100
AcDbLine
 10
57.352551
 20
293.6
 30
0.0
 11
52.178571
 21
293.6
 31
0.0
  0
ARC
  5
4B4
100
AcDbEntity
  8
LAY-1
  6
CONTINUOUS
 62
     3
100
AcDbCircle
 10
60.378571
 20
294.750225
 30
0.0
 40
3.0
100
AcDbArc
 50
207.125984
 51
332.874016
  0
ARC
  5
4B5
100
AcDbEntity
  8
LAY-1
  6
CONTINUOUS
 62
     3
100
AcDbCircle
 10
57.352551
 20
293.2
 30
0.0
 40
0.4
100
AcDbArc
 50
27.125984
 51
90.0
  0
LINE
  5
4B6
100
AcDbEntity
  8
LAY-1
  6
CONTINUOUS
 62
     3
100
AcDbLine
 10
57.708553
 20
324.217621
 30
0.0
 11
57.708553
 21
293.382379
 31
0.0
  0
LINE
  5
4B7
100
AcDbEntity
  8
LAY-1
  6
CONTINUOUS
 62
     3
100
AcDbLine
 10
63.04859
 20
293.382379
 30
0.0
 11
63.04859
 21
324.217621
 31
0.0
  0
ARC
  5
4B8
100
AcDbEntity
  8
LAY-1
  6
CONTINUOUS
 62
     3
100
AcDbCircle
 10
69.352551
 20
324.4
 30
0.0
 40
0.4
100
AcDbArc
 50
270.0
 51
332.874016
  0
ARC
  5
4B9
100
AcDbEntity
  8
LAY-1
  6
CONTINUOUS
 62
     3
100
AcDbCircle
 10
72.378571
 20
322.849775
 30
0.0
 40
3.0
100
AcDbArc
 50
27.125984
 51
152.874016
  0
ARC
  5
4BA
100
AcDbEntity
  8
LAY-1
  6
CONTINUOUS
 62
     3
100
AcDbCircle
 10
75.404592
 20
324.4
 30
0.0
 40
0.4
100
AcDbArc
 50
207.125984
 51
270.0
  0
ARC
  5
4BB
100
AcDbEntity
  8
LAY-1
  6
CONTINUOUS
 62
     3
100
AcDbCircle
 10
75.404592
 20
293.2
 30
0.0
 40
0.4
100
AcDbArc
 50
90.0
 51
152.874016
  0
ARC
  5
4BC
100
AcDbEntity
  8
LAY-1
  6
CONTINUOUS
 62
     3
100
AcDbCircle
 10
72.378571
 20
294.750225
 30
0.0
 40
3.0
100
AcDbArc
 50
207.125984
 51
332.874016
  0
ARC
  5
4BD
100
AcDbEntity
  8
LAY-1
  6
CONTINUOUS
 62
     3
100
AcDbCircle
 10
69.352551
 20
293.2
 30
0.0
 40
0.4
100
AcDbArc
 50
27.125984
 51
90.0
  0
LINE
  5
4BE
100
AcDbEntity
  8
LAY-1
  6
CONTINUOUS
 62
     3
100
AcDbLine
 10
69.708553
 20
324.217621
 30
0.0
 11
69.708553
 21
293.382379
 31
0.0
  0
LINE
  5
4BF
100
AcDbEntity
  8
LAY-1
  6
CONTINUOUS
 62
     3
100
AcDbLine
 10
75.04859
 20
293.382379
 30
0.0
 11
75.04859
 21
324.217621
 31
0.0
  0
ARC
  5
4C0
100
AcDbEntity
  8
LAY-1
  6
CONTINUOUS
 62
     3
100
AcDbCircle
 10
81.352551
 20
324.4
 30
0.0
 40
0.4
100
AcDbArc
 50
270.0
 51
332.874016
  0
ARC
  5
4C1
100
AcDbEntity
  8
LAY-1
  6
CONTINUOUS
 62
     3
100
AcDbCircle
 10
84.378571
 20
322.849775
 30
0.0
 40
3.0
100
AcDbArc
 50
27.125984
 51
152.874016
  0
ARC
  5
4C2
100
AcDbEntity
  8
LAY-1
  6
CONTINUOUS
 62
     3
100
AcDbCircle
 10
87.404592
 20
324.4
 30
0.0
 40
0.4
100
AcDbArc
 50
207.125984
 51
270.0
  0
ARC
  5
4C3
100
AcDbEntity
  8
LAY-1
  6
CONTINUOUS
 62
     3
100
AcDbCircle
 10
87.404592
 20
293.2
 30
0.0
 40
0.4
100
AcDbArc
 50
90.0
 51
152.874016
  0
ARC
  5
4C4
100
AcDbEntity
  8
LAY-1
  6
CONTINUOUS
 62
     3
100
AcDbCircle
 10
84.378571
 20
294.750225
 30
0.0
 40
3.0
100
AcDbArc
 50
207.125984
 51
332.874016
  0
ARC
  5
4C5
100
AcDbEntity
  8
LAY-1
  6
CONTINUOUS
 62
     3
100
AcDbCircle
 10
81.352551
 20
293.2
 30
0.0
 40
0.4
100
AcDbArc
 50
27.125984
 51
90.0
  0
LINE
  5
4C6
100
AcDbEntity
  8
LAY-1
  6
CONTINUOUS
 62
     3
100
AcDbLine
 10
81.708553
 20
324.217621
 30
0.0
 11
81.708553
 21
293.382379
 31
0.0
  0
LINE
  5
4C7
100
AcDbEntity
  8
LAY-1
  6
CONTINUOUS
 62
     3
100
AcDbLine
 10
87.04859
 20
293.382379
 30
0.0
 11
87.04859
 21
324.217621
 31
0.0
  0
ARC
  5
4C8
100
AcDbEntity
  8
LAY-1
  6
CONTINUOUS
 62
     3
100
AcDbCircle
 10
93.352551
 20
324.4
 30
0.0
 40
0.4
100
AcDbArc
 50
270.0
 51
332.874016
  0
ARC
  5
4C9
100
AcDbEntity
  8
LAY-1
  6
CONTINUOUS
 62
     3
100
AcDbCircle
 10
96.378571
 20
322.849775
 30
0.0
 40
3.0
100
AcDbArc
 50
27.125984
 51
152.874016
  0
ARC
  5
4CA
100
AcDbEntity
  8
LAY-1
  6
CONTINUOUS
 62
     3
100
AcDbCircle
 10
99.404592
 20
324.4
 30
0.0
 40
0.4
100
AcDbArc
 50
207.125984
 51
270.0
  0
ARC
  5
4CB
100
AcDbEntity
  8
LAY-1
  6
CONTINUOUS
 62
     3
100
AcDbCircle
 10
99.404592
 20
293.2
 30
0.0
 40
0.4
100
AcDbArc
 50
90.0
 51
152.874016
  0
ARC
  5
4CC
100
AcDbEntity
  8
LAY-1
  6
CONTINUOUS
 62
     3
100
AcDbCircle
 10
96.378571
 20
294.750225
 30
0.0
 40
3.0
100
AcDbArc
 50
207.125984
 51
332.874016
  0
ARC
  5
4CD
100
AcDbEntity
  8
LAY-1
  6
CONTINUOUS
 62
     3
100
AcDbCircle
 10
93.352551
 20
293.2
 30
0.0
 40
0.4
100
AcDbArc
 50
27.125984
 51
90.0
  0
LINE
  5
4CE
100
AcDbEntity
  8
LAY-1
  6
CONTINUOUS
 62
     3
100
AcDbLine
 10
93.708553
 20
324.217621
 30
0.0
 11
93.708553
 21
293.382379
 31
0.0
  0
LINE
  5
4CF
100
AcDbEntity
  8
LAY-1
  6
CONTINUOUS
 62
     3
100
AcDbLine
 10
99.04859
 20
293.382379
 30
0.0
 11
99.04859
 21
324.217621
 31
0.0
  0
ARC
  5
4D0
100
AcDbEntity
  8
LAY-1
  6
CONTINUOUS
 62
     3
100
AcDbCircle
 10
105.352551
 20
324.4
 30
0.0
 40
0.4
100
AcDbArc
 50
270.0
 51
332.874016
  0
ARC
  5
4D1
100
AcDbEntity
  8
LAY-1
  6
CONTINUOUS
 62
     3
100
AcDbCircle
 10
108.378571
 20
322.849775
 30
0.0
 40
3.0
100
AcDbArc
 50
27.125984
 51
152.874016
  0
ARC
  5
4D2
100
AcDbEntity
  8
LAY-1
  6
CONTINUOUS
 62
     3
100
AcDbCircle
 10
111.404592
 20
324.4
 30
0.0
 40
0.4
100
AcDbArc
 50
207.125984
 51
270.0
  0
ARC
  5
4D3
100
AcDbEntity
  8
LAY-1
  6
CONTINUOUS
 62
     3
100
AcDbCircle
 10
111.404592
 20
293.2
 30
0.0
 40
0.4
100
AcDbArc
 50
90.0
 51
152.874016
  0
ARC
  5
4D4
100
AcDbEntity
  8
LAY-1
  6
CONTINUOUS
 62
     3
100
AcDbCircle
 10
108.378571
 20
294.750225
 30
0.0
 40
3.0
100
AcDbArc
 50
207.125984
 51
332.874016
  0
ARC
  5
4D5
100
AcDbEntity
  8
LAY-1
  6
CONTINUOUS
 62
     3
100
AcDbCircle
 10
105.352551
 20
293.2
 30
0.0
 40
0.4
100
AcDbArc
 50
27.125984
 51
90.0
  0
LINE
  5
4D6
100
AcDbEntity
  8
LAY-1
  6
CONTINUOUS
 62
     3
100
AcDbLine
 10
105.708553
 20
324.217621
 30
0.0
 11
105.708553
 21
293.382379
 31
0.0
  0
LINE
  5
4D7
100
AcDbEntity
  8
LAY-1
  6
CONTINUOUS
 62
     3
100
AcDbLine
 10
111.04859
 20
293.382379
 30
0.0
 11
111.04859
 21
324.217621
 31
0.0
  0
ARC
  5
4D8
100
AcDbEntity
  8
LAY-1
  6
CONTINUOUS
 62
     3
100
AcDbCircle
 10
117.352551
 20
324.4
 30
0.0
 40
0.4
100
AcDbArc
 50
270.0
 51
332.874016
  0
ARC
  5
4D9
100
AcDbEntity
  8
LAY-1
  6
CONTINUOUS
 62
     3
100
AcDbCircle
 10
120.378571
 20
322.849775
 30
0.0
 40
3.0
100
AcDbArc
 50
27.125984
 51
152.874016
  0
ARC
  5
4DA
100
AcDbEntity
  8
LAY-1
  6
CONTINUOUS
 62
     3
100
AcDbCircle
 10
123.404592
 20
324.4
 30
0.0
 40
0.4
100
AcDbArc
 50
207.125984
 51
270.0
  0
ARC
  5
4DB
100
AcDbEntity
  8
LAY-1
  6
CONTINUOUS
 62
     3
100
AcDbCircle
 10
123.404592
 20
293.2
 30
0.0
 40
0.4
100
AcDbArc
 50
90.0
 51
152.874016
  0
ARC
  5
4DC
100
AcDbEntity
  8
LAY-1
  6
CONTINUOUS
 62
     3
100
AcDbCircle
 10
120.378571
 20
294.750225
 30
0.0
 40
3.0
100
AcDbArc
 50
207.125984
 51
332.874016
  0
ARC
  5
4DD
100
AcDbEntity
  8
LAY-1
  6
CONTINUOUS
 62
     3
100
AcDbCircle
 10
117.352551
 20
293.2
 30
0.0
 40
0.4
100
AcDbArc
 50
27.125984
 51
90.0
  0
LINE
  5
4DE
100
AcDbEntity
  8
LAY-1
  6
CONTINUOUS
 62
     3
100
AcDbLine
 10
117.708553
 20
324.217621
 30
0.0
 11
117.708553
 21
293.382379
 31
0.0
  0
LINE
  5
4DF
100
AcDbEntity
  8
LAY-1
  6
CONTINUOUS
 62
     3
100
AcDbLine
 10
123.04859
 20
293.382379
 30
0.0
 11
123.04859
 21
324.217621
 31
0.0
  0
ARC
  5
4E0
100
AcDbEntity
  8
LAY-1
  6
CONTINUOUS
 62
     3
100
AcDbCircle
 10
135.404592
 20
324.4
 30
0.0
 40
0.4
100
AcDbArc
 50
207.125984
 51
270.0
  0
ARC
  5
4E1
100
AcDbEntity
  8
LAY-1
  6
CONTINUOUS
 62
     3
100
AcDbCircle
 10
132.378571
 20
322.849775
 30
0.0
 40
3.0
100
AcDbArc
 50
27.125984
 51
152.874016
  0
ARC
  5
4E2
100
AcDbEntity
  8
LAY-1
  6
CONTINUOUS
 62
     3
100
AcDbCircle
 10
129.352551
 20
324.4
 30
0.0
 40
0.4
100
AcDbArc
 50
270.0
 51
332.874016
  0
LINE
  5
4E3
100
AcDbEntity
  8
LAY-1
  6
CONTINUOUS
 62
     3
100
AcDbLine
 10
140.578571
 20
324.0
 30
0.0
 11
135.404592
 21
324.0
 31
0.0
  0
ARC
  5
4E4
100
AcDbEntity
  8
LAY-1
  6
CONTINUOUS
 62
     3
100
AcDbCircle
 10
129.352551
 20
293.2
 30
0.0
 40
0.4
100
AcDbArc
 50
27.125984
 51
90.0
  0
ARC
  5
4E5
100
AcDbEntity
  8
LAY-1
  6
CONTINUOUS
 62
     3
100
AcDbCircle
 10
132.378571
 20
294.750225
 30
0.0
 40
3.0
100
AcDbArc
 50
207.125984
 51
332.874016
  0
ARC
  5
4E6
100
AcDbEntity
  8
LAY-1
  6
CONTINUOUS
 62
     3
100
AcDbCircle
 10
135.404592
 20
293.2
 30
0.0
 40
0.4
100
AcDbArc
 50
90.0
 51
152.874016
  0
LINE
  5
4E7
100
AcDbEntity
  8
LAY-1
  6
CONTINUOUS
 62
     3
100
AcDbLine
 10
135.404592
 20
293.6
 30
0.0
 11
140.578571
 21
293.6
 31
0.0
  0
LINE
  5
4E8
100
AcDbEntity
  8
LAY-1
  6
CONTINUOUS
 62
     3
100
AcDbLine
 10
135.04859
 20
324.217621
 30
0.0
 11
135.04859
 21
293.382379
 31
0.0
  0
LINE
  5
4E9
100
AcDbEntity
  8
LAY-1
  6
CONTINUOUS
 62
     3
100
AcDbLine
 10
129.708553
 20
293.382379
 30
0.0
 11
129.708553
 21
324.217621
 31
0.0
  0
LINE
  5
4EA
100
AcDbEntity
  8
LAY-1
  6
CONTINUOUS
 62
     3
100
AcDbLine
 10
129.352551
 20
293.6
 30
0.0
 11
63.404592
 21
293.6
 31
0.0
  0
LINE
  5
4EB
100
AcDbEntity
  8
LAY-1
  6
CONTINUOUS
 62
     3
100
AcDbLine
 10
63.404592
 20
324.0
 30
0.0
 11
129.352551
 21
324.0
 31
0.0
  0
LINE
  5
4EC
100
AcDbEntity
  8
LAY-1
  6
EXLTYPE3
 62
     1
100
AcDbLine
 10
46.259693
 20
308.8
 30
0.0
 11
146.859693
 21
308.8
 31
0.0
  0
ARC
  5
4ED
100
AcDbEntity
  8
LAY-1
  6
CONTINUOUS
 62
     3
100
AcDbCircle
 10
223.145671
 20
328.6
 30
0.0
 40
0.5
100
AcDbArc
 50
270.0
 51
329.553958
  0
ARC
  5
4EE
100
AcDbEntity
  8
LAY-1
  6
CONTINUOUS
 62
     3
100
AcDbCircle
 10
226.378571
 20
326.699775
 30
0.0
 40
3.25
100
AcDbArc
 50
30.446042
 51
149.553958
  0
ARC
  5
4EF
100
AcDbEntity
  8
LAY-1
  6
CONTINUOUS
 62
     3
100
AcDbCircle
 10
229.611472
 20
328.6
 30
0.0
 40
0.5
100
AcDbArc
 50
210.446042
 51
270.0
  0
ARC
  5
4F0
100
AcDbEntity
  8
LAY-1
  6
CONTINUOUS
 62
     3
100
AcDbCircle
 10
229.611472
 20
289.0
 30
0.0
 40
0.5
100
AcDbArc
 50
90.0
 51
149.553958
  0
ARC
  5
4F1
100
AcDbEntity
  8
LAY-1
  6
CONTINUOUS
 62
     3
100
AcDbCircle
 10
226.378571
 20
290.900225
 30
0.0
 40
3.25
100
AcDbArc
 50
210.446042
 51
329.553958
  0
ARC
  5
4F2
100
AcDbEntity
  8
LAY-1
  6
CONTINUOUS
 62
     3
100
AcDbCircle
 10
223.145671
 20
289.0
 30
0.0
 40
0.5
100
AcDbArc
 50
30.446042
 51
90.0
  0
LINE
  5
4F3
100
AcDbEntity
  8
LAY-1
  6
CONTINUOUS
 62
     3
100
AcDbLine
 10
223.576725
 20
289.253363
 30
0.0
 11
223.576725
 21
328.346637
 31
0.0
  0
LINE
  5
4F4
100
AcDbEntity
  8
LAY-1
  6
CONTINUOUS
 62
     3
100
AcDbLine
 10
229.249779
 20
328.254778
 30
0.0
 11
229.249779
 21
289.253363
 31
0.0
  0
LINE
  5
4F5
100
AcDbEntity
  8
LAY-1
  6
CONTINUOUS
 62
     3
100
AcDbLine
 10
279.878571
 20
333.3
 30
0.0
 11
277.878571
 21
333.3
 31
0.0
  0
LINE
  5
4F6
100
AcDbEntity
  8
LAY-1
  6
CONTINUOUS
 62
     3
100
AcDbLine
 10
279.878571
 20
284.3
 30
0.0
 11
277.878571
 21
284.3
 31
0.0
  0
LINE
  5
4F7
100
AcDbEntity
  8
LAY-1
  6
CONTINUOUS
 62
     3
100
AcDbLine
 10
281.378571
 20
329.6
 30
0.0
 11
279.878571
 21
329.6
 31
0.0
  0
LINE
  5
4F8
100
AcDbEntity
  8
LAY-1
  6
CONTINUOUS
 62
     3
100
AcDbLine
 10
281.378571
 20
288.0
 30
0.0
 11
279.878571
 21
288.0
 31
0.0
  0
LINE
  5
4F9
100
AcDbEntity
  8
LAY-1
  6
CONTINUOUS
 62
     3
100
AcDbLine
 10
281.378571
 20
329.6
 30
0.0
 11
281.378571
 21
288.0
 31
0.0
  0
LINE
  5
4FA
100
AcDbEntity
  8
LAY-1
  6
CONTINUOUS
 62
     3
100
AcDbLine
 10
279.878571
 20
333.3
 30
0.0
 11
279.878571
 21
284.3
 31
0.0
  0
LINE
  5
4FB
100
AcDbEntity
  8
LAY-1
  6
CONTINUOUS
 62
     3
100
AcDbLine
 10
277.878571
 20
333.3
 30
0.0
 11
277.878571
 21
284.3
 31
0.0
  0
LINE
  5
4FC
100
AcDbEntity
  8
LAY-1
  6
CONTINUOUS
 62
     3
100
AcDbLine
 10
172.878571
 20
333.3
 30
0.0
 11
174.878571
 21
333.3
 31
0.0
  0
LINE
  5
4FD
100
AcDbEntity
  8
LAY-1
  6
CONTINUOUS
 62
     3
100
AcDbLine
 10
172.878571
 20
284.3
 30
0.0
 11
174.878571
 21
284.3
 31
0.0
  0
LINE
  5
4FE
100
AcDbEntity
  8
LAY-1
  6
CONTINUOUS
 62
     3
100
AcDbLine
 10
171.378571
 20
329.6
 30
0.0
 11
172.878571
 21
329.6
 31
0.0
  0
LINE
  5
4FF
100
AcDbEntity
  8
LAY-1
  6
CONTINUOUS
 62
     3
100
AcDbLine
 10
171.378571
 20
288.0
 30
0.0
 11
172.878571
 21
288.0
 31
0.0
  0
LINE
  5
500
100
AcDbEntity
  8
LAY-1
  6
CONTINUOUS
 62
     3
100
AcDbLine
 10
171.378571
 20
329.6
 30
0.0
 11
171.378571
 21
288.0
 31
0.0
  0
LINE
  5
501
100
AcDbEntity
  8
LAY-1
  6
CONTINUOUS
 62
     3
100
AcDbLine
 10
172.878571
 20
333.3
 30
0.0
 11
172.878571
 21
284.3
 31
0.0
  0
LINE
  5
502
100
AcDbEntity
  8
LAY-1
  6
CONTINUOUS
 62
     3
100
AcDbLine
 10
174.878571
 20
333.3
 30
0.0
 11
174.878571
 21
284.3
 31
0.0
  0
ARC
  5
503
100
AcDbEntity
  8
LAY-1
  6
CONTINUOUS
 62
     3
100
AcDbCircle
 10
209.145671
 20
328.6
 30
0.0
 40
0.5
100
AcDbArc
 50
270.0
 51
329.553958
  0
ARC
  5
504
100
AcDbEntity
  8
LAY-1
  6
CONTINUOUS
 62
     3
100
AcDbCircle
 10
212.378571
 20
326.699775
 30
0.0
 40
3.25
100
AcDbArc
 50
30.446042
 51
149.553958
  0
ARC
  5
505
100
AcDbEntity
  8
LAY-1
  6
CONTINUOUS
 62
     3
100
AcDbCircle
 10
215.611472
 20
328.6
 30
0.0
 40
0.5
100
AcDbArc
 50
210.446042
 51
270.0
  0
ARC
  5
506
100
AcDbEntity
  8
LAY-1
  6
CONTINUOUS
 62
     3
100
AcDbCircle
 10
215.611472
 20
289.0
 30
0.0
 40
0.5
100
AcDbArc
 50
90.0
 51
149.553958
  0
ARC
  5
507
100
AcDbEntity
  8
LAY-1
  6
CONTINUOUS
 62
     3
100
AcDbCircle
 10
212.378571
 20
290.900225
 30
0.0
 40
3.25
100
AcDbArc
 50
210.446042
 51
329.553958
  0
ARC
  5
508
100
AcDbEntity
  8
LAY-1
  6
CONTINUOUS
 62
     3
100
AcDbCircle
 10
209.145671
 20
289.0
 30
0.0
 40
0.5
100
AcDbArc
 50
30.446042
 51
90.0
  0
LINE
  5
509
100
AcDbEntity
  8
LAY-1
  6
CONTINUOUS
 62
     3
100
AcDbLine
 10
209.576725
 20
289.253363
 30
0.0
 11
209.576725
 21
328.346637
 31
0.0
  0
LINE
  5
50A
100
AcDbEntity
  8
LAY-1
  6
CONTINUOUS
 62
     3
100
AcDbLine
 10
215.249779
 20
328.254778
 30
0.0
 11
215.249779
 21
289.253363
 31
0.0
  0
LINE
  5
50B
100
AcDbEntity
  8
LAY-1
  6
CONTINUOUS
 62
     3
100
AcDbLine
 10
215.611472
 20
328.1
 30
0.0
 11
223.145671
 21
328.1
 31
0.0
  0
LINE
  5
50C
100
AcDbEntity
  8
LAY-1
  6
CONTINUOUS
 62
     3
100
AcDbLine
 10
223.145671
 20
289.5
 30
0.0
 11
215.611472
 21
289.5
 31
0.0
  0
ARC
  5
50D
100
AcDbEntity
  8
LAY-1
  6
CONTINUOUS
 62
     3
100
AcDbCircle
 10
195.145671
 20
328.6
 30
0.0
 40
0.5
100
AcDbArc
 50
270.0
 51
329.553958
  0
ARC
  5
50E
100
AcDbEntity
  8
LAY-1
  6
CONTINUOUS
 62
     3
100
AcDbCircle
 10
198.378571
 20
326.699775
 30
0.0
 40
3.25
100
AcDbArc
 50
30.446042
 51
149.553958
  0
ARC
  5
50F
100
AcDbEntity
  8
LAY-1
  6
CONTINUOUS
 62
     3
100
AcDbCircle
 10
201.611472
 20
328.6
 30
0.0
 40
0.5
100
AcDbArc
 50
210.446042
 51
270.0
  0
ARC
  5
510
100
AcDbEntity
  8
LAY-1
  6
CONTINUOUS
 62
     3
100
AcDbCircle
 10
201.611472
 20
289.0
 30
0.0
 40
0.5
100
AcDbArc
 50
90.0
 51
149.553958
  0
ARC
  5
511
100
AcDbEntity
  8
LAY-1
  6
CONTINUOUS
 62
     3
100
AcDbCircle
 10
198.378571
 20
290.900225
 30
0.0
 40
3.25
100
AcDbArc
 50
210.446042
 51
329.553958
  0
ARC
  5
512
100
AcDbEntity
  8
LAY-1
  6
CONTINUOUS
 62
     3
100
AcDbCircle
 10
195.145671
 20
289.0
 30
0.0
 40
0.5
100
AcDbArc
 50
30.446042
 51
90.0
  0
LINE
  5
513
100
AcDbEntity
  8
LAY-1
  6
CONTINUOUS
 62
     3
100
AcDbLine
 10
195.576725
 20
289.253363
 30
0.0
 11
195.576725
 21
328.346637
 31
0.0
  0
LINE
  5
514
100
AcDbEntity
  8
LAY-1
  6
CONTINUOUS
 62
     3
100
AcDbLine
 10
201.249779
 20
328.254778
 30
0.0
 11
201.249779
 21
289.253363
 31
0.0
  0
LINE
  5
515
100
AcDbEntity
  8
LAY-1
  6
CONTINUOUS
 62
     3
100
AcDbLine
 10
201.611472
 20
328.1
 30
0.0
 11
209.145671
 21
328.1
 31
0.0
  0
LINE
  5
516
100
AcDbEntity
  8
LAY-1
  6
CONTINUOUS
 62
     3
100
AcDbLine
 10
209.145671
 20
289.5
 30
0.0
 11
201.611472
 21
289.5
 31
0.0
  0
ARC
  5
517
100
AcDbEntity
  8
LAY-1
  6
CONTINUOUS
 62
     3
100
AcDbCircle
 10
181.145671
 20
328.6
 30
0.0
 40
0.5
100
AcDbArc
 50
270.0
 51
329.553958
  0
ARC
  5
518
100
AcDbEntity
  8
LAY-1
  6
CONTINUOUS
 62
     3
100
AcDbCircle
 10
184.378571
 20
326.699775
 30
0.0
 40
3.25
100
AcDbArc
 50
30.446042
 51
149.553958
  0
ARC
  5
519
100
AcDbEntity
  8
LAY-1
  6
CONTINUOUS
 62
     3
100
AcDbCircle
 10
187.611472
 20
328.6
 30
0.0
 40
0.5
100
AcDbArc
 50
210.446042
 51
270.0
  0
ARC
  5
51A
100
AcDbEntity
  8
LAY-1
  6
CONTINUOUS
 62
     3
100
AcDbCircle
 10
187.611472
 20
289.0
 30
0.0
 40
0.5
100
AcDbArc
 50
90.0
 51
149.553958
  0
ARC
  5
51B
100
AcDbEntity
  8
LAY-1
  6
CONTINUOUS
 62
     3
100
AcDbCircle
 10
184.378571
 20
290.900225
 30
0.0
 40
3.25
100
AcDbArc
 50
210.446042
 51
329.553958
  0
ARC
  5
51C
100
AcDbEntity
  8
LAY-1
  6
CONTINUOUS
 62
     3
100
AcDbCircle
 10
181.145671
 20
289.0
 30
0.0
 40
0.5
100
AcDbArc
 50
30.446042
 51
90.0
  0
LINE
  5
51D
100
AcDbEntity
  8
LAY-1
  6
CONTINUOUS
 62
     3
100
AcDbLine
 10
181.576725
 20
289.253363
 30
0.0
 11
181.576725
 21
328.346637
 31
0.0
  0
LINE
  5
51E
100
AcDbEntity
  8
LAY-1
  6
CONTINUOUS
 62
     3
100
AcDbLine
 10
187.249779
 20
328.254778
 30
0.0
 11
187.249779
 21
289.253363
 31
0.0
  0
ARC
  5
51F
100
AcDbEntity
  8
LAY-1
  6
CONTINUOUS
 62
     3
100
AcDbCircle
 10
243.611472
 20
328.6
 30
0.0
 40
0.5
100
AcDbArc
 50
210.446042
 51
270.0
  0
ARC
  5
520
100
AcDbEntity
  8
LAY-1
  6
CONTINUOUS
 62
     3
100
AcDbCircle
 10
240.378571
 20
326.699775
 30
0.0
 40
3.25
100
AcDbArc
 50
30.446042
 51
149.553958
  0
ARC
  5
521
100
AcDbEntity
  8
LAY-1
  6
CONTINUOUS
 62
     3
100
AcDbCircle
 10
237.145671
 20
328.6
 30
0.0
 40
0.5
100
AcDbArc
 50
270.0
 51
329.553958
  0
ARC
  5
522
100
AcDbEntity
  8
LAY-1
  6
CONTINUOUS
 62
     3
100
AcDbCircle
 10
237.145671
 20
289.0
 30
0.0
 40
0.5
100
AcDbArc
 50
30.446042
 51
90.0
  0
ARC
  5
523
100
AcDbEntity
  8
LAY-1
  6
CONTINUOUS
 62
     3
100
AcDbCircle
 10
240.378571
 20
290.900225
 30
0.0
 40
3.25
100
AcDbArc
 50
210.446042
 51
329.553958
  0
ARC
  5
524
100
AcDbEntity
  8
LAY-1
  6
CONTINUOUS
 62
     3
100
AcDbCircle
 10
243.611472
 20
289.0
 30
0.0
 40
0.5
100
AcDbArc
 50
90.0
 51
149.553958
  0
LINE
  5
525
100
AcDbEntity
  8
LAY-1
  6
CONTINUOUS
 62
     3
100
AcDbLine
 10
243.180418
 20
289.253363
 30
0.0
 11
243.180418
 21
328.346637
 31
0.0
  0
LINE
  5
526
100
AcDbEntity
  8
LAY-1
  6
CONTINUOUS
 62
     3
100
AcDbLine
 10
237.507364
 20
328.254778
 30
0.0
 11
237.507364
 21
289.253363
 31
0.0
  0
LINE
  5
527
100
AcDbEntity
  8
LAY-1
  6
CONTINUOUS
 62
     3
100
AcDbLine
 10
229.611472
 20
328.1
 30
0.0
 11
237.145671
 21
328.1
 31
0.0
  0
LINE
  5
528
100
AcDbEntity
  8
LAY-1
  6
CONTINUOUS
 62
     3
100
AcDbLine
 10
237.145671
 20
289.5
 30
0.0
 11
229.611472
 21
289.5
 31
0.0
  0
ARC
  5
529
100
AcDbEntity
  8
LAY-1
  6
CONTINUOUS
 62
     3
100
AcDbCircle
 10
257.611472
 20
328.6
 30
0.0
 40
0.5
100
AcDbArc
 50
210.446042
 51
270.0
  0
ARC
  5
52A
100
AcDbEntity
  8
LAY-1
  6
CONTINUOUS
 62
     3
100
AcDbCircle
 10
254.378571
 20
326.699775
 30
0.0
 40
3.25
100
AcDbArc
 50
30.446042
 51
149.553958
  0
ARC
  5
52B
100
AcDbEntity
  8
LAY-1
  6
CONTINUOUS
 62
     3
100
AcDbCircle
 10
251.145671
 20
328.6
 30
0.0
 40
0.5
100
AcDbArc
 50
270.0
 51
329.553958
  0
ARC
  5
52C
100
AcDbEntity
  8
LAY-1
  6
CONTINUOUS
 62
     3
100
AcDbCircle
 10
251.145671
 20
289.0
 30
0.0
 40
0.5
100
AcDbArc
 50
30.446042
 51
90.0
  0
ARC
  5
52D
100
AcDbEntity
  8
LAY-1
  6
CONTINUOUS
 62
     3
100
AcDbCircle
 10
254.378571
 20
290.900225
 30
0.0
 40
3.25
100
AcDbArc
 50
210.446042
 51
329.553958
  0
ARC
  5
52E
100
AcDbEntity
  8
LAY-1
  6
CONTINUOUS
 62
     3
100
AcDbCircle
 10
257.611472
 20
289.0
 30
0.0
 40
0.5
100
AcDbArc
 50
90.0
 51
149.553958
  0
LINE
  5
52F
100
AcDbEntity
  8
LAY-1
  6
CONTINUOUS
 62
     3
100
AcDbLine
 10
257.180418
 20
289.253363
 30
0.0
 11
257.180418
 21
328.346637
 31
0.0
  0
LINE
  5
530
100
AcDbEntity
  8
LAY-1
  6
CONTINUOUS
 62
     3
100
AcDbLine
 10
251.507364
 20
328.254778
 30
0.0
 11
251.507364
 21
289.253363
 31
0.0
  0
LINE
  5
531
100
AcDbEntity
  8
LAY-1
  6
CONTINUOUS
 62
     3
100
AcDbLine
 10
243.611472
 20
328.1
 30
0.0
 11
251.145671
 21
328.1
 31
0.0
  0
LINE
  5
532
100
AcDbEntity
  8
LAY-1
  6
CONTINUOUS
 62
     3
100
AcDbLine
 10
251.145671
 20
289.5
 30
0.0
 11
243.611472
 21
289.5
 31
0.0
  0
ARC
  5
533
100
AcDbEntity
  8
LAY-1
  6
CONTINUOUS
 62
     3
100
AcDbCircle
 10
271.611472
 20
328.6
 30
0.0
 40
0.5
100
AcDbArc
 50
210.446042
 51
270.0
  0
ARC
  5
534
100
AcDbEntity
  8
LAY-1
  6
CONTINUOUS
 62
     3
100
AcDbCircle
 10
268.378571
 20
326.699775
 30
0.0
 40
3.25
100
AcDbArc
 50
30.446042
 51
149.553958
  0
ARC
  5
535
100
AcDbEntity
  8
LAY-1
  6
CONTINUOUS
 62
     3
100
AcDbCircle
 10
265.145671
 20
328.6
 30
0.0
 40
0.5
100
AcDbArc
 50
270.0
 51
329.553958
  0
ARC
  5
536
100
AcDbEntity
  8
LAY-1
  6
CONTINUOUS
 62
     3
100
AcDbCircle
 10
265.145671
 20
289.0
 30
0.0
 40
0.5
100
AcDbArc
 50
30.446042
 51
90.0
  0
ARC
  5
537
100
AcDbEntity
  8
LAY-1
  6
CONTINUOUS
 62
     3
100
AcDbCircle
 10
268.378571
 20
290.900225
 30
0.0
 40
3.25
100
AcDbArc
 50
210.446042
 51
329.553958
  0
ARC
  5
538
100
AcDbEntity
  8
LAY-1
  6
CONTINUOUS
 62
     3
100
AcDbCircle
 10
271.611472
 20
289.0
 30
0.0
 40
0.5
100
AcDbArc
 50
90.0
 51
149.553958
  0
LINE
  5
539
100
AcDbEntity
  8
LAY-1
  6
CONTINUOUS
 62
     3
100
AcDbLine
 10
271.180418
 20
289.253363
 30
0.0
 11
271.180418
 21
328.346637
 31
0.0
  0
LINE
  5
53A
100
AcDbEntity
  8
LAY-1
  6
CONTINUOUS
 62
     3
100
AcDbLine
 10
265.507364
 20
328.254778
 30
0.0
 11
265.507364
 21
289.253363
 31
0.0
  0
LINE
  5
53B
100
AcDbEntity
  8
LAY-1
  6
EXLTYPE3
 62
     1
100
AcDbLine
 10
164.473979
 20
308.8
 30
0.0
 11
290.173979
 21
308.8
 31
0.0
  0
LINE
  5
53C
100
AcDbEntity
  8
LAY-1
  6
CONTINUOUS
 62
     3
100
AcDbLine
 10
174.878571
 20
328.1
 30
0.0
 11
181.145671
 21
328.1
 31
0.0
  0
LINE
  5
53D
100
AcDbEntity
  8
LAY-1
  6
CONTINUOUS
 62
     3
100
AcDbLine
 10
187.611472
 20
328.1
 30
0.0
 11
195.145671
 21
328.1
 31
0.0
  0
LINE
  5
53E
100
AcDbEntity
  8
LAY-1
  6
CONTINUOUS
 62
     3
100
AcDbLine
 10
195.145671
 20
289.5
 30
0.0
 11
187.611472
 21
289.5
 31
0.0
  0
LINE
  5
53F
100
AcDbEntity
  8
LAY-1
  6
CONTINUOUS
 62
     3
100
AcDbLine
 10
181.145671
 20
289.5
 30
0.0
 11
174.878571
 21
289.5
 31
0.0
  0
LINE
  5
540
100
AcDbEntity
  8
LAY-1
  6
CONTINUOUS
 62
     3
100
AcDbLine
 10
277.878571
 20
328.1
 30
0.0
 11
271.611472
 21
328.1
 31
0.0
  0
LINE
  5
541
100
AcDbEntity
  8
LAY-1
  6
CONTINUOUS
 62
     3
100
AcDbLine
 10
265.145671
 20
328.1
 30
0.0
 11
257.611472
 21
328.1
 31
0.0
  0
LINE
  5
542
100
AcDbEntity
  8
LAY-1
  6
CONTINUOUS
 62
     3
100
AcDbLine
 10
257.611472
 20
289.5
 30
0.0
 11
265.145671
 21
289.5
 31
0.0
  0
LINE
  5
543
100
AcDbEntity
  8
LAY-1
  6
CONTINUOUS
 62
     3
100
AcDbLine
 10
271.611472
 20
289.5
 30
0.0
 11
277.878571
 21
289.5
 31
0.0
  0
ARC
  5
544
100
AcDbEntity
  8
LAY-1
  6
CONTINUOUS
 62
     3
100
AcDbCircle
 10
353.145671
 20
332.55
 30
0.0
 40
0.5
100
AcDbArc
 50
270.0
 51
329.553958
  0
ARC
  5
545
100
AcDbEntity
  8
LAY-1
  6
CONTINUOUS
 62
     3
100
AcDbCircle
 10
356.378571
 20
330.649775
 30
0.0
 40
3.25
100
AcDbArc
 50
30.446042
 51
149.553958
  0
ARC
  5
546
100
AcDbEntity
  8
LAY-1
  6
CONTINUOUS
 62
     3
100
AcDbCircle
 10
359.611472
 20
332.55
 30
0.0
 40
0.5
100
AcDbArc
 50
210.446042
 51
270.0
  0
ARC
  5
547
100
AcDbEntity
  8
LAY-1
  6
CONTINUOUS
 62
     3
100
AcDbCircle
 10
359.611472
 20
285.05
 30
0.0
 40
0.5
100
AcDbArc
 50
90.0
 51
149.553958
  0
ARC
  5
548
100
AcDbEntity
  8
LAY-1
  6
CONTINUOUS
 62
     3
100
AcDbCircle
 10
356.378571
 20
286.950225
 30
0.0
 40
3.25
100
AcDbArc
 50
210.446042
 51
329.553958
  0
ARC
  5
549
100
AcDbEntity
  8
LAY-1
  6
CONTINUOUS
 62
     3
100
AcDbCircle
 10
353.145671
 20
285.05
 30
0.0
 40
0.5
100
AcDbArc
 50
30.446042
 51
90.0
  0
LINE
  5
54A
100
AcDbEntity
  8
LAY-1
  6
CONTINUOUS
 62
     3
100
AcDbLine
 10
353.576725
 20
285.303363
 30
0.0
 11
353.576725
 21
332.296637
 31
0.0
  0
LINE
  5
54B
100
AcDbEntity
  8
LAY-1
  6
CONTINUOUS
 62
     3
100
AcDbLine
 10
359.249779
 20
332.204778
 30
0.0
 11
359.249779
 21
285.303363
 31
0.0
  0
LINE
  5
54C
100
AcDbEntity
  8
LAY-1
  6
CONTINUOUS
 62
     3
100
AcDbLine
 10
409.878571
 20
336.8
 30
0.0
 11
407.878571
 21
336.8
 31
0.0
  0
LINE
  5
54D
100
AcDbEntity
  8
LAY-1
  6
CONTINUOUS
 62
     3
100
AcDbLine
 10
409.878571
 20
280.8
 30
0.0
 11
407.878571
 21
280.8
 31
0.0
  0
LINE
  5
54E
100
AcDbEntity
  8
LAY-1
  6
CONTINUOUS
 62
     3
100
AcDbLine
 10
411.378571
 20
333.05
 30
0.0
 11
409.878571
 21
333.05
 31
0.0
  0
LINE
  5
54F
100
AcDbEntity
  8
LAY-1
  6
CONTINUOUS
 62
     3
100
AcDbLine
 10
411.378571
 20
284.55
 30
0.0
 11
409.878571
 21
284.55
 31
0.0
  0
LINE
  5
550
100
AcDbEntity
  8
LAY-1
  6
CONTINUOUS
 62
     3
100
AcDbLine
 10
411.378571
 20
333.05
 30
0.0
 11
411.378571
 21
284.55
 31
0.0
  0
LINE
  5
551
100
AcDbEntity
  8
LAY-1
  6
CONTINUOUS
 62
     3
100
AcDbLine
 10
409.878571
 20
336.8
 30
0.0
 11
409.878571
 21
280.8
 31
0.0
  0
LINE
  5
552
100
AcDbEntity
  8
LAY-1
  6
CONTINUOUS
 62
     3
100
AcDbLine
 10
407.878571
 20
336.8
 30
0.0
 11
407.878571
 21
280.8
 31
0.0
  0
LINE
  5
553
100
AcDbEntity
  8
LAY-1
  6
CONTINUOUS
 62
     3
100
AcDbLine
 10
302.878571
 20
336.8
 30
0.0
 11
304.878571
 21
336.8
 31
0.0
  0
LINE
  5
554
100
AcDbEntity
  8
LAY-1
  6
CONTINUOUS
 62
     3
100
AcDbLine
 10
302.878571
 20
280.8
 30
0.0
 11
304.878571
 21
280.8
 31
0.0
  0
LINE
  5
555
100
AcDbEntity
  8
LAY-1
  6
CONTINUOUS
 62
     3
100
AcDbLine
 10
301.378571
 20
333.05
 30
0.0
 11
302.878571
 21
333.05
 31
0.0
  0
LINE
  5
556
100
AcDbEntity
  8
LAY-1
  6
CONTINUOUS
 62
     3
100
AcDbLine
 10
301.378571
 20
284.55
 30
0.0
 11
302.878571
 21
284.55
 31
0.0
  0
LINE
  5
557
100
AcDbEntity
  8
LAY-1
  6
CONTINUOUS
 62
     3
100
AcDbLine
 10
301.378571
 20
333.05
 30
0.0
 11
301.378571
 21
284.55
 31
0.0
  0
LINE
  5
558
100
AcDbEntity
  8
LAY-1
  6
CONTINUOUS
 62
     3
100
AcDbLine
 10
302.878571
 20
336.8
 30
0.0
 11
302.878571
 21
280.8
 31
0.0
  0
LINE
  5
559
100
AcDbEntity
  8
LAY-1
  6
CONTINUOUS
 62
     3
100
AcDbLine
 10
304.878571
 20
336.8
 30
0.0
 11
304.878571
 21
280.8
 31
0.0
  0
ARC
  5
55A
100
AcDbEntity
  8
LAY-1
  6
CONTINUOUS
 62
     3
100
AcDbCircle
 10
367.145671
 20
332.55
 30
0.0
 40
0.5
100
AcDbArc
 50
270.0
 51
329.553958
  0
ARC
  5
55B
100
AcDbEntity
  8
LAY-1
  6
CONTINUOUS
 62
     3
100
AcDbCircle
 10
370.378571
 20
330.649775
 30
0.0
 40
3.25
100
AcDbArc
 50
30.446042
 51
149.553958
  0
ARC
  5
55C
100
AcDbEntity
  8
LAY-1
  6
CONTINUOUS
 62
     3
100
AcDbCircle
 10
373.611472
 20
332.55
 30
0.0
 40
0.5
100
AcDbArc
 50
210.446042
 51
270.0
  0
ARC
  5
55D
100
AcDbEntity
  8
LAY-1
  6
CONTINUOUS
 62
     3
100
AcDbCircle
 10
373.611472
 20
285.05
 30
0.0
 40
0.5
100
AcDbArc
 50
90.0
 51
149.553958
  0
ARC
  5
55E
100
AcDbEntity
  8
LAY-1
  6
CONTINUOUS
 62
     3
100
AcDbCircle
 10
370.378571
 20
286.950225
 30
0.0
 40
3.25
100
AcDbArc
 50
210.446042
 51
329.553958
  0
ARC
  5
55F
100
AcDbEntity
  8
LAY-1
  6
CONTINUOUS
 62
     3
100
AcDbCircle
 10
367.145671
 20
285.05
 30
0.0
 40
0.5
100
AcDbArc
 50
30.446042
 51
90.0
  0
LINE
  5
560
100
AcDbEntity
  8
LAY-1
  6
CONTINUOUS
 62
     3
100
AcDbLine
 10
367.576725
 20
285.303363
 30
0.0
 11
367.576725
 21
332.296637
 31
0.0
  0
LINE
  5
561
100
AcDbEntity
  8
LAY-1
  6
CONTINUOUS
 62
     3
100
AcDbLine
 10
373.249779
 20
332.204778
 30
0.0
 11
373.249779
 21
285.303363
 31
0.0
  0
LINE
  5
562
100
AcDbEntity
  8
LAY-1
  6
CONTINUOUS
 62
     3
100
AcDbLine
 10
359.611472
 20
332.05
 30
0.0
 11
367.145671
 21
332.05
 31
0.0
  0
LINE
  5
563
100
AcDbEntity
  8
LAY-1
  6
CONTINUOUS
 62
     3
100
AcDbLine
 10
367.145671
 20
285.55
 30
0.0
 11
359.611472
 21
285.55
 31
0.0
  0
LINE
  5
564
100
AcDbEntity
  8
LAY-1
  6
CONTINUOUS
 62
     3
100
AcDbLine
 10
381.145671
 20
285.55
 30
0.0
 11
373.611472
 21
285.55
 31
0.0
  0
LINE
  5
565
100
AcDbEntity
  8
LAY-1
  6
CONTINUOUS
 62
     3
100
AcDbLine
 10
373.611472
 20
332.05
 30
0.0
 11
381.145671
 21
332.05
 31
0.0
  0
LINE
  5
566
100
AcDbEntity
  8
LAY-1
  6
CONTINUOUS
 62
     3
100
AcDbLine
 10
381.507364
 20
332.204778
 30
0.0
 11
381.507364
 21
285.303363
 31
0.0
  0
LINE
  5
567
100
AcDbEntity
  8
LAY-1
  6
CONTINUOUS
 62
     3
100
AcDbLine
 10
387.180418
 20
285.303363
 30
0.0
 11
387.180418
 21
332.296637
 31
0.0
  0
ARC
  5
568
100
AcDbEntity
  8
LAY-1
  6
CONTINUOUS
 62
     3
100
AcDbCircle
 10
387.611472
 20
285.05
 30
0.0
 40
0.5
100
AcDbArc
 50
90.0
 51
149.553958
  0
ARC
  5
569
100
AcDbEntity
  8
LAY-1
  6
CONTINUOUS
 62
     3
100
AcDbCircle
 10
384.378571
 20
286.950225
 30
0.0
 40
3.25
100
AcDbArc
 50
210.446042
 51
329.553958
  0
ARC
  5
56A
100
AcDbEntity
  8
LAY-1
  6
CONTINUOUS
 62
     3
100
AcDbCircle
 10
381.145671
 20
285.05
 30
0.0
 40
0.5
100
AcDbArc
 50
30.446042
 51
90.0
  0
ARC
  5
56B
100
AcDbEntity
  8
LAY-1
  6
CONTINUOUS
 62
     3
100
AcDbCircle
 10
381.145671
 20
332.55
 30
0.0
 40
0.5
100
AcDbArc
 50
270.0
 51
329.553958
  0
ARC
  5
56C
100
AcDbEntity
  8
LAY-1
  6
CONTINUOUS
 62
     3
100
AcDbCircle
 10
384.378571
 20
330.649775
 30
0.0
 40
3.25
100
AcDbArc
 50
30.446042
 51
149.553958
  0
ARC
  5
56D
100
AcDbEntity
  8
LAY-1
  6
CONTINUOUS
 62
     3
100
AcDbCircle
 10
387.611472
 20
332.55
 30
0.0
 40
0.5
100
AcDbArc
 50
210.446042
 51
270.0
  0
LINE
  5
56E
100
AcDbEntity
  8
LAY-1
  6
CONTINUOUS
 62
     3
100
AcDbLine
 10
395.507364
 20
332.204778
 30
0.0
 11
395.507364
 21
285.303363
 31
0.0
  0
LINE
  5
56F
100
AcDbEntity
  8
LAY-1
  6
CONTINUOUS
 62
     3
100
AcDbLine
 10
401.180418
 20
285.303363
 30
0.0
 11
401.180418
 21
332.296637
 31
0.0
  0
ARC
  5
570
100
AcDbEntity
  8
LAY-1
  6
CONTINUOUS
 62
     3
100
AcDbCircle
 10
401.611472
 20
285.05
 30
0.0
 40
0.5
100
AcDbArc
 50
90.0
 51
149.553958
  0
ARC
  5
571
100
AcDbEntity
  8
LAY-1
  6
CONTINUOUS
 62
     3
100
AcDbCircle
 10
398.378571
 20
286.950225
 30
0.0
 40
3.25
100
AcDbArc
 50
210.446042
 51
329.553958
  0
ARC
  5
572
100
AcDbEntity
  8
LAY-1
  6
CONTINUOUS
 62
     3
100
AcDbCircle
 10
395.145671
 20
285.05
 30
0.0
 40
0.5
100
AcDbArc
 50
30.446042
 51
90.0
  0
ARC
  5
573
100
AcDbEntity
  8
LAY-1
  6
CONTINUOUS
 62
     3
100
AcDbCircle
 10
395.145671
 20
332.55
 30
0.0
 40
0.5
100
AcDbArc
 50
270.0
 51
329.553958
  0
ARC
  5
574
100
AcDbEntity
  8
LAY-1
  6
CONTINUOUS
 62
     3
100
AcDbCircle
 10
398.378571
 20
330.649775
 30
0.0
 40
3.25
100
AcDbArc
 50
30.446042
 51
149.553958
  0
ARC
  5
575
100
AcDbEntity
  8
LAY-1
  6
CONTINUOUS
 62
     3
100
AcDbCircle
 10
401.611472
 20
332.55
 30
0.0
 40
0.5
100
AcDbArc
 50
210.446042
 51
270.0
  0
ARC
  5
576
100
AcDbEntity
  8
LAY-1
  6
CONTINUOUS
 62
     3
100
AcDbCircle
 10
339.145671
 20
332.55
 30
0.0
 40
0.5
100
AcDbArc
 50
270.0
 51
329.553958
  0
ARC
  5
577
100
AcDbEntity
  8
LAY-1
  6
CONTINUOUS
 62
     3
100
AcDbCircle
 10
342.378571
 20
330.649775
 30
0.0
 40
3.25
100
AcDbArc
 50
30.446042
 51
149.553958
  0
ARC
  5
578
100
AcDbEntity
  8
LAY-1
  6
CONTINUOUS
 62
     3
100
AcDbCircle
 10
345.611472
 20
332.55
 30
0.0
 40
0.5
100
AcDbArc
 50
210.446042
 51
270.0
  0
ARC
  5
579
100
AcDbEntity
  8
LAY-1
  6
CONTINUOUS
 62
     3
100
AcDbCircle
 10
345.611472
 20
285.05
 30
0.0
 40
0.5
100
AcDbArc
 50
90.0
 51
149.553958
  0
ARC
  5
57A
100
AcDbEntity
  8
LAY-1
  6
CONTINUOUS
 62
     3
100
AcDbCircle
 10
342.378571
 20
286.950225
 30
0.0
 40
3.25
100
AcDbArc
 50
210.446042
 51
329.553958
  0
ARC
  5
57B
100
AcDbEntity
  8
LAY-1
  6
CONTINUOUS
 62
     3
100
AcDbCircle
 10
339.145671
 20
285.05
 30
0.0
 40
0.5
100
AcDbArc
 50
30.446042
 51
90.0
  0
LINE
  5
57C
100
AcDbEntity
  8
LAY-1
  6
CONTINUOUS
 62
     3
100
AcDbLine
 10
339.576725
 20
285.303363
 30
0.0
 11
339.576725
 21
332.296637
 31
0.0
  0
LINE
  5
57D
100
AcDbEntity
  8
LAY-1
  6
CONTINUOUS
 62
     3
100
AcDbLine
 10
345.249779
 20
332.204778
 30
0.0
 11
345.249779
 21
285.303363
 31
0.0
  0
LINE
  5
57E
100
AcDbEntity
  8
LAY-1
  6
CONTINUOUS
 62
     3
100
AcDbLine
 10
345.611472
 20
332.05
 30
0.0
 11
353.145671
 21
332.05
 31
0.0
  0
LINE
  5
57F
100
AcDbEntity
  8
LAY-1
  6
CONTINUOUS
 62
     3
100
AcDbLine
 10
353.145671
 20
285.55
 30
0.0
 11
345.611472
 21
285.55
 31
0.0
  0
ARC
  5
580
100
AcDbEntity
  8
LAY-1
  6
CONTINUOUS
 62
     3
100
AcDbCircle
 10
325.145671
 20
332.55
 30
0.0
 40
0.5
100
AcDbArc
 50
270.0
 51
329.553958
  0
ARC
  5
581
100
AcDbEntity
  8
LAY-1
  6
CONTINUOUS
 62
     3
100
AcDbCircle
 10
328.378571
 20
330.649775
 30
0.0
 40
3.25
100
AcDbArc
 50
30.446042
 51
149.553958
  0
ARC
  5
582
100
AcDbEntity
  8
LAY-1
  6
CONTINUOUS
 62
     3
100
AcDbCircle
 10
331.611472
 20
332.55
 30
0.0
 40
0.5
100
AcDbArc
 50
210.446042
 51
270.0
  0
ARC
  5
583
100
AcDbEntity
  8
LAY-1
  6
CONTINUOUS
 62
     3
100
AcDbCircle
 10
331.611472
 20
285.05
 30
0.0
 40
0.5
100
AcDbArc
 50
90.0
 51
149.553958
  0
ARC
  5
584
100
AcDbEntity
  8
LAY-1
  6
CONTINUOUS
 62
     3
100
AcDbCircle
 10
328.378571
 20
286.950225
 30
0.0
 40
3.25
100
AcDbArc
 50
210.446042
 51
329.553958
  0
ARC
  5
585
100
AcDbEntity
  8
LAY-1
  6
CONTINUOUS
 62
     3
100
AcDbCircle
 10
325.145671
 20
285.05
 30
0.0
 40
0.5
100
AcDbArc
 50
30.446042
 51
90.0
  0
LINE
  5
586
100
AcDbEntity
  8
LAY-1
  6
CONTINUOUS
 62
     3
100
AcDbLine
 10
325.576725
 20
285.303363
 30
0.0
 11
325.576725
 21
332.296637
 31
0.0
  0
LINE
  5
587
100
AcDbEntity
  8
LAY-1
  6
CONTINUOUS
 62
     3
100
AcDbLine
 10
331.249779
 20
332.204778
 30
0.0
 11
331.249779
 21
285.303363
 31
0.0
  0
LINE
  5
588
100
AcDbEntity
  8
LAY-1
  6
CONTINUOUS
 62
     3
100
AcDbLine
 10
331.611472
 20
332.05
 30
0.0
 11
339.145671
 21
332.05
 31
0.0
  0
LINE
  5
589
100
AcDbEntity
  8
LAY-1
  6
CONTINUOUS
 62
     3
100
AcDbLine
 10
339.145671
 20
285.55
 30
0.0
 11
331.611472
 21
285.55
 31
0.0
  0
ARC
  5
58A
100
AcDbEntity
  8
LAY-1
  6
CONTINUOUS
 62
     3
100
AcDbCircle
 10
311.145671
 20
332.55
 30
0.0
 40
0.5
100
AcDbArc
 50
270.0
 51
329.553958
  0
ARC
  5
58B
100
AcDbEntity
  8
LAY-1
  6
CONTINUOUS
 62
     3
100
AcDbCircle
 10
314.378571
 20
330.649775
 30
0.0
 40
3.25
100
AcDbArc
 50
30.446042
 51
149.553958
  0
ARC
  5
58C
100
AcDbEntity
  8
LAY-1
  6
CONTINUOUS
 62
     3
100
AcDbCircle
 10
317.611472
 20
332.55
 30
0.0
 40
0.5
100
AcDbArc
 50
210.446042
 51
270.0
  0
ARC
  5
58D
100
AcDbEntity
  8
LAY-1
  6
CONTINUOUS
 62
     3
100
AcDbCircle
 10
317.611472
 20
285.05
 30
0.0
 40
0.5
100
AcDbArc
 50
90.0
 51
149.553958
  0
ARC
  5
58E
100
AcDbEntity
  8
LAY-1
  6
CONTINUOUS
 62
     3
100
AcDbCircle
 10
314.378571
 20
286.950225
 30
0.0
 40
3.25
100
AcDbArc
 50
210.446042
 51
329.553958
  0
ARC
  5
58F
100
AcDbEntity
  8
LAY-1
  6
CONTINUOUS
 62
     3
100
AcDbCircle
 10
311.145671
 20
285.05
 30
0.0
 40
0.5
100
AcDbArc
 50
30.446042
 51
90.0
  0
LINE
  5
590
100
AcDbEntity
  8
LAY-1
  6
CONTINUOUS
 62
     3
100
AcDbLine
 10
311.576725
 20
285.303363
 30
0.0
 11
311.576725
 21
332.296637
 31
0.0
  0
LINE
  5
591
100
AcDbEntity
  8
LAY-1
  6
CONTINUOUS
 62
     3
100
AcDbLine
 10
317.249779
 20
332.204778
 30
0.0
 11
317.249779
 21
285.303363
 31
0.0
  0
LINE
  5
592
100
AcDbEntity
  8
LAY-1
  6
EXLTYPE3
 62
     1
100
AcDbLine
 10
295.478571
 20
308.8
 30
0.0
 11
417.178571
 21
308.8
 31
0.0
  0
LINE
  5
593
100
AcDbEntity
  8
LAY-1
  6
CONTINUOUS
 62
     3
100
AcDbLine
 10
304.878571
 20
332.05
 30
0.0
 11
311.145671
 21
332.05
 31
0.0
  0
LINE
  5
594
100
AcDbEntity
  8
LAY-1
  6
CONTINUOUS
 62
     3
100
AcDbLine
 10
317.611472
 20
332.05
 30
0.0
 11
325.145671
 21
332.05
 31
0.0
  0
LINE
  5
595
100
AcDbEntity
  8
LAY-1
  6
CONTINUOUS
 62
     3
100
AcDbLine
 10
325.145671
 20
285.55
 30
0.0
 11
317.611472
 21
285.55
 31
0.0
  0
LINE
  5
596
100
AcDbEntity
  8
LAY-1
  6
CONTINUOUS
 62
     3
100
AcDbLine
 10
311.145671
 20
285.55
 30
0.0
 11
304.878571
 21
285.55
 31
0.0
  0
LINE
  5
597
100
AcDbEntity
  8
LAY-1
  6
CONTINUOUS
 62
     3
100
AcDbLine
 10
387.611472
 20
285.55
 30
0.0
 11
395.145671
 21
285.55
 31
0.0
  0
LINE
  5
598
100
AcDbEntity
  8
LAY-1
  6
CONTINUOUS
 62
     3
100
AcDbLine
 10
401.611472
 20
285.55
 30
0.0
 11
407.878571
 21
285.55
 31
0.0
  0
LINE
  5
599
100
AcDbEntity
  8
LAY-1
  6
CONTINUOUS
 62
     3
100
AcDbLine
 10
407.878571
 20
332.05
 30
0.0
 11
401.611472
 21
332.05
 31
0.0
  0
LINE
  5
59A
100
AcDbEntity
  8
LAY-1
  6
CONTINUOUS
 62
     3
100
AcDbLine
 10
395.145671
 20
332.05
 30
0.0
 11
387.611472
 21
332.05
 31
0.0
  0
ARC
  5
59B
100
AcDbEntity
  8
LAY-1
  6
CONTINUOUS
 62
     3
100
AcDbCircle
 10
483.145671
 20
335.05
 30
0.0
 40
0.5
100
AcDbArc
 50
270.0
 51
329.553958
  0
ARC
  5
59C
100
AcDbEntity
  8
LAY-1
  6
CONTINUOUS
 62
     3
100
AcDbCircle
 10
486.378571
 20
333.149775
 30
0.0
 40
3.25
100
AcDbArc
 50
30.446042
 51
149.553958
  0
ARC
  5
59D
100
AcDbEntity
  8
LAY-1
  6
CONTINUOUS
 62
     3
100
AcDbCircle
 10
489.611472
 20
335.05
 30
0.0
 40
0.5
100
AcDbArc
 50
210.446042
 51
270.0
  0
ARC
  5
59E
100
AcDbEntity
  8
LAY-1
  6
CONTINUOUS
 62
     3
100
AcDbCircle
 10
489.611472
 20
282.55
 30
0.0
 40
0.5
100
AcDbArc
 50
90.0
 51
149.553958
  0
ARC
  5
59F
100
AcDbEntity
  8
LAY-1
  6
CONTINUOUS
 62
     3
100
AcDbCircle
 10
486.378571
 20
284.450225
 30
0.0
 40
3.25
100
AcDbArc
 50
210.446042
 51
329.553958
  0
ARC
  5
5A0
100
AcDbEntity
  8
LAY-1
  6
CONTINUOUS
 62
     3
100
AcDbCircle
 10
483.145671
 20
282.55
 30
0.0
 40
0.5
100
AcDbArc
 50
30.446042
 51
90.0
  0
LINE
  5
5A1
100
AcDbEntity
  8
LAY-1
  6
CONTINUOUS
 62
     3
100
AcDbLine
 10
483.576725
 20
282.803363
 30
0.0
 11
483.576725
 21
334.796637
 31
0.0
  0
LINE
  5
5A2
100
AcDbEntity
  8
LAY-1
  6
CONTINUOUS
 62
     3
100
AcDbLine
 10
489.249779
 20
334.704778
 30
0.0
 11
489.249779
 21
282.803363
 31
0.0
  0
LINE
  5
5A3
100
AcDbEntity
  8
LAY-1
  6
CONTINUOUS
 62
     3
100
AcDbLine
 10
539.878571
 20
339.8
 30
0.0
 11
537.678571
 21
339.8
 31
0.0
  0
LINE
  5
5A4
100
AcDbEntity
  8
LAY-1
  6
CONTINUOUS
 62
     3
100
AcDbLine
 10
539.878571
 20
277.8
 30
0.0
 11
537.678571
 21
277.8
 31
0.0
  0
LINE
  5
5A5
100
AcDbEntity
  8
LAY-1
  6
CONTINUOUS
 62
     3
100
AcDbLine
 10
541.378571
 20
335.55
 30
0.0
 11
539.878571
 21
335.55
 31
0.0
  0
LINE
  5
5A6
100
AcDbEntity
  8
LAY-1
  6
CONTINUOUS
 62
     3
100
AcDbLine
 10
541.378571
 20
282.05
 30
0.0
 11
539.878571
 21
282.05
 31
0.0
  0
LINE
  5
5A7
100
AcDbEntity
  8
LAY-1
  6
CONTINUOUS
 62
     3
100
AcDbLine
 10
541.378571
 20
335.55
 30
0.0
 11
541.378571
 21
282.05
 31
0.0
  0
LINE
  5
5A8
100
AcDbEntity
  8
LAY-1
  6
CONTINUOUS
 62
     3
100
AcDbLine
 10
539.878571
 20
339.8
 30
0.0
 11
539.878571
 21
277.8
 31
0.0
  0
LINE
  5
5A9
100
AcDbEntity
  8
LAY-1
  6
CONTINUOUS
 62
     3
100
AcDbLine
 10
537.678571
 20
339.8
 30
0.0
 11
537.678571
 21
277.8
 31
0.0
  0
LINE
  5
5AA
100
AcDbEntity
  8
LAY-1
  6
CONTINUOUS
 62
     3
100
AcDbLine
 10
432.878571
 20
339.8
 30
0.0
 11
435.078571
 21
339.8
 31
0.0
  0
LINE
  5
5AB
100
AcDbEntity
  8
LAY-1
  6
CONTINUOUS
 62
     3
100
AcDbLine
 10
432.878571
 20
277.8
 30
0.0
 11
435.078571
 21
277.8
 31
0.0
  0
LINE
  5
5AC
100
AcDbEntity
  8
LAY-1
  6
CONTINUOUS
 62
     3
100
AcDbLine
 10
431.378571
 20
335.55
 30
0.0
 11
432.878571
 21
335.55
 31
0.0
  0
LINE
  5
5AD
100
AcDbEntity
  8
LAY-1
  6
CONTINUOUS
 62
     3
100
AcDbLine
 10
431.378571
 20
282.05
 30
0.0
 11
432.878571
 21
282.05
 31
0.0
  0
LINE
  5
5AE
100
AcDbEntity
  8
LAY-1
  6
CONTINUOUS
 62
     3
100
AcDbLine
 10
431.378571
 20
335.55
 30
0.0
 11
431.378571
 21
282.05
 31
0.0
  0
LINE
  5
5AF
100
AcDbEntity
  8
LAY-1
  6
CONTINUOUS
 62
     3
100
AcDbLine
 10
432.878571
 20
339.8
 30
0.0
 11
432.878571
 21
277.8
 31
0.0
  0
LINE
  5
5B0
100
AcDbEntity
  8
LAY-1
  6
CONTINUOUS
 62
     3
100
AcDbLine
 10
435.078571
 20
339.8
 30
0.0
 11
435.078571
 21
277.8
 31
0.0
  0
ARC
  5
5B1
100
AcDbEntity
  8
LAY-1
  6
CONTINUOUS
 62
     3
100
AcDbCircle
 10
469.145671
 20
335.05
 30
0.0
 40
0.5
100
AcDbArc
 50
270.0
 51
329.553958
  0
ARC
  5
5B2
100
AcDbEntity
  8
LAY-1
  6
CONTINUOUS
 62
     3
100
AcDbCircle
 10
472.378571
 20
333.149775
 30
0.0
 40
3.25
100
AcDbArc
 50
30.446042
 51
149.553958
  0
ARC
  5
5B3
100
AcDbEntity
  8
LAY-1
  6
CONTINUOUS
 62
     3
100
AcDbCircle
 10
475.611472
 20
335.05
 30
0.0
 40
0.5
100
AcDbArc
 50
210.446042
 51
270.0
  0
ARC
  5
5B4
100
AcDbEntity
  8
LAY-1
  6
CONTINUOUS
 62
     3
100
AcDbCircle
 10
475.611472
 20
282.55
 30
0.0
 40
0.5
100
AcDbArc
 50
90.0
 51
149.553958
  0
ARC
  5
5B5
100
AcDbEntity
  8
LAY-1
  6
CONTINUOUS
 62
     3
100
AcDbCircle
 10
472.378571
 20
284.450225
 30
0.0
 40
3.25
100
AcDbArc
 50
210.446042
 51
329.553958
  0
ARC
  5
5B6
100
AcDbEntity
  8
LAY-1
  6
CONTINUOUS
 62
     3
100
AcDbCircle
 10
469.145671
 20
282.55
 30
0.0
 40
0.5
100
AcDbArc
 50
30.446042
 51
90.0
  0
LINE
  5
5B7
100
AcDbEntity
  8
LAY-1
  6
CONTINUOUS
 62
     3
100
AcDbLine
 10
469.576725
 20
282.803363
 30
0.0
 11
469.576725
 21
334.796637
 31
0.0
  0
LINE
  5
5B8
100
AcDbEntity
  8
LAY-1
  6
CONTINUOUS
 62
     3
100
AcDbLine
 10
475.249779
 20
334.704778
 30
0.0
 11
475.249779
 21
282.803363
 31
0.0
  0
LINE
  5
5B9
100
AcDbEntity
  8
LAY-1
  6
CONTINUOUS
 62
     3
100
AcDbLine
 10
475.611472
 20
334.55
 30
0.0
 11
483.145671
 21
334.55
 31
0.0
  0
LINE
  5
5BA
100
AcDbEntity
  8
LAY-1
  6
CONTINUOUS
 62
     3
100
AcDbLine
 10
483.145671
 20
283.05
 30
0.0
 11
475.611472
 21
283.05
 31
0.0
  0
ARC
  5
5BB
100
AcDbEntity
  8
LAY-1
  6
CONTINUOUS
 62
     3
100
AcDbCircle
 10
455.145671
 20
335.05
 30
0.0
 40
0.5
100
AcDbArc
 50
270.0
 51
329.553958
  0
ARC
  5
5BC
100
AcDbEntity
  8
LAY-1
  6
CONTINUOUS
 62
     3
100
AcDbCircle
 10
458.378571
 20
333.149775
 30
0.0
 40
3.25
100
AcDbArc
 50
30.446042
 51
149.553958
  0
ARC
  5
5BD
100
AcDbEntity
  8
LAY-1
  6
CONTINUOUS
 62
     3
100
AcDbCircle
 10
461.611472
 20
335.05
 30
0.0
 40
0.5
100
AcDbArc
 50
210.446042
 51
270.0
  0
ARC
  5
5BE
100
AcDbEntity
  8
LAY-1
  6
CONTINUOUS
 62
     3
100
AcDbCircle
 10
461.611472
 20
282.55
 30
0.0
 40
0.5
100
AcDbArc
 50
90.0
 51
149.553958
  0
ARC
  5
5BF
100
AcDbEntity
  8
LAY-1
  6
CONTINUOUS
 62
     3
100
AcDbCircle
 10
458.378571
 20
284.450225
 30
0.0
 40
3.25
100
AcDbArc
 50
210.446042
 51
329.553958
  0
ARC
  5
5C0
100
AcDbEntity
  8
LAY-1
  6
CONTINUOUS
 62
     3
100
AcDbCircle
 10
455.145671
 20
282.55
 30
0.0
 40
0.5
100
AcDbArc
 50
30.446042
 51
90.0
  0
LINE
  5
5C1
100
AcDbEntity
  8
LAY-1
  6
CONTINUOUS
 62
     3
100
AcDbLine
 10
455.576725
 20
282.803363
 30
0.0
 11
455.576725
 21
334.796637
 31
0.0
  0
LINE
  5
5C2
100
AcDbEntity
  8
LAY-1
  6
CONTINUOUS
 62
     3
100
AcDbLine
 10
461.249779
 20
334.704778
 30
0.0
 11
461.249779
 21
282.803363
 31
0.0
  0
LINE
  5
5C3
100
AcDbEntity
  8
LAY-1
  6
CONTINUOUS
 62
     3
100
AcDbLine
 10
461.611472
 20
334.55
 30
0.0
 11
469.145671
 21
334.55
 31
0.0
  0
LINE
  5
5C4
100
AcDbEntity
  8
LAY-1
  6
CONTINUOUS
 62
     3
100
AcDbLine
 10
469.145671
 20
283.05
 30
0.0
 11
461.611472
 21
283.05
 31
0.0
  0
ARC
  5
5C5
100
AcDbEntity
  8
LAY-1
  6
CONTINUOUS
 62
     3
100
AcDbCircle
 10
441.145671
 20
335.05
 30
0.0
 40
0.5
100
AcDbArc
 50
270.0
 51
329.553958
  0
ARC
  5
5C6
100
AcDbEntity
  8
LAY-1
  6
CONTINUOUS
 62
     3
100
AcDbCircle
 10
444.378571
 20
333.149775
 30
0.0
 40
3.25
100
AcDbArc
 50
30.446042
 51
149.553958
  0
ARC
  5
5C7
100
AcDbEntity
  8
LAY-1
  6
CONTINUOUS
 62
     3
100
AcDbCircle
 10
447.611472
 20
335.05
 30
0.0
 40
0.5
100
AcDbArc
 50
210.446042
 51
270.0
  0
ARC
  5
5C8
100
AcDbEntity
  8
LAY-1
  6
CONTINUOUS
 62
     3
100
AcDbCircle
 10
447.611472
 20
282.55
 30
0.0
 40
0.5
100
AcDbArc
 50
90.0
 51
149.553958
  0
ARC
  5
5C9
100
AcDbEntity
  8
LAY-1
  6
CONTINUOUS
 62
     3
100
AcDbCircle
 10
444.378571
 20
284.450225
 30
0.0
 40
3.25
100
AcDbArc
 50
210.446042
 51
329.553958
  0
ARC
  5
5CA
100
AcDbEntity
  8
LAY-1
  6
CONTINUOUS
 62
     3
100
AcDbCircle
 10
441.145671
 20
282.55
 30
0.0
 40
0.5
100
AcDbArc
 50
30.446042
 51
90.0
  0
LINE
  5
5CB
100
AcDbEntity
  8
LAY-1
  6
CONTINUOUS
 62
     3
100
AcDbLine
 10
441.576725
 20
282.803363
 30
0.0
 11
441.576725
 21
334.796637
 31
0.0
  0
LINE
  5
5CC
100
AcDbEntity
  8
LAY-1
  6
CONTINUOUS
 62
     3
100
AcDbLine
 10
447.249779
 20
334.704778
 30
0.0
 11
447.249779
 21
282.803363
 31
0.0
  0
LINE
  5
5CD
100
AcDbEntity
  8
LAY-1
  6
CONTINUOUS
 62
     3
100
AcDbLine
 10
455.576725
 20
283.05
 30
0.0
 11
447.611472
 21
283.05
 31
0.0
  0
LINE
  5
5CE
100
AcDbEntity
  8
LAY-1
  6
CONTINUOUS
 62
     3
100
AcDbLine
 10
441.145671
 20
283.05
 30
0.0
 11
435.078571
 21
283.05
 31
0.0
  0
LINE
  5
5CF
100
AcDbEntity
  8
LAY-1
  6
CONTINUOUS
 62
     3
100
AcDbLine
 10
435.078571
 20
334.55
 30
0.0
 11
441.145671
 21
334.55
 31
0.0
  0
LINE
  5
5D0
100
AcDbEntity
  8
LAY-1
  6
CONTINUOUS
 62
     3
100
AcDbLine
 10
447.611472
 20
334.55
 30
0.0
 11
455.576725
 21
334.55
 31
0.0
  0
ARC
  5
5D1
100
AcDbEntity
  8
LAY-1
  6
CONTINUOUS
 62
     3
100
AcDbCircle
 10
497.145671
 20
335.05
 30
0.0
 40
0.5
100
AcDbArc
 50
270.0
 51
329.553958
  0
ARC
  5
5D2
100
AcDbEntity
  8
LAY-1
  6
CONTINUOUS
 62
     3
100
AcDbCircle
 10
500.378571
 20
333.149775
 30
0.0
 40
3.25
100
AcDbArc
 50
30.446042
 51
149.553958
  0
ARC
  5
5D3
100
AcDbEntity
  8
LAY-1
  6
CONTINUOUS
 62
     3
100
AcDbCircle
 10
503.611472
 20
335.05
 30
0.0
 40
0.5
100
AcDbArc
 50
210.446042
 51
270.0
  0
ARC
  5
5D4
100
AcDbEntity
  8
LAY-1
  6
CONTINUOUS
 62
     3
100
AcDbCircle
 10
503.611472
 20
282.55
 30
0.0
 40
0.5
100
AcDbArc
 50
90.0
 51
149.553958
  0
ARC
  5
5D5
100
AcDbEntity
  8
LAY-1
  6
CONTINUOUS
 62
     3
100
AcDbCircle
 10
500.378571
 20
284.450225
 30
0.0
 40
3.25
100
AcDbArc
 50
210.446042
 51
329.553958
  0
ARC
  5
5D6
100
AcDbEntity
  8
LAY-1
  6
CONTINUOUS
 62
     3
100
AcDbCircle
 10
497.145671
 20
282.55
 30
0.0
 40
0.5
100
AcDbArc
 50
30.446042
 51
90.0
  0
LINE
  5
5D7
100
AcDbEntity
  8
LAY-1
  6
CONTINUOUS
 62
     3
100
AcDbLine
 10
497.576725
 20
282.803363
 30
0.0
 11
497.576725
 21
334.796637
 31
0.0
  0
LINE
  5
5D8
100
AcDbEntity
  8
LAY-1
  6
CONTINUOUS
 62
     3
100
AcDbLine
 10
503.249779
 20
334.704778
 30
0.0
 11
503.249779
 21
282.803363
 31
0.0
  0
LINE
  5
5D9
100
AcDbEntity
  8
LAY-1
  6
CONTINUOUS
 62
     3
100
AcDbLine
 10
489.611472
 20
334.55
 30
0.0
 11
497.145671
 21
334.55
 31
0.0
  0
LINE
  5
5DA
100
AcDbEntity
  8
LAY-1
  6
CONTINUOUS
 62
     3
100
AcDbLine
 10
497.145671
 20
283.05
 30
0.0
 11
489.611472
 21
283.05
 31
0.0
  0
ARC
  5
5DB
100
AcDbEntity
  8
LAY-1
  6
CONTINUOUS
 62
     3
100
AcDbCircle
 10
517.611472
 20
335.05
 30
0.0
 40
0.5
100
AcDbArc
 50
210.446042
 51
270.0
  0
ARC
  5
5DC
100
AcDbEntity
  8
LAY-1
  6
CONTINUOUS
 62
     3
100
AcDbCircle
 10
514.378571
 20
333.149775
 30
0.0
 40
3.25
100
AcDbArc
 50
30.446042
 51
149.553958
  0
ARC
  5
5DD
100
AcDbEntity
  8
LAY-1
  6
CONTINUOUS
 62
     3
100
AcDbCircle
 10
511.145671
 20
335.05
 30
0.0
 40
0.5
100
AcDbArc
 50
270.0
 51
329.553958
  0
ARC
  5
5DE
100
AcDbEntity
  8
LAY-1
  6
CONTINUOUS
 62
     3
100
AcDbCircle
 10
511.145671
 20
282.55
 30
0.0
 40
0.5
100
AcDbArc
 50
30.446042
 51
90.0
  0
ARC
  5
5DF
100
AcDbEntity
  8
LAY-1
  6
CONTINUOUS
 62
     3
100
AcDbCircle
 10
514.378571
 20
284.450225
 30
0.0
 40
3.25
100
AcDbArc
 50
210.446042
 51
329.553958
  0
ARC
  5
5E0
100
AcDbEntity
  8
LAY-1
  6
CONTINUOUS
 62
     3
100
AcDbCircle
 10
517.611472
 20
282.55
 30
0.0
 40
0.5
100
AcDbArc
 50
90.0
 51
149.553958
  0
LINE
  5
5E1
100
AcDbEntity
  8
LAY-1
  6
CONTINUOUS
 62
     3
100
AcDbLine
 10
517.180418
 20
282.803363
 30
0.0
 11
517.180418
 21
334.796637
 31
0.0
  0
LINE
  5
5E2
100
AcDbEntity
  8
LAY-1
  6
CONTINUOUS
 62
     3
100
AcDbLine
 10
511.507364
 20
334.704778
 30
0.0
 11
511.507364
 21
282.803363
 31
0.0
  0
LINE
  5
5E3
100
AcDbEntity
  8
LAY-1
  6
CONTINUOUS
 62
     3
100
AcDbLine
 10
503.611472
 20
334.55
 30
0.0
 11
511.145671
 21
334.55
 31
0.0
  0
LINE
  5
5E4
100
AcDbEntity
  8
LAY-1
  6
CONTINUOUS
 62
     3
100
AcDbLine
 10
511.145671
 20
283.05
 30
0.0
 11
503.611472
 21
283.05
 31
0.0
  0
ARC
  5
5E5
100
AcDbEntity
  8
LAY-1
  6
CONTINUOUS
 62
     3
100
AcDbCircle
 10
531.611472
 20
335.05
 30
0.0
 40
0.5
100
AcDbArc
 50
210.446042
 51
270.0
  0
ARC
  5
5E6
100
AcDbEntity
  8
LAY-1
  6
CONTINUOUS
 62
     3
100
AcDbCircle
 10
528.378571
 20
333.149775
 30
0.0
 40
3.25
100
AcDbArc
 50
30.446042
 51
149.553958
  0
ARC
  5
5E7
100
AcDbEntity
  8
LAY-1
  6
CONTINUOUS
 62
     3
100
AcDbCircle
 10
525.145671
 20
335.05
 30
0.0
 40
0.5
100
AcDbArc
 50
270.0
 51
329.553958
  0
ARC
  5
5E8
100
AcDbEntity
  8
LAY-1
  6
CONTINUOUS
 62
     3
100
AcDbCircle
 10
525.145671
 20
282.55
 30
0.0
 40
0.5
100
AcDbArc
 50
30.446042
 51
90.0
  0
ARC
  5
5E9
100
AcDbEntity
  8
LAY-1
  6
CONTINUOUS
 62
     3
100
AcDbCircle
 10
528.378571
 20
284.450225
 30
0.0
 40
3.25
100
AcDbArc
 50
210.446042
 51
329.553958
  0
ARC
  5
5EA
100
AcDbEntity
  8
LAY-1
  6
CONTINUOUS
 62
     3
100
AcDbCircle
 10
531.611472
 20
282.55
 30
0.0
 40
0.5
100
AcDbArc
 50
90.0
 51
149.553958
  0
LINE
  5
5EB
100
AcDbEntity
  8
LAY-1
  6
CONTINUOUS
 62
     3
100
AcDbLine
 10
531.180418
 20
282.803363
 30
0.0
 11
531.180418
 21
334.796637
 31
0.0
  0
LINE
  5
5EC
100
AcDbEntity
  8
LAY-1
  6
CONTINUOUS
 62
     3
100
AcDbLine
 10
525.507364
 20
334.704778
 30
0.0
 11
525.507364
 21
282.803363
 31
0.0
  0
LINE
  5
5ED
100
AcDbEntity
  8
LAY-1
  6
CONTINUOUS
 62
     3
100
AcDbLine
 10
537.678571
 20
334.55
 30
0.0
 11
531.611472
 21
334.55
 31
0.0
  0
LINE
  5
5EE
100
AcDbEntity
  8
LAY-1
  6
CONTINUOUS
 62
     3
100
AcDbLine
 10
525.145671
 20
334.55
 30
0.0
 11
517.180418
 21
334.55
 31
0.0
  0
LINE
  5
5EF
100
AcDbEntity
  8
LAY-1
  6
CONTINUOUS
 62
     3
100
AcDbLine
 10
517.180418
 20
283.05
 30
0.0
 11
525.145671
 21
283.05
 31
0.0
  0
LINE
  5
5F0
100
AcDbEntity
  8
LAY-1
  6
CONTINUOUS
 62
     3
100
AcDbLine
 10
531.611472
 20
283.05
 30
0.0
 11
537.678571
 21
283.05
 31
0.0
  0
LINE
  5
5F1
100
AcDbEntity
  8
LAY-1
  6
EXLTYPE3
 62
     1
100
AcDbLine
 10
425.435714
 20
308.8
 30
0.0
 11
550.235714
 21
308.8
 31
0.0
  0
ARC
  5
5F2
100
AcDbEntity
  8
LAY-1
  6
CONTINUOUS
 62
     3
100
AcDbCircle
 10
678.195671
 20
337.55
 30
0.0
 40
0.5
100
AcDbArc
 50
270.0
 51
329.553958
  0
ARC
  5
5F3
100
AcDbEntity
  8
LAY-1
  6
CONTINUOUS
 62
     3
100
AcDbCircle
 10
681.428571
 20
335.649775
 30
0.0
 40
3.25
100
AcDbArc
 50
30.446042
 51
149.553958
  0
ARC
  5
5F4
100
AcDbEntity
  8
LAY-1
  6
CONTINUOUS
 62
     3
100
AcDbCircle
 10
684.661472
 20
337.55
 30
0.0
 40
0.5
100
AcDbArc
 50
210.446042
 51
270.0
  0
ARC
  5
5F5
100
AcDbEntity
  8
LAY-1
  6
CONTINUOUS
 62
     3
100
AcDbCircle
 10
684.661472
 20
280.05
 30
0.0
 40
0.5
100
AcDbArc
 50
90.0
 51
149.553958
  0
ARC
  5
5F6
100
AcDbEntity
  8
LAY-1
  6
CONTINUOUS
 62
     3
100
AcDbCircle
 10
681.428571
 20
281.950225
 30
0.0
 40
3.25
100
AcDbArc
 50
210.446042
 51
329.553958
  0
ARC
  5
5F7
100
AcDbEntity
  8
LAY-1
  6
CONTINUOUS
 62
     3
100
AcDbCircle
 10
678.195671
 20
280.05
 30
0.0
 40
0.5
100
AcDbArc
 50
30.446042
 51
90.0
  0
LINE
  5
5F8
100
AcDbEntity
  8
LAY-1
  6
CONTINUOUS
 62
     3
100
AcDbLine
 10
678.626725
 20
280.303363
 30
0.0
 11
678.626725
 21
337.296637
 31
0.0
  0
LINE
  5
5F9
100
AcDbEntity
  8
LAY-1
  6
CONTINUOUS
 62
     3
100
AcDbLine
 10
684.299779
 20
337.204778
 30
0.0
 11
684.299779
 21
280.303363
 31
0.0
  0
LINE
  5
5FA
100
AcDbEntity
  8
LAY-1
  6
CONTINUOUS
 62
     3
100
AcDbLine
 10
627.928571
 20
342.55
 30
0.0
 11
630.128571
 21
342.55
 31
0.0
  0
LINE
  5
5FB
100
AcDbEntity
  8
LAY-1
  6
CONTINUOUS
 62
     3
100
AcDbLine
 10
627.928571
 20
275.05
 30
0.0
 11
630.128571
 21
275.05
 31
0.0
  0
LINE
  5
5FC
100
AcDbEntity
  8
LAY-1
  6
CONTINUOUS
 62
     3
100
AcDbLine
 10
626.428571
 20
338.05
 30
0.0
 11
627.928571
 21
338.05
 31
0.0
  0
LINE
  5
5FD
100
AcDbEntity
  8
LAY-1
  6
CONTINUOUS
 62
     3
100
AcDbLine
 10
626.428571
 20
279.55
 30
0.0
 11
627.928571
 21
279.55
 31
0.0
  0
LINE
  5
5FE
100
AcDbEntity
  8
LAY-1
  6
CONTINUOUS
 62
     3
100
AcDbLine
 10
626.428571
 20
338.05
 30
0.0
 11
626.428571
 21
279.55
 31
0.0
  0
LINE
  5
5FF
100
AcDbEntity
  8
LAY-1
  6
CONTINUOUS
 62
     3
100
AcDbLine
 10
627.928571
 20
342.55
 30
0.0
 11
627.928571
 21
275.05
 31
0.0
  0
LINE
  5
600
100
AcDbEntity
  8
LAY-1
  6
CONTINUOUS
 62
     3
100
AcDbLine
 10
630.128571
 20
342.55
 30
0.0
 11
630.128571
 21
275.05
 31
0.0
  0
LINE
  5
601
100
AcDbEntity
  8
LAY-1
  6
CONTINUOUS
 62
     3
100
AcDbLine
 10
734.928571
 20
342.55
 30
0.0
 11
732.728571
 21
342.55
 31
0.0
  0
LINE
  5
602
100
AcDbEntity
  8
LAY-1
  6
CONTINUOUS
 62
     3
100
AcDbLine
 10
734.928571
 20
275.05
 30
0.0
 11
732.728571
 21
275.05
 31
0.0
  0
LINE
  5
603
100
AcDbEntity
  8
LAY-1
  6
CONTINUOUS
 62
     3
100
AcDbLine
 10
736.428571
 20
338.05
 30
0.0
 11
734.928571
 21
338.05
 31
0.0
  0
LINE
  5
604
100
AcDbEntity
  8
LAY-1
  6
CONTINUOUS
 62
     3
100
AcDbLine
 10
736.428571
 20
279.55
 30
0.0
 11
734.928571
 21
279.55
 31
0.0
  0
LINE
  5
605
100
AcDbEntity
  8
LAY-1
  6
CONTINUOUS
 62
     3
100
AcDbLine
 10
736.428571
 20
338.05
 30
0.0
 11
736.428571
 21
279.55
 31
0.0
  0
LINE
  5
606
100
AcDbEntity
  8
LAY-1
  6
CONTINUOUS
 62
     3
100
AcDbLine
 10
734.928571
 20
342.55
 30
0.0
 11
734.928571
 21
275.05
 31
0.0
  0
LINE
  5
607
100
AcDbEntity
  8
LAY-1
  6
CONTINUOUS
 62
     3
100
AcDbLine
 10
732.728571
 20
342.55
 30
0.0
 11
732.728571
 21
275.05
 31
0.0
  0
ARC
  5
608
100
AcDbEntity
  8
LAY-1
  6
CONTINUOUS
 62
     3
100
AcDbCircle
 10
664.195671
 20
337.55
 30
0.0
 40
0.5
100
AcDbArc
 50
270.0
 51
329.553958
  0
ARC
  5
609
100
AcDbEntity
  8
LAY-1
  6
CONTINUOUS
 62
     3
100
AcDbCircle
 10
667.428571
 20
335.649775
 30
0.0
 40
3.25
100
AcDbArc
 50
30.446042
 51
149.553958
  0
ARC
  5
60A
100
AcDbEntity
  8
LAY-1
  6
CONTINUOUS
 62
     3
100
AcDbCircle
 10
670.661472
 20
337.55
 30
0.0
 40
0.5
100
AcDbArc
 50
210.446042
 51
270.0
  0
LINE
  5
60B
100
AcDbEntity
  8
LAY-1
  6
CONTINUOUS
 62
     3
100
AcDbLine
 10
670.661472
 20
337.05
 30
0.0
 11
678.195671
 21
337.05
 31
0.0
  0
ARC
  5
60C
100
AcDbEntity
  8
LAY-1
  6
CONTINUOUS
 62
     3
100
AcDbCircle
 10
670.661472
 20
280.05
 30
0.0
 40
0.5
100
AcDbArc
 50
90.0
 51
149.553958
  0
ARC
  5
60D
100
AcDbEntity
  8
LAY-1
  6
CONTINUOUS
 62
     3
100
AcDbCircle
 10
667.428571
 20
281.950225
 30
0.0
 40
3.25
100
AcDbArc
 50
210.446042
 51
329.553958
  0
ARC
  5
60E
100
AcDbEntity
  8
LAY-1
  6
CONTINUOUS
 62
     3
100
AcDbCircle
 10
664.195671
 20
280.05
 30
0.0
 40
0.5
100
AcDbArc
 50
30.446042
 51
90.0
  0
LINE
  5
60F
100
AcDbEntity
  8
LAY-1
  6
CONTINUOUS
 62
     3
100
AcDbLine
 10
678.195671
 20
280.55
 30
0.0
 11
670.661472
 21
280.55
 31
0.0
  0
LINE
  5
610
100
AcDbEntity
  8
LAY-1
  6
CONTINUOUS
 62
     3
100
AcDbLine
 10
664.626725
 20
280.303363
 30
0.0
 11
664.626725
 21
337.296637
 31
0.0
  0
LINE
  5
611
100
AcDbEntity
  8
LAY-1
  6
CONTINUOUS
 62
     3
100
AcDbLine
 10
670.299779
 20
337.204778
 30
0.0
 11
670.299779
 21
280.303363
 31
0.0
  0
ARC
  5
612
100
AcDbEntity
  8
LAY-1
  6
CONTINUOUS
 62
     3
100
AcDbCircle
 10
650.195671
 20
337.55
 30
0.0
 40
0.5
100
AcDbArc
 50
270.0
 51
329.553958
  0
ARC
  5
613
100
AcDbEntity
  8
LAY-1
  6
CONTINUOUS
 62
     3
100
AcDbCircle
 10
653.428571
 20
335.649775
 30
0.0
 40
3.25
100
AcDbArc
 50
30.446042
 51
149.553958
  0
ARC
  5
614
100
AcDbEntity
  8
LAY-1
  6
CONTINUOUS
 62
     3
100
AcDbCircle
 10
656.661472
 20
337.55
 30
0.0
 40
0.5
100
AcDbArc
 50
210.446042
 51
270.0
  0
LINE
  5
615
100
AcDbEntity
  8
LAY-1
  6
CONTINUOUS
 62
     3
100
AcDbLine
 10
656.661472
 20
337.05
 30
0.0
 11
664.195671
 21
337.05
 31
0.0
  0
ARC
  5
616
100
AcDbEntity
  8
LAY-1
  6
CONTINUOUS
 62
     3
100
AcDbCircle
 10
656.661472
 20
280.05
 30
0.0
 40
0.5
100
AcDbArc
 50
90.0
 51
149.553958
  0
ARC
  5
617
100
AcDbEntity
  8
LAY-1
  6
CONTINUOUS
 62
     3
100
AcDbCircle
 10
653.428571
 20
281.950225
 30
0.0
 40
3.25
100
AcDbArc
 50
210.446042
 51
329.553958
  0
ARC
  5
618
100
AcDbEntity
  8
LAY-1
  6
CONTINUOUS
 62
     3
100
AcDbCircle
 10
650.195671
 20
280.05
 30
0.0
 40
0.5
100
AcDbArc
 50
30.446042
 51
90.0
  0
LINE
  5
619
100
AcDbEntity
  8
LAY-1
  6
CONTINUOUS
 62
     3
100
AcDbLine
 10
664.195671
 20
280.55
 30
0.0
 11
656.661472
 21
280.55
 31
0.0
  0
LINE
  5
61A
100
AcDbEntity
  8
LAY-1
  6
CONTINUOUS
 62
     3
100
AcDbLine
 10
650.626725
 20
280.303363
 30
0.0
 11
650.626725
 21
337.296637
 31
0.0
  0
LINE
  5
61B
100
AcDbEntity
  8
LAY-1
  6
CONTINUOUS
 62
     3
100
AcDbLine
 10
656.299779
 20
337.204778
 30
0.0
 11
656.299779
 21
280.303363
 31
0.0
  0
ARC
  5
61C
100
AcDbEntity
  8
LAY-1
  6
CONTINUOUS
 62
     3
100
AcDbCircle
 10
636.195671
 20
337.55
 30
0.0
 40
0.5
100
AcDbArc
 50
270.0
 51
329.553958
  0
ARC
  5
61D
100
AcDbEntity
  8
LAY-1
  6
CONTINUOUS
 62
     3
100
AcDbCircle
 10
639.428571
 20
335.649775
 30
0.0
 40
3.25
100
AcDbArc
 50
30.446042
 51
149.553958
  0
ARC
  5
61E
100
AcDbEntity
  8
LAY-1
  6
CONTINUOUS
 62
     3
100
AcDbCircle
 10
642.661472
 20
337.55
 30
0.0
 40
0.5
100
AcDbArc
 50
210.446042
 51
270.0
  0
ARC
  5
61F
100
AcDbEntity
  8
LAY-1
  6
CONTINUOUS
 62
     3
100
AcDbCircle
 10
642.661472
 20
280.05
 30
0.0
 40
0.5
100
AcDbArc
 50
90.0
 51
149.553958
  0
ARC
  5
620
100
AcDbEntity
  8
LAY-1
  6
CONTINUOUS
 62
     3
100
AcDbCircle
 10
639.428571
 20
281.950225
 30
0.0
 40
3.25
100
AcDbArc
 50
210.446042
 51
329.553958
  0
ARC
  5
621
100
AcDbEntity
  8
LAY-1
  6
CONTINUOUS
 62
     3
100
AcDbCircle
 10
636.195671
 20
280.05
 30
0.0
 40
0.5
100
AcDbArc
 50
30.446042
 51
90.0
  0
LINE
  5
622
100
AcDbEntity
  8
LAY-1
  6
CONTINUOUS
 62
     3
100
AcDbLine
 10
636.626725
 20
280.303363
 30
0.0
 11
636.626725
 21
337.296637
 31
0.0
  0
LINE
  5
623
100
AcDbEntity
  8
LAY-1
  6
CONTINUOUS
 62
     3
100
AcDbLine
 10
642.299779
 20
337.204778
 30
0.0
 11
642.299779
 21
280.303363
 31
0.0
  0
LINE
  5
624
100
AcDbEntity
  8
LAY-1
  6
CONTINUOUS
 62
     3
100
AcDbLine
 10
650.195671
 20
280.55
 30
0.0
 11
642.661472
 21
280.55
 31
0.0
  0
LINE
  5
625
100
AcDbEntity
  8
LAY-1
  6
CONTINUOUS
 62
     3
100
AcDbLine
 10
636.195671
 20
280.55
 30
0.0
 11
630.128571
 21
280.55
 31
0.0
  0
LINE
  5
626
100
AcDbEntity
  8
LAY-1
  6
CONTINUOUS
 62
     3
100
AcDbLine
 10
630.128571
 20
337.05
 30
0.0
 11
636.195671
 21
337.05
 31
0.0
  0
LINE
  5
627
100
AcDbEntity
  8
LAY-1
  6
CONTINUOUS
 62
     3
100
AcDbLine
 10
642.661472
 20
337.05
 30
0.0
 11
650.195671
 21
337.05
 31
0.0
  0
ARC
  5
628
100
AcDbEntity
  8
LAY-1
  6
CONTINUOUS
 62
     3
100
AcDbCircle
 10
692.195671
 20
337.55
 30
0.0
 40
0.5
100
AcDbArc
 50
270.0
 51
329.553958
  0
ARC
  5
629
100
AcDbEntity
  8
LAY-1
  6
CONTINUOUS
 62
     3
100
AcDbCircle
 10
695.428571
 20
335.649775
 30
0.0
 40
3.25
100
AcDbArc
 50
30.446042
 51
149.553958
  0
ARC
  5
62A
100
AcDbEntity
  8
LAY-1
  6
CONTINUOUS
 62
     3
100
AcDbCircle
 10
698.661472
 20
337.55
 30
0.0
 40
0.5
100
AcDbArc
 50
210.446042
 51
270.0
  0
LINE
  5
62B
100
AcDbEntity
  8
LAY-1
  6
CONTINUOUS
 62
     3
100
AcDbLine
 10
684.661472
 20
337.05
 30
0.0
 11
692.195671
 21
337.05
 31
0.0
  0
ARC
  5
62C
100
AcDbEntity
  8
LAY-1
  6
CONTINUOUS
 62
     3
100
AcDbCircle
 10
698.661472
 20
280.05
 30
0.0
 40
0.5
100
AcDbArc
 50
90.0
 51
149.553958
  0
ARC
  5
62D
100
AcDbEntity
  8
LAY-1
  6
CONTINUOUS
 62
     3
100
AcDbCircle
 10
695.428571
 20
281.950225
 30
0.0
 40
3.25
100
AcDbArc
 50
210.446042
 51
329.553958
  0
ARC
  5
62E
100
AcDbEntity
  8
LAY-1
  6
CONTINUOUS
 62
     3
100
AcDbCircle
 10
692.195671
 20
280.05
 30
0.0
 40
0.5
100
AcDbArc
 50
30.446042
 51
90.0
  0
LINE
  5
62F
100
AcDbEntity
  8
LAY-1
  6
CONTINUOUS
 62
     3
100
AcDbLine
 10
692.195671
 20
280.55
 30
0.0
 11
684.661472
 21
280.55
 31
0.0
  0
LINE
  5
630
100
AcDbEntity
  8
LAY-1
  6
CONTINUOUS
 62
     3
100
AcDbLine
 10
692.626725
 20
280.303363
 30
0.0
 11
692.626725
 21
337.296637
 31
0.0
  0
LINE
  5
631
100
AcDbEntity
  8
LAY-1
  6
CONTINUOUS
 62
     3
100
AcDbLine
 10
698.299779
 20
337.204778
 30
0.0
 11
698.299779
 21
280.303363
 31
0.0
  0
ARC
  5
632
100
AcDbEntity
  8
LAY-1
  6
CONTINUOUS
 62
     3
100
AcDbCircle
 10
712.661472
 20
337.55
 30
0.0
 40
0.5
100
AcDbArc
 50
210.446042
 51
270.0
  0
ARC
  5
633
100
AcDbEntity
  8
LAY-1
  6
CONTINUOUS
 62
     3
100
AcDbCircle
 10
709.428571
 20
335.649775
 30
0.0
 40
3.25
100
AcDbArc
 50
30.446042
 51
149.553958
  0
ARC
  5
634
100
AcDbEntity
  8
LAY-1
  6
CONTINUOUS
 62
     3
100
AcDbCircle
 10
706.195671
 20
337.55
 30
0.0
 40
0.5
100
AcDbArc
 50
270.0
 51
329.553958
  0
LINE
  5
635
100
AcDbEntity
  8
LAY-1
  6
CONTINUOUS
 62
     3
100
AcDbLine
 10
698.661472
 20
337.05
 30
0.0
 11
706.195671
 21
337.05
 31
0.0
  0
ARC
  5
636
100
AcDbEntity
  8
LAY-1
  6
CONTINUOUS
 62
     3
100
AcDbCircle
 10
706.195671
 20
280.05
 30
0.0
 40
0.5
100
AcDbArc
 50
30.446042
 51
90.0
  0
ARC
  5
637
100
AcDbEntity
  8
LAY-1
  6
CONTINUOUS
 62
     3
100
AcDbCircle
 10
709.428571
 20
281.950225
 30
0.0
 40
3.25
100
AcDbArc
 50
210.446042
 51
329.553958
  0
ARC
  5
638
100
AcDbEntity
  8
LAY-1
  6
CONTINUOUS
 62
     3
100
AcDbCircle
 10
712.661472
 20
280.05
 30
0.0
 40
0.5
100
AcDbArc
 50
90.0
 51
149.553958
  0
LINE
  5
639
100
AcDbEntity
  8
LAY-1
  6
CONTINUOUS
 62
     3
100
AcDbLine
 10
706.195671
 20
280.55
 30
0.0
 11
698.661472
 21
280.55
 31
0.0
  0
LINE
  5
63A
100
AcDbEntity
  8
LAY-1
  6
CONTINUOUS
 62
     3
100
AcDbLine
 10
712.230418
 20
280.303363
 30
0.0
 11
712.230418
 21
337.296637
 31
0.0
  0
LINE
  5
63B
100
AcDbEntity
  8
LAY-1
  6
CONTINUOUS
 62
     3
100
AcDbLine
 10
706.557364
 20
337.204778
 30
0.0
 11
706.557364
 21
280.303363
 31
0.0
  0
ARC
  5
63C
100
AcDbEntity
  8
LAY-1
  6
CONTINUOUS
 62
     3
100
AcDbCircle
 10
726.661472
 20
337.55
 30
0.0
 40
0.5
100
AcDbArc
 50
210.446042
 51
270.0
  0
ARC
  5
63D
100
AcDbEntity
  8
LAY-1
  6
CONTINUOUS
 62
     3
100
AcDbCircle
 10
723.428571
 20
335.649775
 30
0.0
 40
3.25
100
AcDbArc
 50
30.446042
 51
149.553958
  0
ARC
  5
63E
100
AcDbEntity
  8
LAY-1
  6
CONTINUOUS
 62
     3
100
AcDbCircle
 10
720.195671
 20
337.55
 30
0.0
 40
0.5
100
AcDbArc
 50
270.0
 51
329.553958
  0
ARC
  5
63F
100
AcDbEntity
  8
LAY-1
  6
CONTINUOUS
 62
     3
100
AcDbCircle
 10
720.195671
 20
280.05
 30
0.0
 40
0.5
100
AcDbArc
 50
30.446042
 51
90.0
  0
ARC
  5
640
100
AcDbEntity
  8
LAY-1
  6
CONTINUOUS
 62
     3
100
AcDbCircle
 10
723.428571
 20
281.950225
 30
0.0
 40
3.25
100
AcDbArc
 50
210.446042
 51
329.553958
  0
ARC
  5
641
100
AcDbEntity
  8
LAY-1
  6
CONTINUOUS
 62
     3
100
AcDbCircle
 10
726.661472
 20
280.05
 30
0.0
 40
0.5
100
AcDbArc
 50
90.0
 51
149.553958
  0
LINE
  5
642
100
AcDbEntity
  8
LAY-1
  6
CONTINUOUS
 62
     3
100
AcDbLine
 10
726.230418
 20
280.303363
 30
0.0
 11
726.230418
 21
337.296637
 31
0.0
  0
LINE
  5
643
100
AcDbEntity
  8
LAY-1
  6
CONTINUOUS
 62
     3
100
AcDbLine
 10
720.557364
 20
337.204778
 30
0.0
 11
720.557364
 21
280.303363
 31
0.0
  0
LINE
  5
644
100
AcDbEntity
  8
LAY-1
  6
CONTINUOUS
 62
     3
100
AcDbLine
 10
732.728571
 20
337.05
 30
0.0
 11
726.661472
 21
337.05
 31
0.0
  0
LINE
  5
645
100
AcDbEntity
  8
LAY-1
  6
CONTINUOUS
 62
     3
100
AcDbLine
 10
720.195671
 20
337.05
 30
0.0
 11
712.661472
 21
337.05
 31
0.0
  0
LINE
  5
646
100
AcDbEntity
  8
LAY-1
  6
CONTINUOUS
 62
     3
100
AcDbLine
 10
712.661472
 20
280.55
 30
0.0
 11
720.195671
 21
280.55
 31
0.0
  0
LINE
  5
647
100
AcDbEntity
  8
LAY-1
  6
CONTINUOUS
 62
     3
100
AcDbLine
 10
726.661472
 20
280.55
 30
0.0
 11
732.728571
 21
280.55
 31
0.0
  0
LINE
  5
648
100
AcDbEntity
  8
LAY-1
  6
EXLTYPE3
 62
     1
100
AcDbLine
 10
620.928571
 20
308.8
 30
0.0
 11
740.833867
 21
308.8
 31
0.0
  0
LINE
  5
649
100
AcDbEntity
  8
LAY-1
  6
CONTINUOUS
 62
     3
100
AcDbLine
 10
221.878571
 20
91.55
 30
0.0
 11
219.478571
 21
91.55
 31
0.0
  0
LINE
  5
64A
100
AcDbEntity
  8
LAY-1
  6
CONTINUOUS
 62
     3
100
AcDbLine
 10
221.878571
 20
171.05
 30
0.0
 11
219.478571
 21
171.05
 31
0.0
  0
LINE
  5
64B
100
AcDbEntity
  8
LAY-1
  6
CONTINUOUS
 62
     3
100
AcDbLine
 10
223.878571
 20
165.55
 30
0.0
 11
221.878571
 21
165.55
 31
0.0
  0
LINE
  5
64C
100
AcDbEntity
  8
LAY-1
  6
CONTINUOUS
 62
     3
100
AcDbLine
 10
223.878571
 20
97.05
 30
0.0
 11
221.878571
 21
97.05
 31
0.0
  0
LINE
  5
64D
100
AcDbEntity
  8
LAY-1
  6
CONTINUOUS
 62
     3
100
AcDbLine
 10
223.878571
 20
165.55
 30
0.0
 11
223.878571
 21
97.05
 31
0.0
  0
LINE
  5
64E
100
AcDbEntity
  8
LAY-1
  6
CONTINUOUS
 62
     3
100
AcDbLine
 10
221.878571
 20
171.05
 30
0.0
 11
221.878571
 21
91.55
 31
0.0
  0
LINE
  5
64F
100
AcDbEntity
  8
LAY-1
  6
CONTINUOUS
 62
     3
100
AcDbLine
 10
219.478571
 20
171.05
 30
0.0
 11
219.478571
 21
91.55
 31
0.0
  0
LINE
  5
650
100
AcDbEntity
  8
LAY-1
  6
CONTINUOUS
 62
     3
100
AcDbLine
 10
100.878571
 20
91.55
 30
0.0
 11
103.278571
 21
91.55
 31
0.0
  0
LINE
  5
651
100
AcDbEntity
  8
LAY-1
  6
CONTINUOUS
 62
     3
100
AcDbLine
 10
100.878571
 20
171.05
 30
0.0
 11
103.278571
 21
171.05
 31
0.0
  0
LINE
  5
652
100
AcDbEntity
  8
LAY-1
  6
CONTINUOUS
 62
     3
100
AcDbLine
 10
98.878571
 20
165.55
 30
0.0
 11
100.878571
 21
165.55
 31
0.0
  0
LINE
  5
653
100
AcDbEntity
  8
LAY-1
  6
CONTINUOUS
 62
     3
100
AcDbLine
 10
98.878571
 20
97.05
 30
0.0
 11
100.878571
 21
97.05
 31
0.0
  0
LINE
  5
654
100
AcDbEntity
  8
LAY-1
  6
CONTINUOUS
 62
     3
100
AcDbLine
 10
98.878571
 20
165.55
 30
0.0
 11
98.878571
 21
97.05
 31
0.0
  0
LINE
  5
655
100
AcDbEntity
  8
LAY-1
  6
CONTINUOUS
 62
     3
100
AcDbLine
 10
100.878571
 20
171.05
 30
0.0
 11
100.878571
 21
91.55
 31
0.0
  0
LINE
  5
656
100
AcDbEntity
  8
LAY-1
  6
CONTINUOUS
 62
     3
100
AcDbLine
 10
103.278571
 20
171.05
 30
0.0
 11
103.278571
 21
91.55
 31
0.0
  0
ARC
  5
657
100
AcDbEntity
  8
LAY-1
  6
CONTINUOUS
 62
     3
100
AcDbCircle
 10
158.145671
 20
164.3
 30
0.0
 40
0.5
100
AcDbArc
 50
270.0
 51
329.553958
  0
ARC
  5
658
100
AcDbEntity
  8
LAY-1
  6
CONTINUOUS
 62
     3
100
AcDbCircle
 10
161.378571
 20
162.399775
 30
0.0
 40
3.25
100
AcDbArc
 50
30.446042
 51
149.553958
  0
ARC
  5
659
100
AcDbEntity
  8
LAY-1
  6
CONTINUOUS
 62
     3
100
AcDbCircle
 10
164.611472
 20
164.3
 30
0.0
 40
0.5
100
AcDbArc
 50
210.446042
 51
270.0
  0
ARC
  5
65A
100
AcDbEntity
  8
LAY-1
  6
CONTINUOUS
 62
     3
100
AcDbCircle
 10
164.611472
 20
98.3
 30
0.0
 40
0.5
100
AcDbArc
 50
90.0
 51
149.553958
  0
ARC
  5
65B
100
AcDbEntity
  8
LAY-1
  6
CONTINUOUS
 62
     3
100
AcDbCircle
 10
161.378571
 20
100.200225
 30
0.0
 40
3.25
100
AcDbArc
 50
210.446042
 51
329.553958
  0
ARC
  5
65C
100
AcDbEntity
  8
LAY-1
  6
CONTINUOUS
 62
     3
100
AcDbCircle
 10
158.145671
 20
98.3
 30
0.0
 40
0.5
100
AcDbArc
 50
30.446042
 51
90.0
  0
LINE
  5
65D
100
AcDbEntity
  8
LAY-1
  6
CONTINUOUS
 62
     3
100
AcDbLine
 10
158.445889
 20
98.699836
 30
0.0
 11
158.445889
 21
163.900164
 31
0.0
  0
LINE
  5
65E
100
AcDbEntity
  8
LAY-1
  6
CONTINUOUS
 62
     3
100
AcDbLine
 10
164.180418
 20
164.046637
 30
0.0
 11
164.180418
 21
98.553363
 31
0.0
  0
ARC
  5
65F
100
AcDbEntity
  8
LAY-1
  6
CONTINUOUS
 62
     3
100
AcDbCircle
 10
142.645671
 20
164.3
 30
0.0
 40
0.5
100
AcDbArc
 50
270.0
 51
329.553958
  0
ARC
  5
660
100
AcDbEntity
  8
LAY-1
  6
CONTINUOUS
 62
     3
100
AcDbCircle
 10
145.878571
 20
162.399775
 30
0.0
 40
3.25
100
AcDbArc
 50
30.446042
 51
149.553958
  0
ARC
  5
661
100
AcDbEntity
  8
LAY-1
  6
CONTINUOUS
 62
     3
100
AcDbCircle
 10
149.111472
 20
164.3
 30
0.0
 40
0.5
100
AcDbArc
 50
210.446042
 51
270.0
  0
LINE
  5
662
100
AcDbEntity
  8
LAY-1
  6
CONTINUOUS
 62
     3
100
AcDbLine
 10
149.111472
 20
163.8
 30
0.0
 11
158.145671
 21
163.8
 31
0.0
  0
LINE
  5
663
100
AcDbEntity
  8
LAY-1
  6
CONTINUOUS
 62
     3
100
AcDbLine
 10
158.145671
 20
98.8
 30
0.0
 11
149.111472
 21
98.8
 31
0.0
  0
ARC
  5
664
100
AcDbEntity
  8
LAY-1
  6
CONTINUOUS
 62
     3
100
AcDbCircle
 10
149.111472
 20
98.3
 30
0.0
 40
0.5
100
AcDbArc
 50
90.0
 51
149.553958
  0
ARC
  5
665
100
AcDbEntity
  8
LAY-1
  6
CONTINUOUS
 62
     3
100
AcDbCircle
 10
145.878571
 20
100.200225
 30
0.0
 40
3.25
100
AcDbArc
 50
210.446042
 51
329.553958
  0
ARC
  5
666
100
AcDbEntity
  8
LAY-1
  6
CONTINUOUS
 62
     3
100
AcDbCircle
 10
142.645671
 20
98.3
 30
0.0
 40
0.5
100
AcDbArc
 50
30.446042
 51
90.0
  0
LINE
  5
667
100
AcDbEntity
  8
LAY-1
  6
CONTINUOUS
 62
     3
100
AcDbLine
 10
143.076725
 20
98.553363
 30
0.0
 11
143.076725
 21
164.046637
 31
0.0
  0
LINE
  5
668
100
AcDbEntity
  8
LAY-1
  6
CONTINUOUS
 62
     3
100
AcDbLine
 10
148.680418
 20
164.046637
 30
0.0
 11
148.680418
 21
98.553363
 31
0.0
  0
ARC
  5
669
100
AcDbEntity
  8
LAY-1
  6
CONTINUOUS
 62
     3
100
AcDbCircle
 10
127.145671
 20
164.3
 30
0.0
 40
0.5
100
AcDbArc
 50
270.0
 51
329.553958
  0
ARC
  5
66A
100
AcDbEntity
  8
LAY-1
  6
CONTINUOUS
 62
     3
100
AcDbCircle
 10
130.378571
 20
162.399775
 30
0.0
 40
3.25
100
AcDbArc
 50
30.446042
 51
149.553958
  0
ARC
  5
66B
100
AcDbEntity
  8
LAY-1
  6
CONTINUOUS
 62
     3
100
AcDbCircle
 10
133.611472
 20
164.3
 30
0.0
 40
0.5
100
AcDbArc
 50
210.446042
 51
270.0
  0
LINE
  5
66C
100
AcDbEntity
  8
LAY-1
  6
CONTINUOUS
 62
     3
100
AcDbLine
 10
133.611472
 20
163.8
 30
0.0
 11
142.645671
 21
163.8
 31
0.0
  0
LINE
  5
66D
100
AcDbEntity
  8
LAY-1
  6
CONTINUOUS
 62
     3
100
AcDbLine
 10
142.645671
 20
98.8
 30
0.0
 11
133.611472
 21
98.8
 31
0.0
  0
ARC
  5
66E
100
AcDbEntity
  8
LAY-1
  6
CONTINUOUS
 62
     3
100
AcDbCircle
 10
133.611472
 20
98.3
 30
0.0
 40
0.5
100
AcDbArc
 50
90.0
 51
149.553958
  0
ARC
  5
66F
100
AcDbEntity
  8
LAY-1
  6
CONTINUOUS
 62
     3
100
AcDbCircle
 10
130.378571
 20
100.200225
 30
0.0
 40
3.25
100
AcDbArc
 50
210.446042
 51
329.553958
  0
ARC
  5
670
100
AcDbEntity
  8
LAY-1
  6
CONTINUOUS
 62
     3
100
AcDbCircle
 10
127.145671
 20
98.3
 30
0.0
 40
0.5
100
AcDbArc
 50
30.446042
 51
90.0
  0
LINE
  5
671
100
AcDbEntity
  8
LAY-1
  6
CONTINUOUS
 62
     3
100
AcDbLine
 10
127.576725
 20
98.553363
 30
0.0
 11
127.576725
 21
164.046637
 31
0.0
  0
LINE
  5
672
100
AcDbEntity
  8
LAY-1
  6
CONTINUOUS
 62
     3
100
AcDbLine
 10
133.180418
 20
164.046637
 30
0.0
 11
133.180418
 21
98.553363
 31
0.0
  0
ARC
  5
673
100
AcDbEntity
  8
LAY-1
  6
CONTINUOUS
 62
     3
100
AcDbCircle
 10
111.645671
 20
164.3
 30
0.0
 40
0.5
100
AcDbArc
 50
270.0
 51
329.553958
  0
ARC
  5
674
100
AcDbEntity
  8
LAY-1
  6
CONTINUOUS
 62
     3
100
AcDbCircle
 10
114.878571
 20
162.399775
 30
0.0
 40
3.25
100
AcDbArc
 50
30.446042
 51
149.553958
  0
ARC
  5
675
100
AcDbEntity
  8
LAY-1
  6
CONTINUOUS
 62
     3
100
AcDbCircle
 10
118.111472
 20
164.3
 30
0.0
 40
0.5
100
AcDbArc
 50
210.446042
 51
270.0
  0
LINE
  5
676
100
AcDbEntity
  8
LAY-1
  6
CONTINUOUS
 62
     3
100
AcDbLine
 10
118.111472
 20
163.8
 30
0.0
 11
127.145671
 21
163.8
 31
0.0
  0
LINE
  5
677
100
AcDbEntity
  8
LAY-1
  6
CONTINUOUS
 62
     3
100
AcDbLine
 10
127.145671
 20
98.8
 30
0.0
 11
118.111472
 21
98.8
 31
0.0
  0
ARC
  5
678
100
AcDbEntity
  8
LAY-1
  6
CONTINUOUS
 62
     3
100
AcDbCircle
 10
118.111472
 20
98.3
 30
0.0
 40
0.5
100
AcDbArc
 50
90.0
 51
149.553958
  0
ARC
  5
679
100
AcDbEntity
  8
LAY-1
  6
CONTINUOUS
 62
     3
100
AcDbCircle
 10
114.878571
 20
100.200225
 30
0.0
 40
3.25
100
AcDbArc
 50
210.446042
 51
329.553958
  0
ARC
  5
67A
100
AcDbEntity
  8
LAY-1
  6
CONTINUOUS
 62
     3
100
AcDbCircle
 10
111.645671
 20
98.3
 30
0.0
 40
0.5
100
AcDbArc
 50
30.446042
 51
90.0
  0
LINE
  5
67B
100
AcDbEntity
  8
LAY-1
  6
CONTINUOUS
 62
     3
100
AcDbLine
 10
112.076725
 20
98.553363
 30
0.0
 11
112.076725
 21
164.046637
 31
0.0
  0
LINE
  5
67C
100
AcDbEntity
  8
LAY-1
  6
CONTINUOUS
 62
     3
100
AcDbLine
 10
117.749779
 20
163.954778
 30
0.0
 11
117.749779
 21
98.645222
 31
0.0
  0
LINE
  5
67D
100
AcDbEntity
  8
LAY-1
  6
CONTINUOUS
 62
     3
100
AcDbLine
 10
103.278571
 20
163.8
 30
0.0
 11
111.645671
 21
163.8
 31
0.0
  0
LINE
  5
67E
100
AcDbEntity
  8
LAY-1
  6
CONTINUOUS
 62
     3
100
AcDbLine
 10
111.645671
 20
98.8
 30
0.0
 11
103.278571
 21
98.8
 31
0.0
  0
LINE
  5
67F
100
AcDbEntity
  8
LAY-1
  6
CONTINUOUS
 62
     3
100
AcDbLine
 10
164.611472
 20
163.8
 30
0.0
 11
173.645671
 21
163.8
 31
0.0
  0
ARC
  5
680
100
AcDbEntity
  8
LAY-1
  6
CONTINUOUS
 62
     3
100
AcDbCircle
 10
180.111472
 20
164.3
 30
0.0
 40
0.5
100
AcDbArc
 50
210.446042
 51
270.0
  0
ARC
  5
681
100
AcDbEntity
  8
LAY-1
  6
CONTINUOUS
 62
     3
100
AcDbCircle
 10
176.878571
 20
162.399775
 30
0.0
 40
3.25
100
AcDbArc
 50
30.446042
 51
149.553958
  0
ARC
  5
682
100
AcDbEntity
  8
LAY-1
  6
CONTINUOUS
 62
     3
100
AcDbCircle
 10
173.645671
 20
164.3
 30
0.0
 40
0.5
100
AcDbArc
 50
270.0
 51
329.553958
  0
LINE
  5
683
100
AcDbEntity
  8
LAY-1
  6
CONTINUOUS
 62
     3
100
AcDbLine
 10
173.645671
 20
98.8
 30
0.0
 11
164.611472
 21
98.8
 31
0.0
  0
ARC
  5
684
100
AcDbEntity
  8
LAY-1
  6
CONTINUOUS
 62
     3
100
AcDbCircle
 10
173.645671
 20
98.3
 30
0.0
 40
0.5
100
AcDbArc
 50
30.446042
 51
90.0
  0
ARC
  5
685
100
AcDbEntity
  8
LAY-1
  6
CONTINUOUS
 62
     3
100
AcDbCircle
 10
176.878571
 20
100.200225
 30
0.0
 40
3.25
100
AcDbArc
 50
210.446042
 51
329.553958
  0
ARC
  5
686
100
AcDbEntity
  8
LAY-1
  6
CONTINUOUS
 62
     3
100
AcDbCircle
 10
180.111472
 20
98.3
 30
0.0
 40
0.5
100
AcDbArc
 50
90.0
 51
149.553958
  0
LINE
  5
687
100
AcDbEntity
  8
LAY-1
  6
CONTINUOUS
 62
     3
100
AcDbLine
 10
179.680418
 20
98.553363
 30
0.0
 11
179.680418
 21
164.046637
 31
0.0
  0
LINE
  5
688
100
AcDbEntity
  8
LAY-1
  6
CONTINUOUS
 62
     3
100
AcDbLine
 10
174.007364
 20
163.954778
 30
0.0
 11
174.007364
 21
98.645222
 31
0.0
  0
ARC
  5
689
100
AcDbEntity
  8
LAY-1
  6
CONTINUOUS
 62
     3
100
AcDbCircle
 10
195.611472
 20
164.3
 30
0.0
 40
0.5
100
AcDbArc
 50
210.446042
 51
270.0
  0
ARC
  5
68A
100
AcDbEntity
  8
LAY-1
  6
CONTINUOUS
 62
     3
100
AcDbCircle
 10
192.378571
 20
162.399775
 30
0.0
 40
3.25
100
AcDbArc
 50
30.446042
 51
149.553958
  0
ARC
  5
68B
100
AcDbEntity
  8
LAY-1
  6
CONTINUOUS
 62
     3
100
AcDbCircle
 10
189.145671
 20
164.3
 30
0.0
 40
0.5
100
AcDbArc
 50
270.0
 51
329.553958
  0
LINE
  5
68C
100
AcDbEntity
  8
LAY-1
  6
CONTINUOUS
 62
     3
100
AcDbLine
 10
189.145671
 20
163.8
 30
0.0
 11
180.111472
 21
163.8
 31
0.0
  0
ARC
  5
68D
100
AcDbEntity
  8
LAY-1
  6
CONTINUOUS
 62
     3
100
AcDbCircle
 10
189.145671
 20
98.3
 30
0.0
 40
0.5
100
AcDbArc
 50
30.446042
 51
90.0
  0
ARC
  5
68E
100
AcDbEntity
  8
LAY-1
  6
CONTINUOUS
 62
     3
100
AcDbCircle
 10
192.378571
 20
100.200225
 30
0.0
 40
3.25
100
AcDbArc
 50
210.446042
 51
329.553958
  0
ARC
  5
68F
100
AcDbEntity
  8
LAY-1
  6
CONTINUOUS
 62
     3
100
AcDbCircle
 10
195.611472
 20
98.3
 30
0.0
 40
0.5
100
AcDbArc
 50
90.0
 51
149.553958
  0
LINE
  5
690
100
AcDbEntity
  8
LAY-1
  6
CONTINUOUS
 62
     3
100
AcDbLine
 10
180.111472
 20
98.8
 30
0.0
 11
189.145671
 21
98.8
 31
0.0
  0
LINE
  5
691
100
AcDbEntity
  8
LAY-1
  6
CONTINUOUS
 62
     3
100
AcDbLine
 10
195.180418
 20
98.553363
 30
0.0
 11
195.180418
 21
164.046637
 31
0.0
  0
LINE
  5
692
100
AcDbEntity
  8
LAY-1
  6
CONTINUOUS
 62
     3
100
AcDbLine
 10
189.507364
 20
163.954778
 30
0.0
 11
189.507364
 21
98.645222
 31
0.0
  0
ARC
  5
693
100
AcDbEntity
  8
LAY-1
  6
CONTINUOUS
 62
     3
100
AcDbCircle
 10
211.111472
 20
164.3
 30
0.0
 40
0.5
100
AcDbArc
 50
210.446042
 51
270.0
  0
ARC
  5
694
100
AcDbEntity
  8
LAY-1
  6
CONTINUOUS
 62
     3
100
AcDbCircle
 10
207.878571
 20
162.399775
 30
0.0
 40
3.25
100
AcDbArc
 50
30.446042
 51
149.553958
  0
ARC
  5
695
100
AcDbEntity
  8
LAY-1
  6
CONTINUOUS
 62
     3
100
AcDbCircle
 10
204.645671
 20
164.3
 30
0.0
 40
0.5
100
AcDbArc
 50
270.0
 51
329.553958
  0
ARC
  5
696
100
AcDbEntity
  8
LAY-1
  6
CONTINUOUS
 62
     3
100
AcDbCircle
 10
204.645671
 20
98.3
 30
0.0
 40
0.5
100
AcDbArc
 50
30.446042
 51
90.0
  0
ARC
  5
697
100
AcDbEntity
  8
LAY-1
  6
CONTINUOUS
 62
     3
100
AcDbCircle
 10
207.878571
 20
100.200225
 30
0.0
 40
3.25
100
AcDbArc
 50
210.446042
 51
329.553958
  0
ARC
  5
698
100
AcDbEntity
  8
LAY-1
  6
CONTINUOUS
 62
     3
100
AcDbCircle
 10
211.111472
 20
98.3
 30
0.0
 40
0.5
100
AcDbArc
 50
90.0
 51
149.553958
  0
LINE
  5
699
100
AcDbEntity
  8
LAY-1
  6
CONTINUOUS
 62
     3
100
AcDbLine
 10
210.680418
 20
98.553363
 30
0.0
 11
210.680418
 21
164.046637
 31
0.0
  0
LINE
  5
69A
100
AcDbEntity
  8
LAY-1
  6
CONTINUOUS
 62
     3
100
AcDbLine
 10
205.007364
 20
163.954778
 30
0.0
 11
205.007364
 21
98.645222
 31
0.0
  0
LINE
  5
69B
100
AcDbEntity
  8
LAY-1
  6
CONTINUOUS
 62
     3
100
AcDbLine
 10
219.478571
 20
163.8
 30
0.0
 11
211.111472
 21
163.8
 31
0.0
  0
LINE
  5
69C
100
AcDbEntity
  8
LAY-1
  6
CONTINUOUS
 62
     3
100
AcDbLine
 10
204.645671
 20
163.8
 30
0.0
 11
195.611472
 21
163.8
 31
0.0
  0
LINE
  5
69D
100
AcDbEntity
  8
LAY-1
  6
CONTINUOUS
 62
     3
100
AcDbLine
 10
195.611472
 20
98.8
 30
0.0
 11
204.645671
 21
98.8
 31
0.0
  0
LINE
  5
69E
100
AcDbEntity
  8
LAY-1
  6
CONTINUOUS
 62
     3
100
AcDbLine
 10
211.111472
 20
98.8
 30
0.0
 11
219.478571
 21
98.8
 31
0.0
  0
LINE
  5
69F
100
AcDbEntity
  8
LAY-1
  6
EXLTYPE3
 62
     1
100
AcDbLine
 10
92.95
 20
131.3
 30
0.0
 11
230.84101
 21
131.3
 31
0.0
  0
LINE
  5
6A0
100
AcDbEntity
  8
LAY-1
  6
CONTINUOUS
 62
     2
100
AcDbLine
 10
551.378571
 20
536.3
 30
0.0
 11
551.378571
 21
241.3
 31
0.0
  0
TEXT
  5
6A1
100
AcDbEntity
  8
LAY-1
  6
CONTINUOUS
 62
     7
100
AcDbText
 10
207.4
 20
537.7
 30
0.0
 40
20.0
  1
ＬＳコネクタＧタイプ地震対応型４００ｍｍ偏心・中圧用
 41
0.880385
  7
EXCADSTD
 72
     5
 11
752.4
 21
537.7
 31
0.0
100
AcDbText
  0
LINE
  5
6A2
100
AcDbEntity
  8
LAY-1
  6
CONTINUOUS
 62
     2
100
AcDbLine
 10
121.72
 20
550.768
 30
0.0
 11
121.72
 21
541.108
 31
0.0
  0
LINE
  5
6A3
100
AcDbEntity
  8
LAY-1
  6
CONTINUOUS
 62
     2
100
AcDbLine
 10
124.66
 20
550.768
 30
0.0
 11
124.66
 21
541.108
 31
0.0
  0
CIRCLE
  5
6A4
100
AcDbEntity
  8
LAY-1
  6
CONTINUOUS
 62
     2
100
AcDbCircle
 10
136.84
 20
547.408
 30
0.0
 40
4.452
  0
CIRCLE
  5
6A5
100
AcDbEntity
  8
LAY-1
  6
CONTINUOUS
 62
     2
100
AcDbCircle
 10
136.84
 20
547.408
 30
0.0
 40
5.88
  0
CIRCLE
  5
6A6
100
AcDbEntity
  8
LAY-1
  6
CONTINUOUS
 62
     2
100
AcDbCircle
 10
136.84
 20
547.408
 30
0.0
 40
8.904
  0
LINE
  5
6A7
100
AcDbEntity
  8
LAY-1
  6
CONTINUOUS
 62
     2
100
AcDbLine
 10
115.84
 20
553.708
 30
0.0
 11
115.84
 21
550.768
 31
0.0
  0
LINE
  5
6A8
100
AcDbEntity
  8
LAY-1
  6
CONTINUOUS
 62
     2
100
AcDbLine
 10
121.72
 20
541.108
 30
0.0
 11
124.66
 21
541.108
 31
0.0
  0
ARC
  5
6A9
100
AcDbEntity
  8
LAY-1
  6
CONTINUOUS
 62
     2
100
AcDbCircle
 10
136.84
 20
547.408
 30
0.0
 40
9.769139
100
AcDbArc
 50
139.842723
 51
159.882882
  0
ARC
  5
6AA
100
AcDbEntity
  8
LAY-1
  6
CONTINUOUS
 62
     2
100
AcDbCircle
 10
136.84
 20
547.408
 30
0.0
 40
9.769139
100
AcDbArc
 50
20.117118
 51
40.157277
  0
LINE
  5
6AB
100
AcDbEntity
  8
LAY-1
  6
CONTINUOUS
 62
     2
100
AcDbLine
 10
154.48
 20
544.048
 30
0.0
 11
154.48
 21
541.108
 31
0.0
  0
LINE
  5
6AC
100
AcDbEntity
  8
LAY-1
  6
CONTINUOUS
 62
     2
100
AcDbLine
 10
154.48
 20
553.708
 30
0.0
 11
154.48
 21
550.768
 31
0.0
  0
ARC
  5
6AD
100
AcDbEntity
  8
LAY-1
  6
CONTINUOUS
 62
     2
100
AcDbCircle
 10
136.84
 20
547.408
 30
0.0
 40
9.769139
100
AcDbArc
 50
319.842723
 51
348.135428
  0
LINE
  5
6AE
100
AcDbEntity
  8
LAY-1
  6
CONTINUOUS
 62
     2
100
AcDbLine
 10
154.48
 20
550.768
 30
0.0
 11
148.421927
 21
544.048
 31
0.0
  0
LINE
  5
6AF
100
AcDbEntity
  8
LAY-1
  6
CONTINUOUS
 62
     2
100
AcDbLine
 10
151.240154
 20
550.768
 30
0.0
 11
146.400434
 21
545.399474
 31
0.0
  0
LINE
  5
6B0
100
AcDbEntity
  8
LAY-1
  6
CONTINUOUS
 62
     2
100
AcDbLine
 10
155.908
 20
553.708
 30
0.0
 11
155.908
 21
541.108
 31
0.0
  0
LINE
  5
6B1
100
AcDbEntity
  8
LAY-1
  6
CONTINUOUS
 62
     2
100
AcDbLine
 10
158.848
 20
548.668
 30
0.0
 11
167.164
 21
548.668
 31
0.0
  0
LINE
  5
6B2
100
AcDbEntity
  8
LAY-1
  6
CONTINUOUS
 62
     2
100
AcDbLine
 10
158.848
 20
546.148
 30
0.0
 11
167.164
 21
546.148
 31
0.0
  0
LINE
  5
6B3
100
AcDbEntity
  8
LAY-1
  6
CONTINUOUS
 62
     2
100
AcDbLine
 10
168.424
 20
553.708
 30
0.0
 11
168.424
 21
541.108
 31
0.0
  0
LINE
  5
6B4
100
AcDbEntity
  8
LAY-1
  6
CONTINUOUS
 62
     2
100
AcDbLine
 10
180.016
 20
553.708
 30
0.0
 11
180.016
 21
541.108
 31
0.0
  0
LINE
  5
6B5
100
AcDbEntity
  8
LAY-1
  6
CONTINUOUS
 62
     2
100
AcDbLine
 10
177.16
 20
541.108
 30
0.0
 11
171.28
 21
550.042972
 31
0.0
  0
LINE
  5
6B6
100
AcDbEntity
  8
LAY-1
  6
CONTINUOUS
 62
     2
100
AcDbLine
 10
171.28
 20
553.708
 30
0.0
 11
177.16
 21
544.773028
 31
0.0
  0
LINE
  5
6B7
100
AcDbEntity
  8
LAY-1
  6
CONTINUOUS
 62
     2
100
AcDbLine
 10
167.164
 20
553.708
 30
0.0
 11
167.164
 21
550.768
 31
0.0
  0
LINE
  5
6B8
100
AcDbEntity
  8
LAY-1
  6
CONTINUOUS
 62
     2
100
AcDbLine
 10
167.164
 20
548.668
 30
0.0
 11
167.164
 21
546.148
 31
0.0
  0
LINE
  5
6B9
100
AcDbEntity
  8
LAY-1
  6
CONTINUOUS
 62
     2
100
AcDbLine
 10
167.164
 20
544.048
 30
0.0
 11
167.164
 21
541.108
 31
0.0
  0
LINE
  5
6BA
100
AcDbEntity
  8
LAY-1
  6
CONTINUOUS
 62
     2
100
AcDbLine
 10
158.848
 20
550.768
 30
0.0
 11
167.164
 21
550.768
 31
0.0
  0
LINE
  5
6BB
100
AcDbEntity
  8
LAY-1
  6
CONTINUOUS
 62
     2
100
AcDbLine
 10
155.908
 20
553.708
 30
0.0
 11
167.164
 21
553.708
 31
0.0
  0
LINE
  5
6BC
100
AcDbEntity
  8
LAY-1
  6
CONTINUOUS
 62
     2
100
AcDbLine
 10
158.848
 20
546.148
 30
0.0
 11
158.848
 21
544.048
 31
0.0
  0
LINE
  5
6BD
100
AcDbEntity
  8
LAY-1
  6
CONTINUOUS
 62
     2
100
AcDbLine
 10
155.908
 20
541.108
 30
0.0
 11
167.164
 21
541.108
 31
0.0
  0
LINE
  5
6BE
100
AcDbEntity
  8
LAY-1
  6
CONTINUOUS
 62
     2
100
AcDbLine
 10
158.848
 20
544.048
 30
0.0
 11
167.164
 21
544.048
 31
0.0
  0
LINE
  5
6BF
100
AcDbEntity
  8
LAY-1
  6
CONTINUOUS
 62
     2
100
AcDbLine
 10
171.28
 20
550.042972
 30
0.0
 11
171.28
 21
541.108
 31
0.0
  0
LINE
  5
6C0
100
AcDbEntity
  8
LAY-1
  6
CONTINUOUS
 62
     2
100
AcDbLine
 10
168.424
 20
553.708
 30
0.0
 11
171.28
 21
553.708
 31
0.0
  0
LINE
  5
6C1
100
AcDbEntity
  8
LAY-1
  6
CONTINUOUS
 62
     2
100
AcDbLine
 10
177.16
 20
553.708
 30
0.0
 11
180.016
 21
553.708
 31
0.0
  0
LINE
  5
6C2
100
AcDbEntity
  8
LAY-1
  6
CONTINUOUS
 62
     2
100
AcDbLine
 10
168.424
 20
541.108
 30
0.0
 11
171.28
 21
541.108
 31
0.0
  0
LINE
  5
6C3
100
AcDbEntity
  8
LAY-1
  6
CONTINUOUS
 62
     2
100
AcDbLine
 10
177.16
 20
541.108
 30
0.0
 11
180.016
 21
541.108
 31
0.0
  0
LINE
  5
6C4
100
AcDbEntity
  8
LAY-1
  6
CONTINUOUS
 62
     2
100
AcDbLine
 10
177.16
 20
553.708
 30
0.0
 11
177.16
 21
544.773028
 31
0.0
  0
LINE
  5
6C5
100
AcDbEntity
  8
LAY-1
  6
CONTINUOUS
 62
     2
100
AcDbLine
 10
115.84
 20
550.768
 30
0.0
 11
121.72
 21
550.768
 31
0.0
  0
LINE
  5
6C6
100
AcDbEntity
  8
LAY-1
  6
CONTINUOUS
 62
     2
100
AcDbLine
 10
124.66
 20
550.768
 30
0.0
 11
127.666862
 21
550.768
 31
0.0
  0
LINE
  5
6C7
100
AcDbEntity
  8
LAY-1
  6
CONTINUOUS
 62
     2
100
AcDbLine
 10
115.84
 20
553.708
 30
0.0
 11
129.373671
 21
553.708
 31
0.0
  0
LINE
  5
6C8
100
AcDbEntity
  8
LAY-1
  6
CONTINUOUS
 62
     2
100
AcDbLine
 10
144.306329
 20
553.708
 30
0.0
 11
154.48
 21
553.708
 31
0.0
  0
LINE
  5
6C9
100
AcDbEntity
  8
LAY-1
  6
CONTINUOUS
 62
     2
100
AcDbLine
 10
146.013138
 20
550.768
 30
0.0
 11
151.240154
 21
550.768
 31
0.0
  0
LINE
  5
6CA
100
AcDbEntity
  8
LAY-1
  6
CONTINUOUS
 62
     2
100
AcDbLine
 10
144.306329
 20
541.108
 30
0.0
 11
154.48
 21
541.108
 31
0.0
  0
LINE
  5
6CB
100
AcDbEntity
  8
LAY-1
  6
CONTINUOUS
 62
     2
100
AcDbLine
 10
148.421927
 20
544.048
 30
0.0
 11
154.48
 21
544.048
 31
0.0
  0
LINE
  5
6CC
100
AcDbEntity
  8
LAY-1
  6
CONTINUOUS
 62
     2
100
AcDbLine
 10
158.848
 20
550.768
 30
0.0
 11
158.848
 21
548.668
 31
0.0
  0
LINE
  5
6CD
100
AcDbEntity
  8
LAY-1
  6
CONTINUOUS
 62
     2
100
AcDbLine
 10
135.61983
 20
556.228
 30
0.0
 11
138.06017
 21
556.228
 31
0.0
  0
LINE
  5
6CE
100
AcDbEntity
  8
LAY-1
  6
CONTINUOUS
 62
     2
100
AcDbLine
 10
133.88683
 20
555.808
 30
0.0
 11
139.79317
 21
555.808
 31
0.0
  0
LINE
  5
6CF
100
AcDbEntity
  8
LAY-1
  6
CONTINUOUS
 62
     2
100
AcDbLine
 10
132.890213
 20
555.388
 30
0.0
 11
140.789787
 21
555.388
 31
0.0
  0
LINE
  5
6D0
100
AcDbEntity
  8
LAY-1
  6
CONTINUOUS
 62
     2
100
AcDbLine
 10
132.136
 20
554.968
 30
0.0
 11
141.544
 21
554.968
 31
0.0
  0
LINE
  5
6D1
100
AcDbEntity
  8
LAY-1
  6
CONTINUOUS
 62
     2
100
AcDbLine
 10
131.520074
 20
554.548
 30
0.0
 11
142.159926
 21
554.548
 31
0.0
  0
LINE
  5
6D2
100
AcDbEntity
  8
LAY-1
  6
CONTINUOUS
 62
     2
100
AcDbLine
 10
130.998526
 20
554.128
 30
0.0
 11
142.681474
 21
554.128
 31
0.0
  0
LINE
  5
6D3
100
AcDbEntity
  8
LAY-1
  6
CONTINUOUS
 62
     2
100
AcDbLine
 10
115.84
 20
553.708
 30
0.0
 11
129.373671
 21
553.708
 31
0.0
  0
LINE
  5
6D4
100
AcDbEntity
  8
LAY-1
  6
CONTINUOUS
 62
     2
100
AcDbLine
 10
130.547845
 20
553.708
 30
0.0
 11
143.132155
 21
553.708
 31
0.0
  0
LINE
  5
6D5
100
AcDbEntity
  8
LAY-1
  6
CONTINUOUS
 62
     2
100
AcDbLine
 10
144.306329
 20
553.708
 30
0.0
 11
154.48
 21
553.708
 31
0.0
  0
LINE
  5
6D6
100
AcDbEntity
  8
LAY-1
  6
CONTINUOUS
 62
     2
100
AcDbLine
 10
155.908
 20
553.708
 30
0.0
 11
167.164
 21
553.708
 31
0.0
  0
LINE
  5
6D7
100
AcDbEntity
  8
LAY-1
  6
CONTINUOUS
 62
     2
100
AcDbLine
 10
168.424
 20
553.708
 30
0.0
 11
171.28
 21
553.708
 31
0.0
  0
LINE
  5
6D8
100
AcDbEntity
  8
LAY-1
  6
CONTINUOUS
 62
     2
100
AcDbLine
 10
177.16
 20
553.708
 30
0.0
 11
180.016
 21
553.708
 31
0.0
  0
LINE
  5
6D9
100
AcDbEntity
  8
LAY-1
  6
CONTINUOUS
 62
     2
100
AcDbLine
 10
115.84
 20
553.288
 30
0.0
 11
129.038611
 21
553.288
 31
0.0
  0
LINE
  5
6DA
100
AcDbEntity
  8
LAY-1
  6
CONTINUOUS
 62
     2
100
AcDbLine
 10
130.153684
 20
553.288
 30
0.0
 11
143.526316
 21
553.288
 31
0.0
  0
LINE
  5
6DB
100
AcDbEntity
  8
LAY-1
  6
CONTINUOUS
 62
     2
100
AcDbLine
 10
144.641389
 20
553.288
 30
0.0
 11
154.48
 21
553.288
 31
0.0
  0
LINE
  5
6DC
100
AcDbEntity
  8
LAY-1
  6
CONTINUOUS
 62
     2
100
AcDbLine
 10
155.908
 20
553.288
 30
0.0
 11
167.164
 21
553.288
 31
0.0
  0
LINE
  5
6DD
100
AcDbEntity
  8
LAY-1
  6
CONTINUOUS
 62
     2
100
AcDbLine
 10
168.424
 20
553.288
 30
0.0
 11
171.556397
 21
553.288
 31
0.0
  0
LINE
  5
6DE
100
AcDbEntity
  8
LAY-1
  6
CONTINUOUS
 62
     2
100
AcDbLine
 10
177.16
 20
553.288
 30
0.0
 11
180.016
 21
553.288
 31
0.0
  0
LINE
  5
6DF
100
AcDbEntity
  8
LAY-1
  6
CONTINUOUS
 62
     2
100
AcDbLine
 10
115.84
 20
552.868
 30
0.0
 11
128.739107
 21
552.868
 31
0.0
  0
LINE
  5
6E0
100
AcDbEntity
  8
LAY-1
  6
CONTINUOUS
 62
     2
100
AcDbLine
 10
129.806536
 20
552.868
 30
0.0
 11
134.657616
 21
552.868
 31
0.0
  0
LINE
  5
6E1
100
AcDbEntity
  8
LAY-1
  6
CONTINUOUS
 62
     2
100
AcDbLine
 10
139.022384
 20
552.868
 30
0.0
 11
143.873464
 21
552.868
 31
0.0
  0
LINE
  5
6E2
100
AcDbEntity
  8
LAY-1
  6
CONTINUOUS
 62
     2
100
AcDbLine
 10
144.940893
 20
552.868
 30
0.0
 11
154.48
 21
552.868
 31
0.0
  0
LINE
  5
6E3
100
AcDbEntity
  8
LAY-1
  6
CONTINUOUS
 62
     2
100
AcDbLine
 10
155.908
 20
552.868
 30
0.0
 11
167.164
 21
552.868
 31
0.0
  0
LINE
  5
6E4
100
AcDbEntity
  8
LAY-1
  6
CONTINUOUS
 62
     2
100
AcDbLine
 10
168.424
 20
552.868
 30
0.0
 11
171.832794
 21
552.868
 31
0.0
  0
LINE
  5
6E5
100
AcDbEntity
  8
LAY-1
  6
CONTINUOUS
 62
     2
100
AcDbLine
 10
177.16
 20
552.868
 30
0.0
 11
180.016
 21
552.868
 31
0.0
  0
LINE
  5
6E6
100
AcDbEntity
  8
LAY-1
  6
CONTINUOUS
 62
     2
100
AcDbLine
 10
115.84
 20
552.448
 30
0.0
 11
128.47134
 21
552.448
 31
0.0
  0
LINE
  5
6E7
100
AcDbEntity
  8
LAY-1
  6
CONTINUOUS
 62
     2
100
AcDbLine
 10
129.499726
 20
552.448
 30
0.0
 11
133.811337
 21
552.448
 31
0.0
  0
LINE
  5
6E8
100
AcDbEntity
  8
LAY-1
  6
CONTINUOUS
 62
     2
100
AcDbLine
 10
139.868663
 20
552.448
 30
0.0
 11
144.180274
 21
552.448
 31
0.0
  0
LINE
  5
6E9
100
AcDbEntity
  8
LAY-1
  6
CONTINUOUS
 62
     2
100
AcDbLine
 10
145.20866
 20
552.448
 30
0.0
 11
154.48
 21
552.448
 31
0.0
  0
LINE
  5
6EA
100
AcDbEntity
  8
LAY-1
  6
CONTINUOUS
 62
     2
100
AcDbLine
 10
155.908
 20
552.448
 30
0.0
 11
167.164
 21
552.448
 31
0.0
  0
LINE
  5
6EB
100
AcDbEntity
  8
LAY-1
  6
CONTINUOUS
 62
     2
100
AcDbLine
 10
168.424
 20
552.448
 30
0.0
 11
172.109191
 21
552.448
 31
0.0
  0
LINE
  5
6EC
100
AcDbEntity
  8
LAY-1
  6
CONTINUOUS
 62
     2
100
AcDbLine
 10
177.16
 20
552.448
 30
0.0
 11
180.016
 21
552.448
 31
0.0
  0
LINE
  5
6ED
100
AcDbEntity
  8
LAY-1
  6
CONTINUOUS
 62
     2
100
AcDbLine
 10
115.84
 20
552.028
 30
0.0
 11
128.232348
 21
552.028
 31
0.0
  0
LINE
  5
6EE
100
AcDbEntity
  8
LAY-1
  6
CONTINUOUS
 62
     2
100
AcDbLine
 10
129.228376
 20
552.028
 30
0.0
 11
133.202693
 21
552.028
 31
0.0
  0
LINE
  5
6EF
100
AcDbEntity
  8
LAY-1
  6
CONTINUOUS
 62
     2
100
AcDbLine
 10
140.477307
 20
552.028
 30
0.0
 11
144.451624
 21
552.028
 31
0.0
  0
LINE
  5
6F0
100
AcDbEntity
  8
LAY-1
  6
CONTINUOUS
 62
     2
100
AcDbLine
 10
145.447652
 20
552.028
 30
0.0
 11
154.48
 21
552.028
 31
0.0
  0
LINE
  5
6F1
100
AcDbEntity
  8
LAY-1
  6
CONTINUOUS
 62
     2
100
AcDbLine
 10
155.908
 20
552.028
 30
0.0
 11
167.164
 21
552.028
 31
0.0
  0
LINE
  5
6F2
100
AcDbEntity
  8
LAY-1
  6
CONTINUOUS
 62
     2
100
AcDbLine
 10
168.424
 20
552.028
 30
0.0
 11
172.385588
 21
552.028
 31
0.0
  0
LINE
  5
6F3
100
AcDbEntity
  8
LAY-1
  6
CONTINUOUS
 62
     2
100
AcDbLine
 10
177.16
 20
552.028
 30
0.0
 11
180.016
 21
552.028
 31
0.0
  0
LINE
  5
6F4
100
AcDbEntity
  8
LAY-1
  6
CONTINUOUS
 62
     2
100
AcDbLine
 10
115.84
 20
551.608
 30
0.0
 11
128.019792
 21
551.608
 31
0.0
  0
LINE
  5
6F5
100
AcDbEntity
  8
LAY-1
  6
CONTINUOUS
 62
     2
100
AcDbLine
 10
128.988808
 20
551.608
 30
0.0
 11
132.724857
 21
551.608
 31
0.0
  0
LINE
  5
6F6
100
AcDbEntity
  8
LAY-1
  6
CONTINUOUS
 62
     2
100
AcDbLine
 10
135.363415
 20
551.608
 30
0.0
 11
138.316585
 21
551.608
 31
0.0
  0
LINE
  5
6F7
100
AcDbEntity
  8
LAY-1
  6
CONTINUOUS
 62
     2
100
AcDbLine
 10
140.955143
 20
551.608
 30
0.0
 11
144.691192
 21
551.608
 31
0.0
  0
LINE
  5
6F8
100
AcDbEntity
  8
LAY-1
  6
CONTINUOUS
 62
     2
100
AcDbLine
 10
145.660208
 20
551.608
 30
0.0
 11
154.48
 21
551.608
 31
0.0
  0
LINE
  5
6F9
100
AcDbEntity
  8
LAY-1
  6
CONTINUOUS
 62
     2
100
AcDbLine
 10
155.908
 20
551.608
 30
0.0
 11
167.164
 21
551.608
 31
0.0
  0
LINE
  5
6FA
100
AcDbEntity
  8
LAY-1
  6
CONTINUOUS
 62
     2
100
AcDbLine
 10
168.424
 20
551.608
 30
0.0
 11
172.661985
 21
551.608
 31
0.0
  0
LINE
  5
6FB
100
AcDbEntity
  8
LAY-1
  6
CONTINUOUS
 62
     2
100
AcDbLine
 10
177.16
 20
551.608
 30
0.0
 11
180.016
 21
551.608
 31
0.0
  0
LINE
  5
6FC
100
AcDbEntity
  8
LAY-1
  6
CONTINUOUS
 62
     2
100
AcDbLine
 10
115.84
 20
551.188
 30
0.0
 11
127.8318
 21
551.188
 31
0.0
  0
LINE
  5
6FD
100
AcDbEntity
  8
LAY-1
  6
CONTINUOUS
 62
     2
100
AcDbLine
 10
128.778188
 20
551.188
 30
0.0
 11
132.336002
 21
551.188
 31
0.0
  0
LINE
  5
6FE
100
AcDbEntity
  8
LAY-1
  6
CONTINUOUS
 62
     2
100
AcDbLine
 10
134.488
 20
551.188
 30
0.0
 11
139.192
 21
551.188
 31
0.0
  0
LINE
  5
6FF
100
AcDbEntity
  8
LAY-1
  6
CONTINUOUS
 62
     2
100
AcDbLine
 10
141.343998
 20
551.188
 30
0.0
 11
144.901812
 21
551.188
 31
0.0
  0
LINE
  5
700
100
AcDbEntity
  8
LAY-1
  6
CONTINUOUS
 62
     2
100
AcDbLine
 10
145.8482
 20
551.188
 30
0.0
 11
154.48
 21
551.188
 31
0.0
  0
LINE
  5
701
100
AcDbEntity
  8
LAY-1
  6
CONTINUOUS
 62
     2
100
AcDbLine
 10
155.908
 20
551.188
 30
0.0
 11
167.164
 21
551.188
 31
0.0
  0
LINE
  5
702
100
AcDbEntity
  8
LAY-1
  6
CONTINUOUS
 62
     2
100
AcDbLine
 10
168.424
 20
551.188
 30
0.0
 11
172.938382
 21
551.188
 31
0.0
  0
LINE
  5
703
100
AcDbEntity
  8
LAY-1
  6
CONTINUOUS
 62
     2
100
AcDbLine
 10
177.16
 20
551.188
 30
0.0
 11
180.016
 21
551.188
 31
0.0
  0
LINE
  5
704
100
AcDbEntity
  8
LAY-1
  6
CONTINUOUS
 62
     2
100
AcDbLine
 10
121.72
 20
550.768
 30
0.0
 11
124.66
 21
550.768
 31
0.0
  0
LINE
  5
705
100
AcDbEntity
  8
LAY-1
  6
CONTINUOUS
 62
     2
100
AcDbLine
 10
128.594297
 20
550.768
 30
0.0
 11
132.014567
 21
550.768
 31
0.0
  0
LINE
  5
706
100
AcDbEntity
  8
LAY-1
  6
CONTINUOUS
 62
     2
100
AcDbLine
 10
133.919263
 20
550.768
 30
0.0
 11
139.760737
 21
550.768
 31
0.0
  0
LINE
  5
707
100
AcDbEntity
  8
LAY-1
  6
CONTINUOUS
 62
     2
100
AcDbLine
 10
141.665433
 20
550.768
 30
0.0
 11
145.085703
 21
550.768
 31
0.0
  0
LINE
  5
708
100
AcDbEntity
  8
LAY-1
  6
CONTINUOUS
 62
     2
100
AcDbLine
 10
151.240154
 20
550.768
 30
0.0
 11
154.48
 21
550.768
 31
0.0
  0
LINE
  5
709
100
AcDbEntity
  8
LAY-1
  6
CONTINUOUS
 62
     2
100
AcDbLine
 10
155.908
 20
550.768
 30
0.0
 11
158.848
 21
550.768
 31
0.0
  0
LINE
  5
70A
100
AcDbEntity
  8
LAY-1
  6
CONTINUOUS
 62
     2
100
AcDbLine
 10
168.424
 20
550.768
 30
0.0
 11
173.214779
 21
550.768
 31
0.0
  0
LINE
  5
70B
100
AcDbEntity
  8
LAY-1
  6
CONTINUOUS
 62
     2
100
AcDbLine
 10
177.16
 20
550.768
 30
0.0
 11
180.016
 21
550.768
 31
0.0
  0
LINE
  5
70C
100
AcDbEntity
  8
LAY-1
  6
CONTINUOUS
 62
     2
100
AcDbLine
 10
121.72
 20
550.348
 30
0.0
 11
124.66
 21
550.348
 31
0.0
  0
LINE
  5
70D
100
AcDbEntity
  8
LAY-1
  6
CONTINUOUS
 62
     2
100
AcDbLine
 10
128.435381
 20
550.348
 30
0.0
 11
131.747771
 21
550.348
 31
0.0
  0
LINE
  5
70E
100
AcDbEntity
  8
LAY-1
  6
CONTINUOUS
 62
     2
100
AcDbLine
 10
133.496842
 20
550.348
 30
0.0
 11
140.183158
 21
550.348
 31
0.0
  0
LINE
  5
70F
100
AcDbEntity
  8
LAY-1
  6
CONTINUOUS
 62
     2
100
AcDbLine
 10
141.932229
 20
550.348
 30
0.0
 11
145.244619
 21
550.348
 31
0.0
  0
LINE
  5
710
100
AcDbEntity
  8
LAY-1
  6
CONTINUOUS
 62
     2
100
AcDbLine
 10
150.861525
 20
550.348
 30
0.0
 11
154.10137
 21
550.348
 31
0.0
  0
LINE
  5
711
100
AcDbEntity
  8
LAY-1
  6
CONTINUOUS
 62
     2
100
AcDbLine
 10
155.908
 20
550.348
 30
0.0
 11
158.848
 21
550.348
 31
0.0
  0
LINE
  5
712
100
AcDbEntity
  8
LAY-1
  6
CONTINUOUS
 62
     2
100
AcDbLine
 10
168.424
 20
550.348
 30
0.0
 11
173.491176
 21
550.348
 31
0.0
  0
LINE
  5
713
100
AcDbEntity
  8
LAY-1
  6
CONTINUOUS
 62
     2
100
AcDbLine
 10
177.16
 20
550.348
 30
0.0
 11
180.016
 21
550.348
 31
0.0
  0
LINE
  5
714
100
AcDbEntity
  8
LAY-1
  6
CONTINUOUS
 62
     2
100
AcDbLine
 10
121.72
 20
549.928
 30
0.0
 11
124.66
 21
549.928
 31
0.0
  0
LINE
  5
715
100
AcDbEntity
  8
LAY-1
  6
CONTINUOUS
 62
     2
100
AcDbLine
 10
128.300046
 20
549.928
 30
0.0
 11
131.527374
 21
549.928
 31
0.0
  0
LINE
  5
716
100
AcDbEntity
  8
LAY-1
  6
CONTINUOUS
 62
     2
100
AcDbLine
 10
133.169863
 20
549.928
 30
0.0
 11
140.510137
 21
549.928
 31
0.0
  0
LINE
  5
717
100
AcDbEntity
  8
LAY-1
  6
CONTINUOUS
 62
     2
100
AcDbLine
 10
142.152626
 20
549.928
 30
0.0
 11
145.379954
 21
549.928
 31
0.0
  0
LINE
  5
718
100
AcDbEntity
  8
LAY-1
  6
CONTINUOUS
 62
     2
100
AcDbLine
 10
150.482895
 20
549.928
 30
0.0
 11
153.722741
 21
549.928
 31
0.0
  0
LINE
  5
719
100
AcDbEntity
  8
LAY-1
  6
CONTINUOUS
 62
     2
100
AcDbLine
 10
155.908
 20
549.928
 30
0.0
 11
158.848
 21
549.928
 31
0.0
  0
LINE
  5
71A
100
AcDbEntity
  8
LAY-1
  6
CONTINUOUS
 62
     2
100
AcDbLine
 10
168.424
 20
549.928
 30
0.0
 11
171.28
 21
549.928
 31
0.0
  0
LINE
  5
71B
100
AcDbEntity
  8
LAY-1
  6
CONTINUOUS
 62
     2
100
AcDbLine
 10
171.355662
 20
549.928
 30
0.0
 11
173.767574
 21
549.928
 31
0.0
  0
LINE
  5
71C
100
AcDbEntity
  8
LAY-1
  6
CONTINUOUS
 62
     2
100
AcDbLine
 10
177.16
 20
549.928
 30
0.0
 11
180.016
 21
549.928
 31
0.0
  0
LINE
  5
71D
100
AcDbEntity
  8
LAY-1
  6
CONTINUOUS
 62
     2
100
AcDbLine
 10
121.72
 20
549.508
 30
0.0
 11
124.66
 21
549.508
 31
0.0
  0
LINE
  5
71E
100
AcDbEntity
  8
LAY-1
  6
CONTINUOUS
 62
     2
100
AcDbLine
 10
128.187185
 20
549.508
 30
0.0
 11
131.347787
 21
549.508
 31
0.0
  0
LINE
  5
71F
100
AcDbEntity
  8
LAY-1
  6
CONTINUOUS
 62
     2
100
AcDbLine
 10
132.914404
 20
549.508
 30
0.0
 11
140.765596
 21
549.508
 31
0.0
  0
LINE
  5
720
100
AcDbEntity
  8
LAY-1
  6
CONTINUOUS
 62
     2
100
AcDbLine
 10
142.332213
 20
549.508
 30
0.0
 11
145.492815
 21
549.508
 31
0.0
  0
LINE
  5
721
100
AcDbEntity
  8
LAY-1
  6
CONTINUOUS
 62
     2
100
AcDbLine
 10
150.104266
 20
549.508
 30
0.0
 11
153.344111
 21
549.508
 31
0.0
  0
LINE
  5
722
100
AcDbEntity
  8
LAY-1
  6
CONTINUOUS
 62
     2
100
AcDbLine
 10
155.908
 20
549.508
 30
0.0
 11
158.848
 21
549.508
 31
0.0
  0
LINE
  5
723
100
AcDbEntity
  8
LAY-1
  6
CONTINUOUS
 62
     2
100
AcDbLine
 10
168.424
 20
549.508
 30
0.0
 11
171.28
 21
549.508
 31
0.0
  0
LINE
  5
724
100
AcDbEntity
  8
LAY-1
  6
CONTINUOUS
 62
     2
100
AcDbLine
 10
171.632059
 20
549.508
 30
0.0
 11
174.043971
 21
549.508
 31
0.0
  0
LINE
  5
725
100
AcDbEntity
  8
LAY-1
  6
CONTINUOUS
 62
     2
100
AcDbLine
 10
177.16
 20
549.508
 30
0.0
 11
180.016
 21
549.508
 31
0.0
  0
LINE
  5
726
100
AcDbEntity
  8
LAY-1
  6
CONTINUOUS
 62
     2
100
AcDbLine
 10
121.72
 20
549.088
 30
0.0
 11
124.66
 21
549.088
 31
0.0
  0
LINE
  5
727
100
AcDbEntity
  8
LAY-1
  6
CONTINUOUS
 62
     2
100
AcDbLine
 10
128.095927
 20
549.088
 30
0.0
 11
131.205109
 21
549.088
 31
0.0
  0
LINE
  5
728
100
AcDbEntity
  8
LAY-1
  6
CONTINUOUS
 62
     2
100
AcDbLine
 10
132.717149
 20
549.088
 30
0.0
 11
140.962851
 21
549.088
 31
0.0
  0
LINE
  5
729
100
AcDbEntity
  8
LAY-1
  6
CONTINUOUS
 62
     2
100
AcDbLine
 10
142.474891
 20
549.088
 30
0.0
 11
145.584073
 21
549.088
 31
0.0
  0
LINE
  5
72A
100
AcDbEntity
  8
LAY-1
  6
CONTINUOUS
 62
     2
100
AcDbLine
 10
149.725636
 20
549.088
 30
0.0
 11
152.965482
 21
549.088
 31
0.0
  0
LINE
  5
72B
100
AcDbEntity
  8
LAY-1
  6
CONTINUOUS
 62
     2
100
AcDbLine
 10
155.908
 20
549.088
 30
0.0
 11
158.848
 21
549.088
 31
0.0
  0
LINE
  5
72C
100
AcDbEntity
  8
LAY-1
  6
CONTINUOUS
 62
     2
100
AcDbLine
 10
168.424
 20
549.088
 30
0.0
 11
171.28
 21
549.088
 31
0.0
  0
LINE
  5
72D
100
AcDbEntity
  8
LAY-1
  6
CONTINUOUS
 62
     2
100
AcDbLine
 10
171.908456
 20
549.088
 30
0.0
 11
174.320368
 21
549.088
 31
0.0
  0
LINE
  5
72E
100
AcDbEntity
  8
LAY-1
  6
CONTINUOUS
 62
     2
100
AcDbLine
 10
177.16
 20
549.088
 30
0.0
 11
180.016
 21
549.088
 31
0.0
  0
LINE
  5
72F
100
AcDbEntity
  8
LAY-1
  6
CONTINUOUS
 62
     2
100
AcDbLine
 10
121.72
 20
548.668
 30
0.0
 11
124.66
 21
548.668
 31
0.0
  0
LINE
  5
730
100
AcDbEntity
  8
LAY-1
  6
CONTINUOUS
 62
     2
100
AcDbLine
 10
128.025602
 20
548.668
 30
0.0
 11
131.096586
 21
548.668
 31
0.0
  0
LINE
  5
731
100
AcDbEntity
  8
LAY-1
  6
CONTINUOUS
 62
     2
100
AcDbLine
 10
132.570023
 20
548.668
 30
0.0
 11
141.109977
 21
548.668
 31
0.0
  0
LINE
  5
732
100
AcDbEntity
  8
LAY-1
  6
CONTINUOUS
 62
     2
100
AcDbLine
 10
142.583414
 20
548.668
 30
0.0
 11
145.654398
 21
548.668
 31
0.0
  0
LINE
  5
733
100
AcDbEntity
  8
LAY-1
  6
CONTINUOUS
 62
     2
100
AcDbLine
 10
149.347006
 20
548.668
 30
0.0
 11
152.586852
 21
548.668
 31
0.0
  0
LINE
  5
734
100
AcDbEntity
  8
LAY-1
  6
CONTINUOUS
 62
     2
100
AcDbLine
 10
155.908
 20
548.668
 30
0.0
 11
167.164
 21
548.668
 31
0.0
  0
LINE
  5
735
100
AcDbEntity
  8
LAY-1
  6
CONTINUOUS
 62
     2
100
AcDbLine
 10
168.424
 20
548.668
 30
0.0
 11
171.28
 21
548.668
 31
0.0
  0
LINE
  5
736
100
AcDbEntity
  8
LAY-1
  6
CONTINUOUS
 62
     2
100
AcDbLine
 10
172.184853
 20
548.668
 30
0.0
 11
174.596765
 21
548.668
 31
0.0
  0
LINE
  5
737
100
AcDbEntity
  8
LAY-1
  6
CONTINUOUS
 62
     2
100
AcDbLine
 10
177.16
 20
548.668
 30
0.0
 11
180.016
 21
548.668
 31
0.0
  0
LINE
  5
738
100
AcDbEntity
  8
LAY-1
  6
CONTINUOUS
 62
     2
100
AcDbLine
 10
121.72
 20
548.248
 30
0.0
 11
124.66
 21
548.248
 31
0.0
  0
LINE
  5
739
100
AcDbEntity
  8
LAY-1
  6
CONTINUOUS
 62
     2
100
AcDbLine
 10
127.975711
 20
548.248
 30
0.0
 11
131.020309
 21
548.248
 31
0.0
  0
LINE
  5
73A
100
AcDbEntity
  8
LAY-1
  6
CONTINUOUS
 62
     2
100
AcDbLine
 10
132.467963
 20
548.248
 30
0.0
 11
141.212037
 21
548.248
 31
0.0
  0
LINE
  5
73B
100
AcDbEntity
  8
LAY-1
  6
CONTINUOUS
 62
     2
100
AcDbLine
 10
142.659691
 20
548.248
 30
0.0
 11
145.704289
 21
548.248
 31
0.0
  0
LINE
  5
73C
100
AcDbEntity
  8
LAY-1
  6
CONTINUOUS
 62
     2
100
AcDbLine
 10
148.968377
 20
548.248
 30
0.0
 11
152.208223
 21
548.248
 31
0.0
  0
LINE
  5
73D
100
AcDbEntity
  8
LAY-1
  6
CONTINUOUS
 62
     2
100
AcDbLine
 10
155.908
 20
548.248
 30
0.0
 11
167.164
 21
548.248
 31
0.0
  0
LINE
  5
73E
100
AcDbEntity
  8
LAY-1
  6
CONTINUOUS
 62
     2
100
AcDbLine
 10
168.424
 20
548.248
 30
0.0
 11
171.28
 21
548.248
 31
0.0
  0
LINE
  5
73F
100
AcDbEntity
  8
LAY-1
  6
CONTINUOUS
 62
     2
100
AcDbLine
 10
172.46125
 20
548.248
 30
0.0
 11
174.873162
 21
548.248
 31
0.0
  0
LINE
  5
740
100
AcDbEntity
  8
LAY-1
  6
CONTINUOUS
 62
     2
100
AcDbLine
 10
177.16
 20
548.248
 30
0.0
 11
180.016
 21
548.248
 31
0.0
  0
LINE
  5
741
100
AcDbEntity
  8
LAY-1
  6
CONTINUOUS
 62
     2
100
AcDbLine
 10
121.72
 20
547.828
 30
0.0
 11
124.66
 21
547.828
 31
0.0
  0
LINE
  5
742
100
AcDbEntity
  8
LAY-1
  6
CONTINUOUS
 62
     2
100
AcDbLine
 10
127.945911
 20
547.828
 30
0.0
 11
130.975019
 21
547.828
 31
0.0
  0
LINE
  5
743
100
AcDbEntity
  8
LAY-1
  6
CONTINUOUS
 62
     2
100
AcDbLine
 10
132.407856
 20
547.828
 30
0.0
 11
141.272144
 21
547.828
 31
0.0
  0
LINE
  5
744
100
AcDbEntity
  8
LAY-1
  6
CONTINUOUS
 62
     2
100
AcDbLine
 10
142.704981
 20
547.828
 30
0.0
 11
145.734089
 21
547.828
 31
0.0
  0
LINE
  5
745
100
AcDbEntity
  8
LAY-1
  6
CONTINUOUS
 62
     2
100
AcDbLine
 10
148.589747
 20
547.828
 30
0.0
 11
151.829593
 21
547.828
 31
0.0
  0
LINE
  5
746
100
AcDbEntity
  8
LAY-1
  6
CONTINUOUS
 62
     2
100
AcDbLine
 10
155.908
 20
547.828
 30
0.0
 11
167.164
 21
547.828
 31
0.0
  0
LINE
  5
747
100
AcDbEntity
  8
LAY-1
  6
CONTINUOUS
 62
     2
100
AcDbLine
 10
168.424
 20
547.828
 30
0.0
 11
171.28
 21
547.828
 31
0.0
  0
LINE
  5
748
100
AcDbEntity
  8
LAY-1
  6
CONTINUOUS
 62
     2
100
AcDbLine
 10
172.737647
 20
547.828
 30
0.0
 11
175.149559
 21
547.828
 31
0.0
  0
LINE
  5
749
100
AcDbEntity
  8
LAY-1
  6
CONTINUOUS
 62
     2
100
AcDbLine
 10
177.16
 20
547.828
 30
0.0
 11
180.016
 21
547.828
 31
0.0
  0
LINE
  5
74A
100
AcDbEntity
  8
LAY-1
  6
CONTINUOUS
 62
     2
100
AcDbLine
 10
121.72
 20
547.408
 30
0.0
 11
124.66
 21
547.408
 31
0.0
  0
LINE
  5
74B
100
AcDbEntity
  8
LAY-1
  6
CONTINUOUS
 62
     2
100
AcDbLine
 10
127.936
 20
547.408
 30
0.0
 11
130.96
 21
547.408
 31
0.0
  0
LINE
  5
74C
100
AcDbEntity
  8
LAY-1
  6
CONTINUOUS
 62
     2
100
AcDbLine
 10
132.388
 20
547.408
 30
0.0
 11
141.292
 21
547.408
 31
0.0
  0
LINE
  5
74D
100
AcDbEntity
  8
LAY-1
  6
CONTINUOUS
 62
     2
100
AcDbLine
 10
142.72
 20
547.408
 30
0.0
 11
145.744
 21
547.408
 31
0.0
  0
LINE
  5
74E
100
AcDbEntity
  8
LAY-1
  6
CONTINUOUS
 62
     2
100
AcDbLine
 10
148.211118
 20
547.408
 30
0.0
 11
151.450964
 21
547.408
 31
0.0
  0
LINE
  5
74F
100
AcDbEntity
  8
LAY-1
  6
CONTINUOUS
 62
     2
100
AcDbLine
 10
155.908
 20
547.408
 30
0.0
 11
167.164
 21
547.408
 31
0.0
  0
LINE
  5
750
100
AcDbEntity
  8
LAY-1
  6
CONTINUOUS
 62
     2
100
AcDbLine
 10
168.424
 20
547.408
 30
0.0
 11
171.28
 21
547.408
 31
0.0
  0
LINE
  5
751
100
AcDbEntity
  8
LAY-1
  6
CONTINUOUS
 62
     2
100
AcDbLine
 10
173.014044
 20
547.408
 30
0.0
 11
175.425956
 21
547.408
 31
0.0
  0
LINE
  5
752
100
AcDbEntity
  8
LAY-1
  6
CONTINUOUS
 62
     2
100
AcDbLine
 10
177.16
 20
547.408
 30
0.0
 11
180.016
 21
547.408
 31
0.0
  0
LINE
  5
753
100
AcDbEntity
  8
LAY-1
  6
CONTINUOUS
 62
     2
100
AcDbLine
 10
121.72
 20
546.988
 30
0.0
 11
124.66
 21
546.988
 31
0.0
  0
LINE
  5
754
100
AcDbEntity
  8
LAY-1
  6
CONTINUOUS
 62
     2
100
AcDbLine
 10
127.945911
 20
546.988
 30
0.0
 11
130.975019
 21
546.988
 31
0.0
  0
LINE
  5
755
100
AcDbEntity
  8
LAY-1
  6
CONTINUOUS
 62
     2
100
AcDbLine
 10
132.407856
 20
546.988
 30
0.0
 11
141.272144
 21
546.988
 31
0.0
  0
LINE
  5
756
100
AcDbEntity
  8
LAY-1
  6
CONTINUOUS
 62
     2
100
AcDbLine
 10
142.704981
 20
546.988
 30
0.0
 11
145.734089
 21
546.988
 31
0.0
  0
LINE
  5
757
100
AcDbEntity
  8
LAY-1
  6
CONTINUOUS
 62
     2
100
AcDbLine
 10
147.832488
 20
546.988
 30
0.0
 11
151.072334
 21
546.988
 31
0.0
  0
LINE
  5
758
100
AcDbEntity
  8
LAY-1
  6
CONTINUOUS
 62
     2
100
AcDbLine
 10
155.908
 20
546.988
 30
0.0
 11
167.164
 21
546.988
 31
0.0
  0
LINE
  5
759
100
AcDbEntity
  8
LAY-1
  6
CONTINUOUS
 62
     2
100
AcDbLine
 10
168.424
 20
546.988
 30
0.0
 11
171.28
 21
546.988
 31
0.0
  0
LINE
  5
75A
100
AcDbEntity
  8
LAY-1
  6
CONTINUOUS
 62
     2
100
AcDbLine
 10
173.290441
 20
546.988
 30
0.0
 11
175.702353
 21
546.988
 31
0.0
  0
LINE
  5
75B
100
AcDbEntity
  8
LAY-1
  6
CONTINUOUS
 62
     2
100
AcDbLine
 10
177.16
 20
546.988
 30
0.0
 11
180.016
 21
546.988
 31
0.0
  0
LINE
  5
75C
100
AcDbEntity
  8
LAY-1
  6
CONTINUOUS
 62
     2
100
AcDbLine
 10
121.72
 20
546.568
 30
0.0
 11
124.66
 21
546.568
 31
0.0
  0
LINE
  5
75D
100
AcDbEntity
  8
LAY-1
  6
CONTINUOUS
 62
     2
100
AcDbLine
 10
127.975711
 20
546.568
 30
0.0
 11
131.020309
 21
546.568
 31
0.0
  0
LINE
  5
75E
100
AcDbEntity
  8
LAY-1
  6
CONTINUOUS
 62
     2
100
AcDbLine
 10
132.467963
 20
546.568
 30
0.0
 11
141.212037
 21
546.568
 31
0.0
  0
LINE
  5
75F
100
AcDbEntity
  8
LAY-1
  6
CONTINUOUS
 62
     2
100
AcDbLine
 10
142.659691
 20
546.568
 30
0.0
 11
145.704289
 21
546.568
 31
0.0
  0
LINE
  5
760
100
AcDbEntity
  8
LAY-1
  6
CONTINUOUS
 62
     2
100
AcDbLine
 10
147.453859
 20
546.568
 30
0.0
 11
150.693704
 21
546.568
 31
0.0
  0
LINE
  5
761
100
AcDbEntity
  8
LAY-1
  6
CONTINUOUS
 62
     2
100
AcDbLine
 10
155.908
 20
546.568
 30
0.0
 11
167.164
 21
546.568
 31
0.0
  0
LINE
  5
762
100
AcDbEntity
  8
LAY-1
  6
CONTINUOUS
 62
     2
100
AcDbLine
 10
168.424
 20
546.568
 30
0.0
 11
171.28
 21
546.568
 31
0.0
  0
LINE
  5
763
100
AcDbEntity
  8
LAY-1
  6
CONTINUOUS
 62
     2
100
AcDbLine
 10
173.566838
 20
546.568
 30
0.0
 11
175.97875
 21
546.568
 31
0.0
  0
LINE
  5
764
100
AcDbEntity
  8
LAY-1
  6
CONTINUOUS
 62
     2
100
AcDbLine
 10
177.16
 20
546.568
 30
0.0
 11
180.016
 21
546.568
 31
0.0
  0
LINE
  5
765
100
AcDbEntity
  8
LAY-1
  6
CONTINUOUS
 62
     2
100
AcDbLine
 10
121.72
 20
546.148
 30
0.0
 11
124.66
 21
546.148
 31
0.0
  0
LINE
  5
766
100
AcDbEntity
  8
LAY-1
  6
CONTINUOUS
 62
     2
100
AcDbLine
 10
128.025602
 20
546.148
 30
0.0
 11
131.096586
 21
546.148
 31
0.0
  0
LINE
  5
767
100
AcDbEntity
  8
LAY-1
  6
CONTINUOUS
 62
     2
100
AcDbLine
 10
132.570023
 20
546.148
 30
0.0
 11
141.109977
 21
546.148
 31
0.0
  0
LINE
  5
768
100
AcDbEntity
  8
LAY-1
  6
CONTINUOUS
 62
     2
100
AcDbLine
 10
142.583414
 20
546.148
 30
0.0
 11
145.654398
 21
546.148
 31
0.0
  0
LINE
  5
769
100
AcDbEntity
  8
LAY-1
  6
CONTINUOUS
 62
     2
100
AcDbLine
 10
147.075229
 20
546.148
 30
0.0
 11
150.315075
 21
546.148
 31
0.0
  0
LINE
  5
76A
100
AcDbEntity
  8
LAY-1
  6
CONTINUOUS
 62
     2
100
AcDbLine
 10
155.908
 20
546.148
 30
0.0
 11
158.848
 21
546.148
 31
0.0
  0
LINE
  5
76B
100
AcDbEntity
  8
LAY-1
  6
CONTINUOUS
 62
     2
100
AcDbLine
 10
168.424
 20
546.148
 30
0.0
 11
171.28
 21
546.148
 31
0.0
  0
LINE
  5
76C
100
AcDbEntity
  8
LAY-1
  6
CONTINUOUS
 62
     2
100
AcDbLine
 10
173.843235
 20
546.148
 30
0.0
 11
176.255147
 21
546.148
 31
0.0
  0
LINE
  5
76D
100
AcDbEntity
  8
LAY-1
  6
CONTINUOUS
 62
     2
100
AcDbLine
 10
177.16
 20
546.148
 30
0.0
 11
180.016
 21
546.148
 31
0.0
  0
LINE
  5
76E
100
AcDbEntity
  8
LAY-1
  6
CONTINUOUS
 62
     2
100
AcDbLine
 10
121.72
 20
545.728
 30
0.0
 11
124.66
 21
545.728
 31
0.0
  0
LINE
  5
76F
100
AcDbEntity
  8
LAY-1
  6
CONTINUOUS
 62
     2
100
AcDbLine
 10
128.095927
 20
545.728
 30
0.0
 11
131.205109
 21
545.728
 31
0.0
  0
LINE
  5
770
100
AcDbEntity
  8
LAY-1
  6
CONTINUOUS
 62
     2
100
AcDbLine
 10
132.717149
 20
545.728
 30
0.0
 11
140.962851
 21
545.728
 31
0.0
  0
LINE
  5
771
100
AcDbEntity
  8
LAY-1
  6
CONTINUOUS
 62
     2
100
AcDbLine
 10
142.474891
 20
545.728
 30
0.0
 11
145.584073
 21
545.728
 31
0.0
  0
LINE
  5
772
100
AcDbEntity
  8
LAY-1
  6
CONTINUOUS
 62
     2
100
AcDbLine
 10
146.6966
 20
545.728
 30
0.0
 11
149.936445
 21
545.728
 31
0.0
  0
LINE
  5
773
100
AcDbEntity
  8
LAY-1
  6
CONTINUOUS
 62
     2
100
AcDbLine
 10
155.908
 20
545.728
 30
0.0
 11
158.848
 21
545.728
 31
0.0
  0
LINE
  5
774
100
AcDbEntity
  8
LAY-1
  6
CONTINUOUS
 62
     2
100
AcDbLine
 10
168.424
 20
545.728
 30
0.0
 11
171.28
 21
545.728
 31
0.0
  0
LINE
  5
775
100
AcDbEntity
  8
LAY-1
  6
CONTINUOUS
 62
     2
100
AcDbLine
 10
174.119632
 20
545.728
 30
0.0
 11
176.531544
 21
545.728
 31
0.0
  0
LINE
  5
776
100
AcDbEntity
  8
LAY-1
  6
CONTINUOUS
 62
     2
100
AcDbLine
 10
177.16
 20
545.728
 30
0.0
 11
180.016
 21
545.728
 31
0.0
  0
LINE
  5
777
100
AcDbEntity
  8
LAY-1
  6
CONTINUOUS
 62
     2
100
AcDbLine
 10
121.72
 20
545.308
 30
0.0
 11
124.66
 21
545.308
 31
0.0
  0
LINE
  5
778
100
AcDbEntity
  8
LAY-1
  6
CONTINUOUS
 62
     2
100
AcDbLine
 10
128.187185
 20
545.308
 30
0.0
 11
131.347787
 21
545.308
 31
0.0
  0
LINE
  5
779
100
AcDbEntity
  8
LAY-1
  6
CONTINUOUS
 62
     2
100
AcDbLine
 10
132.914404
 20
545.308
 30
0.0
 11
140.765596
 21
545.308
 31
0.0
  0
LINE
  5
77A
100
AcDbEntity
  8
LAY-1
  6
CONTINUOUS
 62
     2
100
AcDbLine
 10
142.332213
 20
545.308
 30
0.0
 11
145.492815
 21
545.308
 31
0.0
  0
LINE
  5
77B
100
AcDbEntity
  8
LAY-1
  6
CONTINUOUS
 62
     2
100
AcDbLine
 10
146.380758
 20
545.308
 30
0.0
 11
149.557816
 21
545.308
 31
0.0
  0
LINE
  5
77C
100
AcDbEntity
  8
LAY-1
  6
CONTINUOUS
 62
     2
100
AcDbLine
 10
155.908
 20
545.308
 30
0.0
 11
158.848
 21
545.308
 31
0.0
  0
LINE
  5
77D
100
AcDbEntity
  8
LAY-1
  6
CONTINUOUS
 62
     2
100
AcDbLine
 10
168.424
 20
545.308
 30
0.0
 11
171.28
 21
545.308
 31
0.0
  0
LINE
  5
77E
100
AcDbEntity
  8
LAY-1
  6
CONTINUOUS
 62
     2
100
AcDbLine
 10
174.396029
 20
545.308
 30
0.0
 11
176.807941
 21
545.308
 31
0.0
  0
LINE
  5
77F
100
AcDbEntity
  8
LAY-1
  6
CONTINUOUS
 62
     2
100
AcDbLine
 10
177.16
 20
545.308
 30
0.0
 11
180.016
 21
545.308
 31
0.0
  0
LINE
  5
780
100
AcDbEntity
  8
LAY-1
  6
CONTINUOUS
 62
     2
100
AcDbLine
 10
121.72
 20
544.888
 30
0.0
 11
124.66
 21
544.888
 31
0.0
  0
LINE
  5
781
100
AcDbEntity
  8
LAY-1
  6
CONTINUOUS
 62
     2
100
AcDbLine
 10
128.300046
 20
544.888
 30
0.0
 11
131.527374
 21
544.888
 31
0.0
  0
LINE
  5
782
100
AcDbEntity
  8
LAY-1
  6
CONTINUOUS
 62
     2
100
AcDbLine
 10
133.169863
 20
544.888
 30
0.0
 11
140.510137
 21
544.888
 31
0.0
  0
LINE
  5
783
100
AcDbEntity
  8
LAY-1
  6
CONTINUOUS
 62
     2
100
AcDbLine
 10
142.152626
 20
544.888
 30
0.0
 11
145.379954
 21
544.888
 31
0.0
  0
LINE
  5
784
100
AcDbEntity
  8
LAY-1
  6
CONTINUOUS
 62
     2
100
AcDbLine
 10
146.27852
 20
544.888
 30
0.0
 11
149.179186
 21
544.888
 31
0.0
  0
LINE
  5
785
100
AcDbEntity
  8
LAY-1
  6
CONTINUOUS
 62
     2
100
AcDbLine
 10
155.908
 20
544.888
 30
0.0
 11
158.848
 21
544.888
 31
0.0
  0
LINE
  5
786
100
AcDbEntity
  8
LAY-1
  6
CONTINUOUS
 62
     2
100
AcDbLine
 10
168.424
 20
544.888
 30
0.0
 11
171.28
 21
544.888
 31
0.0
  0
LINE
  5
787
100
AcDbEntity
  8
LAY-1
  6
CONTINUOUS
 62
     2
100
AcDbLine
 10
174.672426
 20
544.888
 30
0.0
 11
177.084338
 21
544.888
 31
0.0
  0
LINE
  5
788
100
AcDbEntity
  8
LAY-1
  6
CONTINUOUS
 62
     2
100
AcDbLine
 10
177.16
 20
544.888
 30
0.0
 11
180.016
 21
544.888
 31
0.0
  0
LINE
  5
789
100
AcDbEntity
  8
LAY-1
  6
CONTINUOUS
 62
     2
100
AcDbLine
 10
121.72
 20
544.468
 30
0.0
 11
124.66
 21
544.468
 31
0.0
  0
LINE
  5
78A
100
AcDbEntity
  8
LAY-1
  6
CONTINUOUS
 62
     2
100
AcDbLine
 10
128.435381
 20
544.468
 30
0.0
 11
131.747771
 21
544.468
 31
0.0
  0
LINE
  5
78B
100
AcDbEntity
  8
LAY-1
  6
CONTINUOUS
 62
     2
100
AcDbLine
 10
133.496842
 20
544.468
 30
0.0
 11
140.183158
 21
544.468
 31
0.0
  0
LINE
  5
78C
100
AcDbEntity
  8
LAY-1
  6
CONTINUOUS
 62
     2
100
AcDbLine
 10
141.932229
 20
544.468
 30
0.0
 11
145.244619
 21
544.468
 31
0.0
  0
LINE
  5
78D
100
AcDbEntity
  8
LAY-1
  6
CONTINUOUS
 62
     2
100
AcDbLine
 10
146.156248
 20
544.468
 30
0.0
 11
148.800557
 21
544.468
 31
0.0
  0
LINE
  5
78E
100
AcDbEntity
  8
LAY-1
  6
CONTINUOUS
 62
     2
100
AcDbLine
 10
155.908
 20
544.468
 30
0.0
 11
158.848
 21
544.468
 31
0.0
  0
LINE
  5
78F
100
AcDbEntity
  8
LAY-1
  6
CONTINUOUS
 62
     2
100
AcDbLine
 10
168.424
 20
544.468
 30
0.0
 11
171.28
 21
544.468
 31
0.0
  0
LINE
  5
790
100
AcDbEntity
  8
LAY-1
  6
CONTINUOUS
 62
     2
100
AcDbLine
 10
174.948824
 20
544.468
 30
0.0
 11
180.016
 21
544.468
 31
0.0
  0
LINE
  5
791
100
AcDbEntity
  8
LAY-1
  6
CONTINUOUS
 62
     2
100
AcDbLine
 10
121.72
 20
544.048
 30
0.0
 11
124.66
 21
544.048
 31
0.0
  0
LINE
  5
792
100
AcDbEntity
  8
LAY-1
  6
CONTINUOUS
 62
     2
100
AcDbLine
 10
128.594297
 20
544.048
 30
0.0
 11
132.014567
 21
544.048
 31
0.0
  0
LINE
  5
793
100
AcDbEntity
  8
LAY-1
  6
CONTINUOUS
 62
     2
100
AcDbLine
 10
133.919263
 20
544.048
 30
0.0
 11
139.760737
 21
544.048
 31
0.0
  0
LINE
  5
794
100
AcDbEntity
  8
LAY-1
  6
CONTINUOUS
 62
     2
100
AcDbLine
 10
141.665433
 20
544.048
 30
0.0
 11
145.085703
 21
544.048
 31
0.0
  0
LINE
  5
795
100
AcDbEntity
  8
LAY-1
  6
CONTINUOUS
 62
     2
100
AcDbLine
 10
146.013138
 20
544.048
 30
0.0
 11
154.48
 21
544.048
 31
0.0
  0
LINE
  5
796
100
AcDbEntity
  8
LAY-1
  6
CONTINUOUS
 62
     2
100
AcDbLine
 10
155.908
 20
544.048
 30
0.0
 11
167.164
 21
544.048
 31
0.0
  0
LINE
  5
797
100
AcDbEntity
  8
LAY-1
  6
CONTINUOUS
 62
     2
100
AcDbLine
 10
168.424
 20
544.048
 30
0.0
 11
171.28
 21
544.048
 31
0.0
  0
LINE
  5
798
100
AcDbEntity
  8
LAY-1
  6
CONTINUOUS
 62
     2
100
AcDbLine
 10
175.225221
 20
544.048
 30
0.0
 11
180.016
 21
544.048
 31
0.0
  0
LINE
  5
799
100
AcDbEntity
  8
LAY-1
  6
CONTINUOUS
 62
     2
100
AcDbLine
 10
121.72
 20
543.628
 30
0.0
 11
124.66
 21
543.628
 31
0.0
  0
LINE
  5
79A
100
AcDbEntity
  8
LAY-1
  6
CONTINUOUS
 62
     2
100
AcDbLine
 10
128.778188
 20
543.628
 30
0.0
 11
132.336002
 21
543.628
 31
0.0
  0
LINE
  5
79B
100
AcDbEntity
  8
LAY-1
  6
CONTINUOUS
 62
     2
100
AcDbLine
 10
134.488
 20
543.628
 30
0.0
 11
139.192
 21
543.628
 31
0.0
  0
LINE
  5
79C
100
AcDbEntity
  8
LAY-1
  6
CONTINUOUS
 62
     2
100
AcDbLine
 10
141.343998
 20
543.628
 30
0.0
 11
144.901812
 21
543.628
 31
0.0
  0
LINE
  5
79D
100
AcDbEntity
  8
LAY-1
  6
CONTINUOUS
 62
     2
100
AcDbLine
 10
145.8482
 20
543.628
 30
0.0
 11
154.48
 21
543.628
 31
0.0
  0
LINE
  5
79E
100
AcDbEntity
  8
LAY-1
  6
CONTINUOUS
 62
     2
100
AcDbLine
 10
155.908
 20
543.628
 30
0.0
 11
167.164
 21
543.628
 31
0.0
  0
LINE
  5
79F
100
AcDbEntity
  8
LAY-1
  6
CONTINUOUS
 62
     2
100
AcDbLine
 10
168.424
 20
543.628
 30
0.0
 11
171.28
 21
543.628
 31
0.0
  0
LINE
  5
7A0
100
AcDbEntity
  8
LAY-1
  6
CONTINUOUS
 62
     2
100
AcDbLine
 10
175.501618
 20
543.628
 30
0.0
 11
180.016
 21
543.628
 31
0.0
  0
LINE
  5
7A1
100
AcDbEntity
  8
LAY-1
  6
CONTINUOUS
 62
     2
100
AcDbLine
 10
121.72
 20
543.208
 30
0.0
 11
124.66
 21
543.208
 31
0.0
  0
LINE
  5
7A2
100
AcDbEntity
  8
LAY-1
  6
CONTINUOUS
 62
     2
100
AcDbLine
 10
128.988808
 20
543.208
 30
0.0
 11
132.724857
 21
543.208
 31
0.0
  0
LINE
  5
7A3
100
AcDbEntity
  8
LAY-1
  6
CONTINUOUS
 62
     2
100
AcDbLine
 10
135.363415
 20
543.208
 30
0.0
 11
138.316585
 21
543.208
 31
0.0
  0
LINE
  5
7A4
100
AcDbEntity
  8
LAY-1
  6
CONTINUOUS
 62
     2
100
AcDbLine
 10
140.955143
 20
543.208
 30
0.0
 11
144.691192
 21
543.208
 31
0.0
  0
LINE
  5
7A5
100
AcDbEntity
  8
LAY-1
  6
CONTINUOUS
 62
     2
100
AcDbLine
 10
145.660208
 20
543.208
 30
0.0
 11
154.48
 21
543.208
 31
0.0
  0
LINE
  5
7A6
100
AcDbEntity
  8
LAY-1
  6
CONTINUOUS
 62
     2
100
AcDbLine
 10
155.908
 20
543.208
 30
0.0
 11
167.164
 21
543.208
 31
0.0
  0
LINE
  5
7A7
100
AcDbEntity
  8
LAY-1
  6
CONTINUOUS
 62
     2
100
AcDbLine
 10
168.424
 20
543.208
 30
0.0
 11
171.28
 21
543.208
 31
0.0
  0
LINE
  5
7A8
100
AcDbEntity
  8
LAY-1
  6
CONTINUOUS
 62
     2
100
AcDbLine
 10
175.778015
 20
543.208
 30
0.0
 11
180.016
 21
543.208
 31
0.0
  0
LINE
  5
7A9
100
AcDbEntity
  8
LAY-1
  6
CONTINUOUS
 62
     2
100
AcDbLine
 10
121.72
 20
542.788
 30
0.0
 11
124.66
 21
542.788
 31
0.0
  0
LINE
  5
7AA
100
AcDbEntity
  8
LAY-1
  6
CONTINUOUS
 62
     2
100
AcDbLine
 10
129.228376
 20
542.788
 30
0.0
 11
133.202693
 21
542.788
 31
0.0
  0
LINE
  5
7AB
100
AcDbEntity
  8
LAY-1
  6
CONTINUOUS
 62
     2
100
AcDbLine
 10
140.477307
 20
542.788
 30
0.0
 11
144.451624
 21
542.788
 31
0.0
  0
LINE
  5
7AC
100
AcDbEntity
  8
LAY-1
  6
CONTINUOUS
 62
     2
100
AcDbLine
 10
145.447652
 20
542.788
 30
0.0
 11
154.48
 21
542.788
 31
0.0
  0
LINE
  5
7AD
100
AcDbEntity
  8
LAY-1
  6
CONTINUOUS
 62
     2
100
AcDbLine
 10
155.908
 20
542.788
 30
0.0
 11
167.164
 21
542.788
 31
0.0
  0
LINE
  5
7AE
100
AcDbEntity
  8
LAY-1
  6
CONTINUOUS
 62
     2
100
AcDbLine
 10
168.424
 20
542.788
 30
0.0
 11
171.28
 21
542.788
 31
0.0
  0
LINE
  5
7AF
100
AcDbEntity
  8
LAY-1
  6
CONTINUOUS
 62
     2
100
AcDbLine
 10
176.054412
 20
542.788
 30
0.0
 11
180.016
 21
542.788
 31
0.0
  0
LINE
  5
7B0
100
AcDbEntity
  8
LAY-1
  6
CONTINUOUS
 62
     2
100
AcDbLine
 10
121.72
 20
542.368
 30
0.0
 11
124.66
 21
542.368
 31
0.0
  0
LINE
  5
7B1
100
AcDbEntity
  8
LAY-1
  6
CONTINUOUS
 62
     2
100
AcDbLine
 10
129.499726
 20
542.368
 30
0.0
 11
133.811337
 21
542.368
 31
0.0
  0
LINE
  5
7B2
100
AcDbEntity
  8
LAY-1
  6
CONTINUOUS
 62
     2
100
AcDbLine
 10
139.868663
 20
542.368
 30
0.0
 11
144.180274
 21
542.368
 31
0.0
  0
LINE
  5
7B3
100
AcDbEntity
  8
LAY-1
  6
CONTINUOUS
 62
     2
100
AcDbLine
 10
145.20866
 20
542.368
 30
0.0
 11
154.48
 21
542.368
 31
0.0
  0
LINE
  5
7B4
100
AcDbEntity
  8
LAY-1
  6
CONTINUOUS
 62
     2
100
AcDbLine
 10
155.908
 20
542.368
 30
0.0
 11
167.164
 21
542.368
 31
0.0
  0
LINE
  5
7B5
100
AcDbEntity
  8
LAY-1
  6
CONTINUOUS
 62
     2
100
AcDbLine
 10
168.424
 20
542.368
 30
0.0
 11
171.28
 21
542.368
 31
0.0
  0
LINE
  5
7B6
100
AcDbEntity
  8
LAY-1
  6
CONTINUOUS
 62
     2
100
AcDbLine
 10
176.330809
 20
542.368
 30
0.0
 11
180.016
 21
542.368
 31
0.0
  0
LINE
  5
7B7
100
AcDbEntity
  8
LAY-1
  6
CONTINUOUS
 62
     2
100
AcDbLine
 10
121.72
 20
541.948
 30
0.0
 11
124.66
 21
541.948
 31
0.0
  0
LINE
  5
7B8
100
AcDbEntity
  8
LAY-1
  6
CONTINUOUS
 62
     2
100
AcDbLine
 10
129.806536
 20
541.948
 30
0.0
 11
134.657616
 21
541.948
 31
0.0
  0
LINE
  5
7B9
100
AcDbEntity
  8
LAY-1
  6
CONTINUOUS
 62
     2
100
AcDbLine
 10
139.022384
 20
541.948
 30
0.0
 11
143.873464
 21
541.948
 31
0.0
  0
LINE
  5
7BA
100
AcDbEntity
  8
LAY-1
  6
CONTINUOUS
 62
     2
100
AcDbLine
 10
144.940893
 20
541.948
 30
0.0
 11
154.48
 21
541.948
 31
0.0
  0
LINE
  5
7BB
100
AcDbEntity
  8
LAY-1
  6
CONTINUOUS
 62
     2
100
AcDbLine
 10
155.908
 20
541.948
 30
0.0
 11
167.164
 21
541.948
 31
0.0
  0
LINE
  5
7BC
100
AcDbEntity
  8
LAY-1
  6
CONTINUOUS
 62
     2
100
AcDbLine
 10
168.424
 20
541.948
 30
0.0
 11
171.28
 21
541.948
 31
0.0
  0
LINE
  5
7BD
100
AcDbEntity
  8
LAY-1
  6
CONTINUOUS
 62
     2
100
AcDbLine
 10
176.607206
 20
541.948
 30
0.0
 11
180.016
 21
541.948
 31
0.0
  0
LINE
  5
7BE
100
AcDbEntity
  8
LAY-1
  6
CONTINUOUS
 62
     2
100
AcDbLine
 10
121.72
 20
541.528
 30
0.0
 11
124.66
 21
541.528
 31
0.0
  0
LINE
  5
7BF
100
AcDbEntity
  8
LAY-1
  6
CONTINUOUS
 62
     2
100
AcDbLine
 10
130.153684
 20
541.528
 30
0.0
 11
143.526316
 21
541.528
 31
0.0
  0
LINE
  5
7C0
100
AcDbEntity
  8
LAY-1
  6
CONTINUOUS
 62
     2
100
AcDbLine
 10
144.641389
 20
541.528
 30
0.0
 11
154.48
 21
541.528
 31
0.0
  0
LINE
  5
7C1
100
AcDbEntity
  8
LAY-1
  6
CONTINUOUS
 62
     2
100
AcDbLine
 10
155.908
 20
541.528
 30
0.0
 11
167.164
 21
541.528
 31
0.0
  0
LINE
  5
7C2
100
AcDbEntity
  8
LAY-1
  6
CONTINUOUS
 62
     2
100
AcDbLine
 10
168.424
 20
541.528
 30
0.0
 11
171.28
 21
541.528
 31
0.0
  0
LINE
  5
7C3
100
AcDbEntity
  8
LAY-1
  6
CONTINUOUS
 62
     2
100
AcDbLine
 10
176.883603
 20
541.528
 30
0.0
 11
180.016
 21
541.528
 31
0.0
  0
LINE
  5
7C4
100
AcDbEntity
  8
LAY-1
  6
CONTINUOUS
 62
     2
100
AcDbLine
 10
130.547845
 20
541.108
 30
0.0
 11
143.132155
 21
541.108
 31
0.0
  0
LINE
  5
7C5
100
AcDbEntity
  8
LAY-1
  6
CONTINUOUS
 62
     2
100
AcDbLine
 10
130.998526
 20
540.688
 30
0.0
 11
142.681474
 21
540.688
 31
0.0
  0
LINE
  5
7C6
100
AcDbEntity
  8
LAY-1
  6
CONTINUOUS
 62
     2
100
AcDbLine
 10
131.520074
 20
540.268
 30
0.0
 11
142.159926
 21
540.268
 31
0.0
  0
LINE
  5
7C7
100
AcDbEntity
  8
LAY-1
  6
CONTINUOUS
 62
     2
100
AcDbLine
 10
132.136
 20
539.848
 30
0.0
 11
141.544
 21
539.848
 31
0.0
  0
LINE
  5
7C8
100
AcDbEntity
  8
LAY-1
  6
CONTINUOUS
 62
     2
100
AcDbLine
 10
132.890213
 20
539.428
 30
0.0
 11
140.789787
 21
539.428
 31
0.0
  0
LINE
  5
7C9
100
AcDbEntity
  8
LAY-1
  6
CONTINUOUS
 62
     2
100
AcDbLine
 10
133.88683
 20
539.008
 30
0.0
 11
139.79317
 21
539.008
 31
0.0
  0
LINE
  5
7CA
100
AcDbEntity
  8
LAY-1
  6
CONTINUOUS
 62
     2
100
AcDbLine
 10
135.61983
 20
538.588
 30
0.0
 11
138.06017
 21
538.588
 31
0.0
  0
TEXT
  5
7CC
100
AcDbEntity
  8
LAY-1
  6
CONTINUOUS
 62
     1
100
AcDbText
 10
173.950002
 20
-23.9
 30
0.0
 40
11.25
  1
スケールは１／１０となっています。必要に応じてサイズを１０倍して下さい。
 41
0.966667
  7
EXCADTTF1
 72
     5
 11
696.450002
 21
-23.9
 31
0.0
100
AcDbText
  0
ENDSEC
  0
SECTION
  2
OBJECTS
  0
DICTIONARY
  5
19
100
AcDbDictionary
  3
ACAD_GROUP
350
1A
  3
ACAD_MLINESTYLE
350
1B
  0
DICTIONARY
  5
1A
102
{ACAD_REACTORS
330
19
102
}
100
AcDbDictionary
  0
DICTIONARY
  5
1B
102
{ACAD_REACTORS
330
19
102
}
100
AcDbDictionary
  3
STANDARD
350
1C
  0
MLINESTYLE
  5
1C
102
{ACAD_REACTORS
330
1B
102
}
100
AcDbMlineStyle
  2
Standard
 70
     0
  3

 62
     0
 51
90.0
 52
90.0
 71
     2
 49
0.5
 62
   256
  6
ByLayer
 49
-0.5
 62
   256
  6
ByLayer
  0
ENDSEC
  0
EOF
